  0
SECTION
  2
HEADER
  9
$ACADVER
  1
AC1014
  9
$ACADMAINTVER
 70
     9
  9
$DWGCODEPAGE
  3
ANSI_1252
  9
$INSBASE
 10
0.0
 20
0.0
 30
0.0
  9
$EXTMIN
 10
33.15354330708661
 20
21.6771653543307
 30
0.0
  9
$EXTMAX
 10
44.25393700787402
 20
30.2775590551181
 30
0.0
  9
$LIMMIN
 10
0.0
 20
0.0
  9
$LIMMAX
 10
12.0
 20
9.0
  9
$ORTHOMODE
 70
     0
  9
$REGENMODE
 70
     1
  9
$FILLMODE
 70
     1
  9
$QTEXTMODE
 70
     0
  9
$MIRRTEXT
 70
     1
  9
$DRAGMODE
 70
     2
  9
$LTSCALE
 40
1.0
  9
$OSMODE
 70
    37
  9
$ATTMODE
 70
     1
  9
$TEXTSIZE
 40
0.2
  9
$TRACEWID
 40
0.05
  9
$TEXTSTYLE
  7
STANDARD
  9
$CLAYER
  8
0
  9
$CELTYPE
  6
BYLAYER
  9
$CECOLOR
 62
   256
  9
$CELTSCALE
 40
1.0
  9
$DELOBJ
 70
     1
  9
$DISPSILH
 70
     0
  9
$DIMSCALE
 40
1.0
  9
$DIMASZ
 40
0.18
  9
$DIMEXO
 40
0.0625
  9
$DIMDLI
 40
0.38
  9
$DIMRND
 40
0.0
  9
$DIMDLE
 40
0.0
  9
$DIMEXE
 40
0.18
  9
$DIMTP
 40
0.0
  9
$DIMTM
 40
0.0
  9
$DIMTXT
 40
0.18
  9
$DIMCEN
 40
0.09
  9
$DIMTSZ
 40
0.0
  9
$DIMTOL
 70
     0
  9
$DIMLIM
 70
     0
  9
$DIMTIH
 70
     1
  9
$DIMTOH
 70
     1
  9
$DIMSE1
 70
     0
  9
$DIMSE2
 70
     0
  9
$DIMTAD
 70
     0
  9
$DIMZIN
 70
     0
  9
$DIMBLK
  1

  9
$DIMASO
 70
     1
  9
$DIMSHO
 70
     1
  9
$DIMPOST
  1

  9
$DIMAPOST
  1

  9
$DIMALT
 70
     0
  9
$DIMALTD
 70
     2
  9
$DIMALTF
 40
25.4
  9
$DIMLFAC
 40
1.0
  9
$DIMTOFL
 70
     0
  9
$DIMTVP
 40
0.0
  9
$DIMTIX
 70
     0
  9
$DIMSOXD
 70
     0
  9
$DIMSAH
 70
     0
  9
$DIMBLK1
  1

  9
$DIMBLK2
  1

  9
$DIMSTYLE
  2
STANDARD
  9
$DIMCLRD
 70
     0
  9
$DIMCLRE
 70
     0
  9
$DIMCLRT
 70
     0
  9
$DIMTFAC
 40
1.0
  9
$DIMGAP
 40
0.09
  9
$DIMJUST
 70
     0
  9
$DIMSD1
 70
     0
  9
$DIMSD2
 70
     0
  9
$DIMTOLJ
 70
     1
  9
$DIMTZIN
 70
     0
  9
$DIMALTZ
 70
     0
  9
$DIMALTTZ
 70
     0
  9
$DIMFIT
 70
     5
  9
$DIMUPT
 70
     0
  9
$DIMUNIT
 70
     2
  9
$DIMDEC
 70
     4
  9
$DIMTDEC
 70
     4
  9
$DIMALTU
 70
     2
  9
$DIMALTTD
 70
     2
  9
$DIMTXSTY
  7
STANDARD
  9
$DIMAUNIT
 70
     0
  9
$LUNITS
 70
     2
  9
$LUPREC
 70
     4
  9
$SKETCHINC
 40
0.1
  9
$FILLETRAD
 40
0.0
  9
$AUNITS
 70
     0
  9
$AUPREC
 70
     0
  9
$MENU
  1
acad
  9
$ELEVATION
 40
0.0
  9
$PELEVATION
 40
0.0
  9
$THICKNESS
 40
0.0
  9
$LIMCHECK
 70
     0
  9
$BLIPMODE
 70
     0
  9
$CHAMFERA
 40
0.0
  9
$CHAMFERB
 40
0.0
  9
$CHAMFERC
 40
0.0
  9
$CHAMFERD
 40
0.0
  9
$SKPOLY
 70
     0
  9
$TDCREATE
 40
2452328.729618055
  9
$TDUPDATE
 40
2452328.734719687
  9
$TDINDWG
 40
0.0013033565
  9
$TDUSRTIMER
 40
0.0013033565
  9
$USRTIMER
 70
     1
  9
$ANGBASE
 50
0.0
  9
$ANGDIR
 70
     0
  9
$PDMODE
 70
     0
  9
$PDSIZE
 40
0.0
  9
$PLINEWID
 40
0.0
  9
$COORDS
 70
     2
  9
$SPLFRAME
 70
     0
  9
$SPLINETYPE
 70
     6
  9
$SPLINESEGS
 70
     8
  9
$ATTDIA
 70
     0
  9
$ATTREQ
 70
     1
  9
$HANDLING
 70
-16383
  9
$HANDSEED
  5
21C3
  9
$SURFTAB1
 70
     6
  9
$SURFTAB2
 70
     6
  9
$SURFTYPE
 70
     6
  9
$SURFU
 70
     6
  9
$SURFV
 70
     6
  9
$UCSNAME
  2

  9
$UCSORG
 10
0.0
 20
0.0
 30
0.0
  9
$UCSXDIR
 10
1.0
 20
0.0
 30
0.0
  9
$UCSYDIR
 10
0.0
 20
1.0
 30
0.0
  9
$PUCSNAME
  2

  9
$PUCSORG
 10
0.0
 20
0.0
 30
0.0
  9
$PUCSXDIR
 10
1.0
 20
0.0
 30
0.0
  9
$PUCSYDIR
 10
0.0
 20
1.0
 30
0.0
  9
$USERI1
 70
     0
  9
$USERI2
 70
     0
  9
$USERI3
 70
     0
  9
$USERI4
 70
     0
  9
$USERI5
 70
     0
  9
$USERR1
 40
0.0
  9
$USERR2
 40
0.0
  9
$USERR3
 40
0.0
  9
$USERR4
 40
0.0
  9
$USERR5
 40
0.0
  9
$WORLDVIEW
 70
     1
  9
$SHADEDGE
 70
     3
  9
$SHADEDIF
 70
    70
  9
$TILEMODE
 70
     1
  9
$MAXACTVP
 70
    16
  9
$PINSBASE
 10
0.0
 20
0.0
 30
0.0
  9
$PLIMCHECK
 70
     0
  9
$PEXTMIN
 10
1.000000000000000E+20
 20
1.000000000000000E+20
 30
1.000000000000000E+20
  9
$PEXTMAX
 10
-1.000000000000000E+20
 20
-1.000000000000000E+20
 30
-1.000000000000000E+20
  9
$PLIMMIN
 10
0.0
 20
0.0
  9
$PLIMMAX
 10
12.0
 20
9.0
  9
$UNITMODE
 70
     0
  9
$VISRETAIN
 70
     0
  9
$PLINEGEN
 70
     0
  9
$PSLTSCALE
 70
     1
  9
$TREEDEPTH
 70
  3020
  9
$PICKSTYLE
 70
     0
  9
$CMLSTYLE
  2
STANDARD
  9
$CMLJUST
 70
     0
  9
$CMLSCALE
 40
1.0
  9
$PROXYGRAPHICS
 70
     1
  9
$MEASUREMENT
 70
     0
  0
ENDSEC
  0
SECTION
  2
CLASSES
  0
CLASS
  1
ACDBDICTIONARYWDFLT
  2
AcDbDictionaryWithDefault
  3
AutoCAD 2000
 90
        0
280
     0
281
     0
  0
CLASS
  1
ACDBPLACEHOLDER
  2
AcDbPlaceHolder
  3
AutoCAD 2000
 90
        0
280
     0
281
     0
  0
CLASS
  1
LAYOUT
  2
AcDbLayout
  3
AutoCAD 2000
 90
        0
280
     0
281
     0
  0
CLASS
  1
LONG_TRANSACTION
  2
AcDbLongTransaction
  3
AutoCAD 2000
 90
        0
280
     0
281
     0
  0
CLASS
  1
LWPOLYLINE
  2
AcDbPolyline
  3
AutoCAD 2000
 90
        0
280
     0
281
     1
  0
CLASS
  1
HATCH
  2
AcDbHatch
  3
AutoCAD 2000
 90
        0
280
     0
281
     1
  0
CLASS
  1
XRECORD
  2
AcDbXrecord
  3
AutoCAD 2000
 90
        0
280
     0
281
     0
  0
ENDSEC
  0
SECTION
  2
TABLES
  0
TABLE
  2
VPORT
  5
8
330
0
100
AcDbSymbolTable
 70
     3
  0
VPORT
  5
219D
330
8
100
AcDbSymbolTableRecord
100
AcDbViewportTableRecord
  2
*ACTIVE
 70
     0
 10
0.0
 20
0.0
 11
1.0
 21
1.0
 12
38.70374015748031
 22
25.97736220472441
 13
0.0
 23
0.0
 14
1.0
 24
1.0
 15
0.0
 25
0.0
 16
0.0
 26
0.0
 36
1.0
 17
0.0
 27
0.0
 37
0.0
 40
8.667409755598733
 41
1.503250975292587
 42
50.0
 43
0.0
 44
0.0
 50
0.0
 51
0.0
 71
     0
 72
   100
 73
     1
 74
     1
 75
     0
 76
     0
 77
     0
 78
     0
  0
ENDTAB
  0
TABLE
  2
LTYPE
  5
5
330
0
100
AcDbSymbolTable
 70
    25
  0
LTYPE
  5
13
330
5
100
AcDbSymbolTableRecord
100
AcDbLinetypeTableRecord
  2
BYBLOCK
 70
     0
  3

 72
    65
 73
     0
 40
0.0
  0
LTYPE
  5
14
330
5
100
AcDbSymbolTableRecord
100
AcDbLinetypeTableRecord
  2
BYLAYER
 70
     0
  3

 72
    65
 73
     0
 40
0.0
  0
LTYPE
  5
15
330
5
100
AcDbSymbolTableRecord
100
AcDbLinetypeTableRecord
  2
CONTINUOUS
 70
     0
  3
Solid line
 72
    65
 73
     0
 40
0.0
  0
LTYPE
  5
22
330
5
100
AcDbSymbolTableRecord
100
AcDbLinetypeTableRecord
  2
BORDER
 70
     0
  3
__ __ . __ __ . __ __ . __ __ . __ __ . __ __ .
 72
    65
 73
     6
 40
1.75
 49
0.5
 74
     0
 49
-0.25
 74
     0
 49
0.5
 74
     0
 49
-0.25
 74
     0
 49
0.5
 74
     0
 49
-0.25
 74
     0
  0
LTYPE
  5
23
330
5
100
AcDbSymbolTableRecord
100
AcDbLinetypeTableRecord
  2
BORDER2
 70
     0
  3
__.__.__.__.__.__.__.__.__.__.__.__.__.__.__.__
 72
    65
 73
     6
 40
0.875
 49
0.25
 74
     0
 49
-0.125
 74
     0
 49
0.25
 74
     0
 49
-0.125
 74
     0
 49
0.25
 74
     0
 49
-0.125
 74
     0
  0
LTYPE
  5
24
330
5
100
AcDbSymbolTableRecord
100
AcDbLinetypeTableRecord
  2
BORDERX2
 70
     0
  3
____  ____  .  ____  ____  .  
 72
    65
 73
     6
 40
3.5
 49
1.0
 74
     0
 49
-0.5
 74
     0
 49
1.0
 74
     0
 49
-0.5
 74
     0
 49
1.0
 74
     0
 49
-0.5
 74
     0
  0
LTYPE
  5
25
330
5
100
AcDbSymbolTableRecord
100
AcDbLinetypeTableRecord
  2
CENTER
 70
     0
  3
____ _ ____ _ ____ _ ____ _ ____ _ ____ _ ____
 72
    65
 73
     4
 40
2.0
 49
1.25
 74
     0
 49
-0.25
 74
     0
 49
0.25
 74
     0
 49
-0.25
 74
     0
  0
LTYPE
  5
26
330
5
100
AcDbSymbolTableRecord
100
AcDbLinetypeTableRecord
  2
CENTER2
 70
     0
  3
____ _ ____ _ ____ _ ____ _ ____ _ ____ _ ____
 72
    65
 73
     4
 40
1.125
 49
0.75
 74
     0
 49
-0.125
 74
     0
 49
0.125
 74
     0
 49
-0.125
 74
     0
  0
LTYPE
  5
27
330
5
100
AcDbSymbolTableRecord
100
AcDbLinetypeTableRecord
  2
CENTERX2
 70
     0
  3
________  __  ________  __  ________  __  
 72
    65
 73
     4
 40
4.0
 49
2.5
 74
     0
 49
-0.5
 74
     0
 49
0.5
 74
     0
 49
-0.5
 74
     0
  0
LTYPE
  5
28
330
5
100
AcDbSymbolTableRecord
100
AcDbLinetypeTableRecord
  2
DASHDOT
 70
     0
  3
__ . __ . __ . __ . __ . __ . __ . 
 72
    65
 73
     4
 40
1.0
 49
0.5
 74
     0
 49
-0.25
 74
     0
 49
0.0
 74
     0
 49
-0.25
 74
     0
  0
LTYPE
  5
29
330
5
100
AcDbSymbolTableRecord
100
AcDbLinetypeTableRecord
  2
DASHDOT2
 70
     0
  3
_._._._._._._._._._._._._._._._.
 72
    65
 73
     4
 40
0.5
 49
0.25
 74
     0
 49
-0.125
 74
     0
 49
0.0
 74
     0
 49
-0.125
 74
     0
  0
LTYPE
  5
2A
330
5
100
AcDbSymbolTableRecord
100
AcDbLinetypeTableRecord
  2
DASHDOTX2
 70
     0
  3
____  .  ____  .  ____  .  ____  .  
 72
    65
 73
     4
 40
2.0
 49
1.0
 74
     0
 49
-0.5
 74
     0
 49
0.0
 74
     0
 49
-0.5
 74
     0
  0
LTYPE
  5
2B
330
5
100
AcDbSymbolTableRecord
100
AcDbLinetypeTableRecord
  2
DASHED
 70
     0
  3
__ __ __ __ __ __ __ __ __ __ __ __ 
 72
    65
 73
     2
 40
0.75
 49
0.5
 74
     0
 49
-0.25
 74
     0
  0
LTYPE
  5
2C
330
5
100
AcDbSymbolTableRecord
100
AcDbLinetypeTableRecord
  2
DASHED2
 70
     0
  3
_ _ _ _ _ _ _ _ _ _ _ _ _ _ _ _ _ _ 
 72
    65
 73
     2
 40
0.375
 49
0.25
 74
     0
 49
-0.125
 74
     0
  0
LTYPE
  5
2D
330
5
100
AcDbSymbolTableRecord
100
AcDbLinetypeTableRecord
  2
DASHEDX2
 70
     0
  3
____  ____  ____  ____  ____  ____  
 72
    65
 73
     2
 40
1.5
 49
1.0
 74
     0
 49
-0.5
 74
     0
  0
LTYPE
  5
2E
330
5
100
AcDbSymbolTableRecord
100
AcDbLinetypeTableRecord
  2
DIVIDE
 70
     0
  3
____ . . ____ . . ____ . . ____ . . 
 72
    65
 73
     6
 40
1.25
 49
0.5
 74
     0
 49
-0.25
 74
     0
 49
0.0
 74
     0
 49
-0.25
 74
     0
 49
0.0
 74
     0
 49
-0.25
 74
     0
  0
LTYPE
  5
2F
330
5
100
AcDbSymbolTableRecord
100
AcDbLinetypeTableRecord
  2
DIVIDE2
 70
     0
  3
__..__..__..__..__..__..__..__..__..
 72
    65
 73
     6
 40
0.625
 49
0.25
 74
     0
 49
-0.125
 74
     0
 49
0.0
 74
     0
 49
-0.125
 74
     0
 49
0.0
 74
     0
 49
-0.125
 74
     0
  0
LTYPE
  5
30
330
5
100
AcDbSymbolTableRecord
100
AcDbLinetypeTableRecord
  2
DIVIDEX2
 70
     0
  3
________  .  .  ________  .  .  ________  .  . 
 72
    65
 73
     6
 40
2.5
 49
1.0
 74
     0
 49
-0.5
 74
     0
 49
0.0
 74
     0
 49
-0.5
 74
     0
 49
0.0
 74
     0
 49
-0.5
 74
     0
  0
LTYPE
  5
31
330
5
100
AcDbSymbolTableRecord
100
AcDbLinetypeTableRecord
  2
DOT
 70
     0
  3
. . . . . . . . . . . . . . . . . . 
 72
    65
 73
     2
 40
0.25
 49
0.0
 74
     0
 49
-0.25
 74
     0
  0
LTYPE
  5
32
330
5
100
AcDbSymbolTableRecord
100
AcDbLinetypeTableRecord
  2
DOT2
 70
     0
  3
....................................
 72
    65
 73
     2
 40
0.125
 49
0.0
 74
     0
 49
-0.125
 74
     0
  0
LTYPE
  5
33
330
5
100
AcDbSymbolTableRecord
100
AcDbLinetypeTableRecord
  2
DOTX2
 70
     0
  3
.  .  .  .  .  .  .  .  .  .  .  .  .  
 72
    65
 73
     2
 40
0.5
 49
0.0
 74
     0
 49
-0.5
 74
     0
  0
LTYPE
  5
34
330
5
100
AcDbSymbolTableRecord
100
AcDbLinetypeTableRecord
  2
HIDDEN
 70
     0
  3
__ __ __ __ __ __ __ __ __ __ __ __ 
 72
    65
 73
     2
 40
0.375
 49
0.25
 74
     0
 49
-0.125
 74
     0
  0
LTYPE
  5
35
330
5
100
AcDbSymbolTableRecord
100
AcDbLinetypeTableRecord
  2
HIDDEN2
 70
     0
  3
_ _ _ _ _ _ _ _ _ _ _ _ _ _ _ _ _ _ 
 72
    65
 73
     2
 40
0.1875
 49
0.125
 74
     0
 49
-0.0625
 74
     0
  0
LTYPE
  5
36
330
5
100
AcDbSymbolTableRecord
100
AcDbLinetypeTableRecord
  2
HIDDENX2
 70
     0
  3
____ ____ ____ ____ ____ ____ ____ 
 72
    65
 73
     2
 40
0.75
 49
0.5
 74
     0
 49
-0.25
 74
     0
  0
LTYPE
  5
37
330
5
100
AcDbSymbolTableRecord
100
AcDbLinetypeTableRecord
  2
PHANTOM
 70
     0
  3
______  __  __  ______  __  __  
 72
    65
 73
     6
 40
2.5
 49
1.25
 74
     0
 49
-0.25
 74
     0
 49
0.25
 74
     0
 49
-0.25
 74
     0
 49
0.25
 74
     0
 49
-0.25
 74
     0
  0
LTYPE
  5
38
330
5
100
AcDbSymbolTableRecord
100
AcDbLinetypeTableRecord
  2
PHANTOM2
 70
     0
  3
___ _ _ ___ _ _ ___ _ _ ___ _ _ 
 72
    65
 73
     6
 40
1.25
 49
0.625
 74
     0
 49
-0.125
 74
     0
 49
0.125
 74
     0
 49
-0.125
 74
     0
 49
0.125
 74
     0
 49
-0.125
 74
     0
  0
LTYPE
  5
39
330
5
100
AcDbSymbolTableRecord
100
AcDbLinetypeTableRecord
  2
PHANTOMX2
 70
     0
  3
___ _ _ ___ _ _ ___ _ _ ___ _ _ 
 72
    65
 73
     6
 40
5.0
 49
2.5
 74
     0
 49
-0.5
 74
     0
 49
0.5
 74
     0
 49
-0.5
 74
     0
 49
0.5
 74
     0
 49
-0.5
 74
     0
  0
ENDTAB
  0
TABLE
  2
LAYER
  5
2
330
0
100
AcDbSymbolTable
 70
   256
  0
LAYER
  5
10
330
2
100
AcDbSymbolTableRecord
100
AcDbLayerTableRecord
  2
0
 70
     0
 62
     7
  6
CONTINUOUS
  0
LAYER
  5
3A
330
2
100
AcDbSymbolTableRecord
100
AcDbLayerTableRecord
  2
1
 70
     0
 62
     1
  6
CONTINUOUS
  0
LAYER
  5
3B
330
2
100
AcDbSymbolTableRecord
100
AcDbLayerTableRecord
  2
2
 70
     0
 62
     2
  6
CONTINUOUS
  0
LAYER
  5
3C
330
2
100
AcDbSymbolTableRecord
100
AcDbLayerTableRecord
  2
3
 70
     0
 62
     3
  6
CONTINUOUS
  0
LAYER
  5
3D
330
2
100
AcDbSymbolTableRecord
100
AcDbLayerTableRecord
  2
4
 70
     0
 62
     4
  6
CONTINUOUS
  0
LAYER
  5
3E
330
2
100
AcDbSymbolTableRecord
100
AcDbLayerTableRecord
  2
5
 70
     0
 62
     5
  6
CONTINUOUS
  0
LAYER
  5
3F
330
2
100
AcDbSymbolTableRecord
100
AcDbLayerTableRecord
  2
6
 70
     0
 62
     6
  6
CONTINUOUS
  0
LAYER
  5
40
330
2
100
AcDbSymbolTableRecord
100
AcDbLayerTableRecord
  2
7
 70
     0
 62
     7
  6
CONTINUOUS
  0
LAYER
  5
41
330
2
100
AcDbSymbolTableRecord
100
AcDbLayerTableRecord
  2
8
 70
     0
 62
     8
  6
CONTINUOUS
  0
LAYER
  5
42
330
2
100
AcDbSymbolTableRecord
100
AcDbLayerTableRecord
  2
9
 70
     0
 62
     9
  6
CONTINUOUS
  0
LAYER
  5
43
330
2
100
AcDbSymbolTableRecord
100
AcDbLayerTableRecord
  2
10
 70
     0
 62
    10
  6
CONTINUOUS
  0
LAYER
  5
44
330
2
100
AcDbSymbolTableRecord
100
AcDbLayerTableRecord
  2
11
 70
     0
 62
    11
  6
CONTINUOUS
  0
LAYER
  5
45
330
2
100
AcDbSymbolTableRecord
100
AcDbLayerTableRecord
  2
12
 70
     0
 62
    12
  6
CONTINUOUS
  0
LAYER
  5
46
330
2
100
AcDbSymbolTableRecord
100
AcDbLayerTableRecord
  2
13
 70
     0
 62
    13
  6
CONTINUOUS
  0
LAYER
  5
47
330
2
100
AcDbSymbolTableRecord
100
AcDbLayerTableRecord
  2
14
 70
     0
 62
    14
  6
CONTINUOUS
  0
LAYER
  5
48
330
2
100
AcDbSymbolTableRecord
100
AcDbLayerTableRecord
  2
15
 70
     0
 62
    15
  6
CONTINUOUS
  0
LAYER
  5
49
330
2
100
AcDbSymbolTableRecord
100
AcDbLayerTableRecord
  2
16
 70
     0
 62
    16
  6
CONTINUOUS
  0
LAYER
  5
4A
330
2
100
AcDbSymbolTableRecord
100
AcDbLayerTableRecord
  2
17
 70
     0
 62
    17
  6
CONTINUOUS
  0
LAYER
  5
4B
330
2
100
AcDbSymbolTableRecord
100
AcDbLayerTableRecord
  2
18
 70
     0
 62
    18
  6
CONTINUOUS
  0
LAYER
  5
4C
330
2
100
AcDbSymbolTableRecord
100
AcDbLayerTableRecord
  2
19
 70
     0
 62
    19
  6
CONTINUOUS
  0
LAYER
  5
4D
330
2
100
AcDbSymbolTableRecord
100
AcDbLayerTableRecord
  2
20
 70
     0
 62
    20
  6
CONTINUOUS
  0
LAYER
  5
4E
330
2
100
AcDbSymbolTableRecord
100
AcDbLayerTableRecord
  2
21
 70
     0
 62
    21
  6
CONTINUOUS
  0
LAYER
  5
4F
330
2
100
AcDbSymbolTableRecord
100
AcDbLayerTableRecord
  2
22
 70
     0
 62
    22
  6
CONTINUOUS
  0
LAYER
  5
50
330
2
100
AcDbSymbolTableRecord
100
AcDbLayerTableRecord
  2
23
 70
     0
 62
    23
  6
CONTINUOUS
  0
LAYER
  5
51
330
2
100
AcDbSymbolTableRecord
100
AcDbLayerTableRecord
  2
24
 70
     0
 62
    24
  6
CONTINUOUS
  0
LAYER
  5
52
330
2
100
AcDbSymbolTableRecord
100
AcDbLayerTableRecord
  2
25
 70
     0
 62
    25
  6
CONTINUOUS
  0
LAYER
  5
53
330
2
100
AcDbSymbolTableRecord
100
AcDbLayerTableRecord
  2
26
 70
     0
 62
    26
  6
CONTINUOUS
  0
LAYER
  5
54
330
2
100
AcDbSymbolTableRecord
100
AcDbLayerTableRecord
  2
27
 70
     0
 62
    27
  6
CONTINUOUS
  0
LAYER
  5
55
330
2
100
AcDbSymbolTableRecord
100
AcDbLayerTableRecord
  2
28
 70
     0
 62
    28
  6
CONTINUOUS
  0
LAYER
  5
56
330
2
100
AcDbSymbolTableRecord
100
AcDbLayerTableRecord
  2
29
 70
     0
 62
    29
  6
CONTINUOUS
  0
LAYER
  5
57
330
2
100
AcDbSymbolTableRecord
100
AcDbLayerTableRecord
  2
30
 70
     0
 62
    30
  6
CONTINUOUS
  0
LAYER
  5
58
330
2
100
AcDbSymbolTableRecord
100
AcDbLayerTableRecord
  2
31
 70
     0
 62
    31
  6
CONTINUOUS
  0
LAYER
  5
59
330
2
100
AcDbSymbolTableRecord
100
AcDbLayerTableRecord
  2
32
 70
     0
 62
    32
  6
CONTINUOUS
  0
LAYER
  5
5A
330
2
100
AcDbSymbolTableRecord
100
AcDbLayerTableRecord
  2
33
 70
     0
 62
    33
  6
CONTINUOUS
  0
LAYER
  5
5B
330
2
100
AcDbSymbolTableRecord
100
AcDbLayerTableRecord
  2
34
 70
     0
 62
    34
  6
CONTINUOUS
  0
LAYER
  5
5C
330
2
100
AcDbSymbolTableRecord
100
AcDbLayerTableRecord
  2
35
 70
     0
 62
    35
  6
CONTINUOUS
  0
LAYER
  5
5D
330
2
100
AcDbSymbolTableRecord
100
AcDbLayerTableRecord
  2
36
 70
     0
 62
    36
  6
CONTINUOUS
  0
LAYER
  5
5E
330
2
100
AcDbSymbolTableRecord
100
AcDbLayerTableRecord
  2
37
 70
     0
 62
    37
  6
CONTINUOUS
  0
LAYER
  5
5F
330
2
100
AcDbSymbolTableRecord
100
AcDbLayerTableRecord
  2
38
 70
     0
 62
    38
  6
CONTINUOUS
  0
LAYER
  5
60
330
2
100
AcDbSymbolTableRecord
100
AcDbLayerTableRecord
  2
39
 70
     0
 62
    39
  6
CONTINUOUS
  0
LAYER
  5
61
330
2
100
AcDbSymbolTableRecord
100
AcDbLayerTableRecord
  2
40
 70
     0
 62
    40
  6
CONTINUOUS
  0
LAYER
  5
62
330
2
100
AcDbSymbolTableRecord
100
AcDbLayerTableRecord
  2
41
 70
     0
 62
    41
  6
CONTINUOUS
  0
LAYER
  5
63
330
2
100
AcDbSymbolTableRecord
100
AcDbLayerTableRecord
  2
42
 70
     0
 62
    42
  6
CONTINUOUS
  0
LAYER
  5
64
330
2
100
AcDbSymbolTableRecord
100
AcDbLayerTableRecord
  2
43
 70
     0
 62
    43
  6
CONTINUOUS
  0
LAYER
  5
65
330
2
100
AcDbSymbolTableRecord
100
AcDbLayerTableRecord
  2
44
 70
     0
 62
    44
  6
CONTINUOUS
  0
LAYER
  5
66
330
2
100
AcDbSymbolTableRecord
100
AcDbLayerTableRecord
  2
45
 70
     0
 62
    45
  6
CONTINUOUS
  0
LAYER
  5
67
330
2
100
AcDbSymbolTableRecord
100
AcDbLayerTableRecord
  2
46
 70
     0
 62
    46
  6
CONTINUOUS
  0
LAYER
  5
68
330
2
100
AcDbSymbolTableRecord
100
AcDbLayerTableRecord
  2
47
 70
     0
 62
    47
  6
CONTINUOUS
  0
LAYER
  5
69
330
2
100
AcDbSymbolTableRecord
100
AcDbLayerTableRecord
  2
48
 70
     0
 62
    48
  6
CONTINUOUS
  0
LAYER
  5
6A
330
2
100
AcDbSymbolTableRecord
100
AcDbLayerTableRecord
  2
49
 70
     0
 62
    49
  6
CONTINUOUS
  0
LAYER
  5
6B
330
2
100
AcDbSymbolTableRecord
100
AcDbLayerTableRecord
  2
50
 70
     0
 62
    50
  6
CONTINUOUS
  0
LAYER
  5
6C
330
2
100
AcDbSymbolTableRecord
100
AcDbLayerTableRecord
  2
51
 70
     0
 62
    51
  6
CONTINUOUS
  0
LAYER
  5
6D
330
2
100
AcDbSymbolTableRecord
100
AcDbLayerTableRecord
  2
52
 70
     0
 62
    52
  6
CONTINUOUS
  0
LAYER
  5
6E
330
2
100
AcDbSymbolTableRecord
100
AcDbLayerTableRecord
  2
53
 70
     0
 62
    53
  6
CONTINUOUS
  0
LAYER
  5
6F
330
2
100
AcDbSymbolTableRecord
100
AcDbLayerTableRecord
  2
54
 70
     0
 62
    54
  6
CONTINUOUS
  0
LAYER
  5
70
330
2
100
AcDbSymbolTableRecord
100
AcDbLayerTableRecord
  2
55
 70
     0
 62
    55
  6
CONTINUOUS
  0
LAYER
  5
71
330
2
100
AcDbSymbolTableRecord
100
AcDbLayerTableRecord
  2
56
 70
     0
 62
    56
  6
CONTINUOUS
  0
LAYER
  5
72
330
2
100
AcDbSymbolTableRecord
100
AcDbLayerTableRecord
  2
57
 70
     0
 62
    57
  6
CONTINUOUS
  0
LAYER
  5
73
330
2
100
AcDbSymbolTableRecord
100
AcDbLayerTableRecord
  2
58
 70
     0
 62
    58
  6
CONTINUOUS
  0
LAYER
  5
74
330
2
100
AcDbSymbolTableRecord
100
AcDbLayerTableRecord
  2
59
 70
     0
 62
    59
  6
CONTINUOUS
  0
LAYER
  5
75
330
2
100
AcDbSymbolTableRecord
100
AcDbLayerTableRecord
  2
60
 70
     0
 62
    60
  6
CONTINUOUS
  0
LAYER
  5
76
330
2
100
AcDbSymbolTableRecord
100
AcDbLayerTableRecord
  2
61
 70
     0
 62
    61
  6
CONTINUOUS
  0
LAYER
  5
77
330
2
100
AcDbSymbolTableRecord
100
AcDbLayerTableRecord
  2
62
 70
     0
 62
    62
  6
CONTINUOUS
  0
LAYER
  5
78
330
2
100
AcDbSymbolTableRecord
100
AcDbLayerTableRecord
  2
63
 70
     0
 62
    63
  6
CONTINUOUS
  0
LAYER
  5
79
330
2
100
AcDbSymbolTableRecord
100
AcDbLayerTableRecord
  2
64
 70
     0
 62
    64
  6
CONTINUOUS
  0
LAYER
  5
7A
330
2
100
AcDbSymbolTableRecord
100
AcDbLayerTableRecord
  2
65
 70
     0
 62
    65
  6
CONTINUOUS
  0
LAYER
  5
7B
330
2
100
AcDbSymbolTableRecord
100
AcDbLayerTableRecord
  2
66
 70
     0
 62
    66
  6
CONTINUOUS
  0
LAYER
  5
7C
330
2
100
AcDbSymbolTableRecord
100
AcDbLayerTableRecord
  2
67
 70
     0
 62
    67
  6
CONTINUOUS
  0
LAYER
  5
7D
330
2
100
AcDbSymbolTableRecord
100
AcDbLayerTableRecord
  2
68
 70
     0
 62
    68
  6
CONTINUOUS
  0
LAYER
  5
7E
330
2
100
AcDbSymbolTableRecord
100
AcDbLayerTableRecord
  2
69
 70
     0
 62
    69
  6
CONTINUOUS
  0
LAYER
  5
7F
330
2
100
AcDbSymbolTableRecord
100
AcDbLayerTableRecord
  2
70
 70
     0
 62
    70
  6
CONTINUOUS
  0
LAYER
  5
80
330
2
100
AcDbSymbolTableRecord
100
AcDbLayerTableRecord
  2
71
 70
     0
 62
    71
  6
CONTINUOUS
  0
LAYER
  5
81
330
2
100
AcDbSymbolTableRecord
100
AcDbLayerTableRecord
  2
72
 70
     0
 62
    72
  6
CONTINUOUS
  0
LAYER
  5
82
330
2
100
AcDbSymbolTableRecord
100
AcDbLayerTableRecord
  2
73
 70
     0
 62
    73
  6
CONTINUOUS
  0
LAYER
  5
83
330
2
100
AcDbSymbolTableRecord
100
AcDbLayerTableRecord
  2
74
 70
     0
 62
    74
  6
CONTINUOUS
  0
LAYER
  5
84
330
2
100
AcDbSymbolTableRecord
100
AcDbLayerTableRecord
  2
75
 70
     0
 62
    75
  6
CONTINUOUS
  0
LAYER
  5
85
330
2
100
AcDbSymbolTableRecord
100
AcDbLayerTableRecord
  2
76
 70
     0
 62
    76
  6
CONTINUOUS
  0
LAYER
  5
86
330
2
100
AcDbSymbolTableRecord
100
AcDbLayerTableRecord
  2
77
 70
     0
 62
    77
  6
CONTINUOUS
  0
LAYER
  5
87
330
2
100
AcDbSymbolTableRecord
100
AcDbLayerTableRecord
  2
78
 70
     0
 62
    78
  6
CONTINUOUS
  0
LAYER
  5
88
330
2
100
AcDbSymbolTableRecord
100
AcDbLayerTableRecord
  2
79
 70
     0
 62
    79
  6
CONTINUOUS
  0
LAYER
  5
89
330
2
100
AcDbSymbolTableRecord
100
AcDbLayerTableRecord
  2
80
 70
     0
 62
    80
  6
CONTINUOUS
  0
LAYER
  5
8A
330
2
100
AcDbSymbolTableRecord
100
AcDbLayerTableRecord
  2
81
 70
     0
 62
    81
  6
CONTINUOUS
  0
LAYER
  5
8B
330
2
100
AcDbSymbolTableRecord
100
AcDbLayerTableRecord
  2
82
 70
     0
 62
    82
  6
CONTINUOUS
  0
LAYER
  5
8C
330
2
100
AcDbSymbolTableRecord
100
AcDbLayerTableRecord
  2
83
 70
     0
 62
    83
  6
CONTINUOUS
  0
LAYER
  5
8D
330
2
100
AcDbSymbolTableRecord
100
AcDbLayerTableRecord
  2
84
 70
     0
 62
    84
  6
CONTINUOUS
  0
LAYER
  5
8E
330
2
100
AcDbSymbolTableRecord
100
AcDbLayerTableRecord
  2
85
 70
     0
 62
    85
  6
CONTINUOUS
  0
LAYER
  5
8F
330
2
100
AcDbSymbolTableRecord
100
AcDbLayerTableRecord
  2
86
 70
     0
 62
    86
  6
CONTINUOUS
  0
LAYER
  5
90
330
2
100
AcDbSymbolTableRecord
100
AcDbLayerTableRecord
  2
87
 70
     0
 62
    87
  6
CONTINUOUS
  0
LAYER
  5
91
330
2
100
AcDbSymbolTableRecord
100
AcDbLayerTableRecord
  2
88
 70
     0
 62
    88
  6
CONTINUOUS
  0
LAYER
  5
92
330
2
100
AcDbSymbolTableRecord
100
AcDbLayerTableRecord
  2
89
 70
     0
 62
    89
  6
CONTINUOUS
  0
LAYER
  5
93
330
2
100
AcDbSymbolTableRecord
100
AcDbLayerTableRecord
  2
90
 70
     0
 62
    90
  6
CONTINUOUS
  0
LAYER
  5
94
330
2
100
AcDbSymbolTableRecord
100
AcDbLayerTableRecord
  2
91
 70
     0
 62
    91
  6
CONTINUOUS
  0
LAYER
  5
95
330
2
100
AcDbSymbolTableRecord
100
AcDbLayerTableRecord
  2
92
 70
     0
 62
    92
  6
CONTINUOUS
  0
LAYER
  5
96
330
2
100
AcDbSymbolTableRecord
100
AcDbLayerTableRecord
  2
93
 70
     0
 62
    93
  6
CONTINUOUS
  0
LAYER
  5
97
330
2
100
AcDbSymbolTableRecord
100
AcDbLayerTableRecord
  2
94
 70
     0
 62
    94
  6
CONTINUOUS
  0
LAYER
  5
98
330
2
100
AcDbSymbolTableRecord
100
AcDbLayerTableRecord
  2
95
 70
     0
 62
    95
  6
CONTINUOUS
  0
LAYER
  5
99
330
2
100
AcDbSymbolTableRecord
100
AcDbLayerTableRecord
  2
96
 70
     0
 62
    96
  6
CONTINUOUS
  0
LAYER
  5
9A
330
2
100
AcDbSymbolTableRecord
100
AcDbLayerTableRecord
  2
97
 70
     0
 62
    97
  6
CONTINUOUS
  0
LAYER
  5
9B
330
2
100
AcDbSymbolTableRecord
100
AcDbLayerTableRecord
  2
98
 70
     0
 62
    98
  6
CONTINUOUS
  0
LAYER
  5
9C
330
2
100
AcDbSymbolTableRecord
100
AcDbLayerTableRecord
  2
99
 70
     0
 62
    99
  6
CONTINUOUS
  0
LAYER
  5
9D
330
2
100
AcDbSymbolTableRecord
100
AcDbLayerTableRecord
  2
100
 70
     0
 62
   100
  6
CONTINUOUS
  0
LAYER
  5
9E
330
2
100
AcDbSymbolTableRecord
100
AcDbLayerTableRecord
  2
101
 70
     0
 62
   101
  6
CONTINUOUS
  0
LAYER
  5
9F
330
2
100
AcDbSymbolTableRecord
100
AcDbLayerTableRecord
  2
102
 70
     0
 62
   102
  6
CONTINUOUS
  0
LAYER
  5
A0
330
2
100
AcDbSymbolTableRecord
100
AcDbLayerTableRecord
  2
103
 70
     0
 62
   103
  6
CONTINUOUS
  0
LAYER
  5
A1
330
2
100
AcDbSymbolTableRecord
100
AcDbLayerTableRecord
  2
104
 70
     0
 62
   104
  6
CONTINUOUS
  0
LAYER
  5
A2
330
2
100
AcDbSymbolTableRecord
100
AcDbLayerTableRecord
  2
105
 70
     0
 62
   105
  6
CONTINUOUS
  0
LAYER
  5
A3
330
2
100
AcDbSymbolTableRecord
100
AcDbLayerTableRecord
  2
106
 70
     0
 62
   106
  6
CONTINUOUS
  0
LAYER
  5
A4
330
2
100
AcDbSymbolTableRecord
100
AcDbLayerTableRecord
  2
107
 70
     0
 62
   107
  6
CONTINUOUS
  0
LAYER
  5
A5
330
2
100
AcDbSymbolTableRecord
100
AcDbLayerTableRecord
  2
108
 70
     0
 62
   108
  6
CONTINUOUS
  0
LAYER
  5
A6
330
2
100
AcDbSymbolTableRecord
100
AcDbLayerTableRecord
  2
109
 70
     0
 62
   109
  6
CONTINUOUS
  0
LAYER
  5
A7
330
2
100
AcDbSymbolTableRecord
100
AcDbLayerTableRecord
  2
110
 70
     0
 62
   110
  6
CONTINUOUS
  0
LAYER
  5
A8
330
2
100
AcDbSymbolTableRecord
100
AcDbLayerTableRecord
  2
111
 70
     0
 62
   111
  6
CONTINUOUS
  0
LAYER
  5
A9
330
2
100
AcDbSymbolTableRecord
100
AcDbLayerTableRecord
  2
112
 70
     0
 62
   112
  6
CONTINUOUS
  0
LAYER
  5
AA
330
2
100
AcDbSymbolTableRecord
100
AcDbLayerTableRecord
  2
113
 70
     0
 62
   113
  6
CONTINUOUS
  0
LAYER
  5
AB
330
2
100
AcDbSymbolTableRecord
100
AcDbLayerTableRecord
  2
114
 70
     0
 62
   114
  6
CONTINUOUS
  0
LAYER
  5
AC
330
2
100
AcDbSymbolTableRecord
100
AcDbLayerTableRecord
  2
115
 70
     0
 62
   115
  6
CONTINUOUS
  0
LAYER
  5
AD
330
2
100
AcDbSymbolTableRecord
100
AcDbLayerTableRecord
  2
116
 70
     0
 62
   116
  6
CONTINUOUS
  0
LAYER
  5
AE
330
2
100
AcDbSymbolTableRecord
100
AcDbLayerTableRecord
  2
117
 70
     0
 62
   117
  6
CONTINUOUS
  0
LAYER
  5
AF
330
2
100
AcDbSymbolTableRecord
100
AcDbLayerTableRecord
  2
118
 70
     0
 62
   118
  6
CONTINUOUS
  0
LAYER
  5
B0
330
2
100
AcDbSymbolTableRecord
100
AcDbLayerTableRecord
  2
119
 70
     0
 62
   119
  6
CONTINUOUS
  0
LAYER
  5
B1
330
2
100
AcDbSymbolTableRecord
100
AcDbLayerTableRecord
  2
120
 70
     0
 62
   120
  6
CONTINUOUS
  0
LAYER
  5
B2
330
2
100
AcDbSymbolTableRecord
100
AcDbLayerTableRecord
  2
121
 70
     0
 62
   121
  6
CONTINUOUS
  0
LAYER
  5
B3
330
2
100
AcDbSymbolTableRecord
100
AcDbLayerTableRecord
  2
122
 70
     0
 62
   122
  6
CONTINUOUS
  0
LAYER
  5
B4
330
2
100
AcDbSymbolTableRecord
100
AcDbLayerTableRecord
  2
123
 70
     0
 62
   123
  6
CONTINUOUS
  0
LAYER
  5
B5
330
2
100
AcDbSymbolTableRecord
100
AcDbLayerTableRecord
  2
124
 70
     0
 62
   124
  6
CONTINUOUS
  0
LAYER
  5
B6
330
2
100
AcDbSymbolTableRecord
100
AcDbLayerTableRecord
  2
125
 70
     0
 62
   125
  6
CONTINUOUS
  0
LAYER
  5
B7
330
2
100
AcDbSymbolTableRecord
100
AcDbLayerTableRecord
  2
126
 70
     0
 62
   126
  6
CONTINUOUS
  0
LAYER
  5
B8
330
2
100
AcDbSymbolTableRecord
100
AcDbLayerTableRecord
  2
127
 70
     0
 62
   127
  6
CONTINUOUS
  0
LAYER
  5
B9
330
2
100
AcDbSymbolTableRecord
100
AcDbLayerTableRecord
  2
128
 70
     0
 62
   128
  6
CONTINUOUS
  0
LAYER
  5
BA
330
2
100
AcDbSymbolTableRecord
100
AcDbLayerTableRecord
  2
129
 70
     0
 62
   129
  6
CONTINUOUS
  0
LAYER
  5
BB
330
2
100
AcDbSymbolTableRecord
100
AcDbLayerTableRecord
  2
130
 70
     0
 62
   130
  6
CONTINUOUS
  0
LAYER
  5
BC
330
2
100
AcDbSymbolTableRecord
100
AcDbLayerTableRecord
  2
131
 70
     0
 62
   131
  6
CONTINUOUS
  0
LAYER
  5
BD
330
2
100
AcDbSymbolTableRecord
100
AcDbLayerTableRecord
  2
132
 70
     0
 62
   132
  6
CONTINUOUS
  0
LAYER
  5
BE
330
2
100
AcDbSymbolTableRecord
100
AcDbLayerTableRecord
  2
133
 70
     0
 62
   133
  6
CONTINUOUS
  0
LAYER
  5
BF
330
2
100
AcDbSymbolTableRecord
100
AcDbLayerTableRecord
  2
134
 70
     0
 62
   134
  6
CONTINUOUS
  0
LAYER
  5
C0
330
2
100
AcDbSymbolTableRecord
100
AcDbLayerTableRecord
  2
135
 70
     0
 62
   135
  6
CONTINUOUS
  0
LAYER
  5
C1
330
2
100
AcDbSymbolTableRecord
100
AcDbLayerTableRecord
  2
136
 70
     0
 62
   136
  6
CONTINUOUS
  0
LAYER
  5
C2
330
2
100
AcDbSymbolTableRecord
100
AcDbLayerTableRecord
  2
137
 70
     0
 62
   137
  6
CONTINUOUS
  0
LAYER
  5
C3
330
2
100
AcDbSymbolTableRecord
100
AcDbLayerTableRecord
  2
138
 70
     0
 62
   138
  6
CONTINUOUS
  0
LAYER
  5
C4
330
2
100
AcDbSymbolTableRecord
100
AcDbLayerTableRecord
  2
139
 70
     0
 62
   139
  6
CONTINUOUS
  0
LAYER
  5
C5
330
2
100
AcDbSymbolTableRecord
100
AcDbLayerTableRecord
  2
140
 70
     0
 62
   140
  6
CONTINUOUS
  0
LAYER
  5
C6
330
2
100
AcDbSymbolTableRecord
100
AcDbLayerTableRecord
  2
141
 70
     0
 62
   141
  6
CONTINUOUS
  0
LAYER
  5
C7
330
2
100
AcDbSymbolTableRecord
100
AcDbLayerTableRecord
  2
142
 70
     0
 62
   142
  6
CONTINUOUS
  0
LAYER
  5
C8
330
2
100
AcDbSymbolTableRecord
100
AcDbLayerTableRecord
  2
143
 70
     0
 62
   143
  6
CONTINUOUS
  0
LAYER
  5
C9
330
2
100
AcDbSymbolTableRecord
100
AcDbLayerTableRecord
  2
144
 70
     0
 62
   144
  6
CONTINUOUS
  0
LAYER
  5
CA
330
2
100
AcDbSymbolTableRecord
100
AcDbLayerTableRecord
  2
145
 70
     0
 62
   145
  6
CONTINUOUS
  0
LAYER
  5
CB
330
2
100
AcDbSymbolTableRecord
100
AcDbLayerTableRecord
  2
146
 70
     0
 62
   146
  6
CONTINUOUS
  0
LAYER
  5
CC
330
2
100
AcDbSymbolTableRecord
100
AcDbLayerTableRecord
  2
147
 70
     0
 62
   147
  6
CONTINUOUS
  0
LAYER
  5
CD
330
2
100
AcDbSymbolTableRecord
100
AcDbLayerTableRecord
  2
148
 70
     0
 62
   148
  6
CONTINUOUS
  0
LAYER
  5
CE
330
2
100
AcDbSymbolTableRecord
100
AcDbLayerTableRecord
  2
149
 70
     0
 62
   149
  6
CONTINUOUS
  0
LAYER
  5
CF
330
2
100
AcDbSymbolTableRecord
100
AcDbLayerTableRecord
  2
150
 70
     0
 62
   150
  6
CONTINUOUS
  0
LAYER
  5
D0
330
2
100
AcDbSymbolTableRecord
100
AcDbLayerTableRecord
  2
151
 70
     0
 62
   151
  6
CONTINUOUS
  0
LAYER
  5
D1
330
2
100
AcDbSymbolTableRecord
100
AcDbLayerTableRecord
  2
152
 70
     0
 62
   152
  6
CONTINUOUS
  0
LAYER
  5
D2
330
2
100
AcDbSymbolTableRecord
100
AcDbLayerTableRecord
  2
153
 70
     0
 62
   153
  6
CONTINUOUS
  0
LAYER
  5
D3
330
2
100
AcDbSymbolTableRecord
100
AcDbLayerTableRecord
  2
154
 70
     0
 62
   154
  6
CONTINUOUS
  0
LAYER
  5
D4
330
2
100
AcDbSymbolTableRecord
100
AcDbLayerTableRecord
  2
155
 70
     0
 62
   155
  6
CONTINUOUS
  0
LAYER
  5
D5
330
2
100
AcDbSymbolTableRecord
100
AcDbLayerTableRecord
  2
156
 70
     0
 62
   156
  6
CONTINUOUS
  0
LAYER
  5
D6
330
2
100
AcDbSymbolTableRecord
100
AcDbLayerTableRecord
  2
157
 70
     0
 62
   157
  6
CONTINUOUS
  0
LAYER
  5
D7
330
2
100
AcDbSymbolTableRecord
100
AcDbLayerTableRecord
  2
158
 70
     0
 62
   158
  6
CONTINUOUS
  0
LAYER
  5
D8
330
2
100
AcDbSymbolTableRecord
100
AcDbLayerTableRecord
  2
159
 70
     0
 62
   159
  6
CONTINUOUS
  0
LAYER
  5
D9
330
2
100
AcDbSymbolTableRecord
100
AcDbLayerTableRecord
  2
160
 70
     0
 62
   160
  6
CONTINUOUS
  0
LAYER
  5
DA
330
2
100
AcDbSymbolTableRecord
100
AcDbLayerTableRecord
  2
161
 70
     0
 62
   161
  6
CONTINUOUS
  0
LAYER
  5
DB
330
2
100
AcDbSymbolTableRecord
100
AcDbLayerTableRecord
  2
162
 70
     0
 62
   162
  6
CONTINUOUS
  0
LAYER
  5
DC
330
2
100
AcDbSymbolTableRecord
100
AcDbLayerTableRecord
  2
163
 70
     0
 62
   163
  6
CONTINUOUS
  0
LAYER
  5
DD
330
2
100
AcDbSymbolTableRecord
100
AcDbLayerTableRecord
  2
164
 70
     0
 62
   164
  6
CONTINUOUS
  0
LAYER
  5
DE
330
2
100
AcDbSymbolTableRecord
100
AcDbLayerTableRecord
  2
165
 70
     0
 62
   165
  6
CONTINUOUS
  0
LAYER
  5
DF
330
2
100
AcDbSymbolTableRecord
100
AcDbLayerTableRecord
  2
166
 70
     0
 62
   166
  6
CONTINUOUS
  0
LAYER
  5
E0
330
2
100
AcDbSymbolTableRecord
100
AcDbLayerTableRecord
  2
167
 70
     0
 62
   167
  6
CONTINUOUS
  0
LAYER
  5
E1
330
2
100
AcDbSymbolTableRecord
100
AcDbLayerTableRecord
  2
168
 70
     0
 62
   168
  6
CONTINUOUS
  0
LAYER
  5
E2
330
2
100
AcDbSymbolTableRecord
100
AcDbLayerTableRecord
  2
169
 70
     0
 62
   169
  6
CONTINUOUS
  0
LAYER
  5
E3
330
2
100
AcDbSymbolTableRecord
100
AcDbLayerTableRecord
  2
170
 70
     0
 62
   170
  6
CONTINUOUS
  0
LAYER
  5
E4
330
2
100
AcDbSymbolTableRecord
100
AcDbLayerTableRecord
  2
171
 70
     0
 62
   171
  6
CONTINUOUS
  0
LAYER
  5
E5
330
2
100
AcDbSymbolTableRecord
100
AcDbLayerTableRecord
  2
172
 70
     0
 62
   172
  6
CONTINUOUS
  0
LAYER
  5
E6
330
2
100
AcDbSymbolTableRecord
100
AcDbLayerTableRecord
  2
173
 70
     0
 62
   173
  6
CONTINUOUS
  0
LAYER
  5
E7
330
2
100
AcDbSymbolTableRecord
100
AcDbLayerTableRecord
  2
174
 70
     0
 62
   174
  6
CONTINUOUS
  0
LAYER
  5
E8
330
2
100
AcDbSymbolTableRecord
100
AcDbLayerTableRecord
  2
175
 70
     0
 62
   175
  6
CONTINUOUS
  0
LAYER
  5
E9
330
2
100
AcDbSymbolTableRecord
100
AcDbLayerTableRecord
  2
176
 70
     0
 62
   176
  6
CONTINUOUS
  0
LAYER
  5
EA
330
2
100
AcDbSymbolTableRecord
100
AcDbLayerTableRecord
  2
177
 70
     0
 62
   177
  6
CONTINUOUS
  0
LAYER
  5
EB
330
2
100
AcDbSymbolTableRecord
100
AcDbLayerTableRecord
  2
178
 70
     0
 62
   178
  6
CONTINUOUS
  0
LAYER
  5
EC
330
2
100
AcDbSymbolTableRecord
100
AcDbLayerTableRecord
  2
179
 70
     0
 62
   179
  6
CONTINUOUS
  0
LAYER
  5
ED
330
2
100
AcDbSymbolTableRecord
100
AcDbLayerTableRecord
  2
180
 70
     0
 62
   180
  6
CONTINUOUS
  0
LAYER
  5
EE
330
2
100
AcDbSymbolTableRecord
100
AcDbLayerTableRecord
  2
181
 70
     0
 62
   181
  6
CONTINUOUS
  0
LAYER
  5
EF
330
2
100
AcDbSymbolTableRecord
100
AcDbLayerTableRecord
  2
182
 70
     0
 62
   182
  6
CONTINUOUS
  0
LAYER
  5
F0
330
2
100
AcDbSymbolTableRecord
100
AcDbLayerTableRecord
  2
183
 70
     0
 62
   183
  6
CONTINUOUS
  0
LAYER
  5
F1
330
2
100
AcDbSymbolTableRecord
100
AcDbLayerTableRecord
  2
184
 70
     0
 62
   184
  6
CONTINUOUS
  0
LAYER
  5
F2
330
2
100
AcDbSymbolTableRecord
100
AcDbLayerTableRecord
  2
185
 70
     0
 62
   185
  6
CONTINUOUS
  0
LAYER
  5
F3
330
2
100
AcDbSymbolTableRecord
100
AcDbLayerTableRecord
  2
186
 70
     0
 62
   186
  6
CONTINUOUS
  0
LAYER
  5
F4
330
2
100
AcDbSymbolTableRecord
100
AcDbLayerTableRecord
  2
187
 70
     0
 62
   187
  6
CONTINUOUS
  0
LAYER
  5
F5
330
2
100
AcDbSymbolTableRecord
100
AcDbLayerTableRecord
  2
188
 70
     0
 62
   188
  6
CONTINUOUS
  0
LAYER
  5
F6
330
2
100
AcDbSymbolTableRecord
100
AcDbLayerTableRecord
  2
189
 70
     0
 62
   189
  6
CONTINUOUS
  0
LAYER
  5
F7
330
2
100
AcDbSymbolTableRecord
100
AcDbLayerTableRecord
  2
190
 70
     0
 62
   190
  6
CONTINUOUS
  0
LAYER
  5
F8
330
2
100
AcDbSymbolTableRecord
100
AcDbLayerTableRecord
  2
191
 70
     0
 62
   191
  6
CONTINUOUS
  0
LAYER
  5
F9
330
2
100
AcDbSymbolTableRecord
100
AcDbLayerTableRecord
  2
192
 70
     0
 62
   192
  6
CONTINUOUS
  0
LAYER
  5
FA
330
2
100
AcDbSymbolTableRecord
100
AcDbLayerTableRecord
  2
193
 70
     0
 62
   193
  6
CONTINUOUS
  0
LAYER
  5
FB
330
2
100
AcDbSymbolTableRecord
100
AcDbLayerTableRecord
  2
194
 70
     0
 62
   194
  6
CONTINUOUS
  0
LAYER
  5
FC
330
2
100
AcDbSymbolTableRecord
100
AcDbLayerTableRecord
  2
195
 70
     0
 62
   195
  6
CONTINUOUS
  0
LAYER
  5
FD
330
2
100
AcDbSymbolTableRecord
100
AcDbLayerTableRecord
  2
196
 70
     0
 62
   196
  6
CONTINUOUS
  0
LAYER
  5
FE
330
2
100
AcDbSymbolTableRecord
100
AcDbLayerTableRecord
  2
197
 70
     0
 62
   197
  6
CONTINUOUS
  0
LAYER
  5
FF
330
2
100
AcDbSymbolTableRecord
100
AcDbLayerTableRecord
  2
198
 70
     0
 62
   198
  6
CONTINUOUS
  0
LAYER
  5
100
330
2
100
AcDbSymbolTableRecord
100
AcDbLayerTableRecord
  2
199
 70
     0
 62
   199
  6
CONTINUOUS
  0
LAYER
  5
101
330
2
100
AcDbSymbolTableRecord
100
AcDbLayerTableRecord
  2
200
 70
     0
 62
   200
  6
CONTINUOUS
  0
LAYER
  5
102
330
2
100
AcDbSymbolTableRecord
100
AcDbLayerTableRecord
  2
201
 70
     0
 62
   201
  6
CONTINUOUS
  0
LAYER
  5
103
330
2
100
AcDbSymbolTableRecord
100
AcDbLayerTableRecord
  2
202
 70
     0
 62
   202
  6
CONTINUOUS
  0
LAYER
  5
104
330
2
100
AcDbSymbolTableRecord
100
AcDbLayerTableRecord
  2
203
 70
     0
 62
   203
  6
CONTINUOUS
  0
LAYER
  5
105
330
2
100
AcDbSymbolTableRecord
100
AcDbLayerTableRecord
  2
204
 70
     0
 62
   204
  6
CONTINUOUS
  0
LAYER
  5
106
330
2
100
AcDbSymbolTableRecord
100
AcDbLayerTableRecord
  2
205
 70
     0
 62
   205
  6
CONTINUOUS
  0
LAYER
  5
107
330
2
100
AcDbSymbolTableRecord
100
AcDbLayerTableRecord
  2
206
 70
     0
 62
   206
  6
CONTINUOUS
  0
LAYER
  5
108
330
2
100
AcDbSymbolTableRecord
100
AcDbLayerTableRecord
  2
207
 70
     0
 62
   207
  6
CONTINUOUS
  0
LAYER
  5
109
330
2
100
AcDbSymbolTableRecord
100
AcDbLayerTableRecord
  2
208
 70
     0
 62
   208
  6
CONTINUOUS
  0
LAYER
  5
10A
330
2
100
AcDbSymbolTableRecord
100
AcDbLayerTableRecord
  2
209
 70
     0
 62
   209
  6
CONTINUOUS
  0
LAYER
  5
10B
330
2
100
AcDbSymbolTableRecord
100
AcDbLayerTableRecord
  2
210
 70
     0
 62
   210
  6
CONTINUOUS
  0
LAYER
  5
10C
330
2
100
AcDbSymbolTableRecord
100
AcDbLayerTableRecord
  2
211
 70
     0
 62
   211
  6
CONTINUOUS
  0
LAYER
  5
10D
330
2
100
AcDbSymbolTableRecord
100
AcDbLayerTableRecord
  2
212
 70
     0
 62
   212
  6
CONTINUOUS
  0
LAYER
  5
10E
330
2
100
AcDbSymbolTableRecord
100
AcDbLayerTableRecord
  2
213
 70
     0
 62
   213
  6
CONTINUOUS
  0
LAYER
  5
10F
330
2
100
AcDbSymbolTableRecord
100
AcDbLayerTableRecord
  2
214
 70
     0
 62
   214
  6
CONTINUOUS
  0
LAYER
  5
110
330
2
100
AcDbSymbolTableRecord
100
AcDbLayerTableRecord
  2
215
 70
     0
 62
   215
  6
CONTINUOUS
  0
LAYER
  5
111
330
2
100
AcDbSymbolTableRecord
100
AcDbLayerTableRecord
  2
216
 70
     0
 62
   216
  6
CONTINUOUS
  0
LAYER
  5
112
330
2
100
AcDbSymbolTableRecord
100
AcDbLayerTableRecord
  2
217
 70
     0
 62
   217
  6
CONTINUOUS
  0
LAYER
  5
113
330
2
100
AcDbSymbolTableRecord
100
AcDbLayerTableRecord
  2
218
 70
     0
 62
   218
  6
CONTINUOUS
  0
LAYER
  5
114
330
2
100
AcDbSymbolTableRecord
100
AcDbLayerTableRecord
  2
219
 70
     0
 62
   219
  6
CONTINUOUS
  0
LAYER
  5
115
330
2
100
AcDbSymbolTableRecord
100
AcDbLayerTableRecord
  2
220
 70
     0
 62
   220
  6
CONTINUOUS
  0
LAYER
  5
116
330
2
100
AcDbSymbolTableRecord
100
AcDbLayerTableRecord
  2
221
 70
     0
 62
   221
  6
CONTINUOUS
  0
LAYER
  5
117
330
2
100
AcDbSymbolTableRecord
100
AcDbLayerTableRecord
  2
222
 70
     0
 62
   222
  6
CONTINUOUS
  0
LAYER
  5
118
330
2
100
AcDbSymbolTableRecord
100
AcDbLayerTableRecord
  2
223
 70
     0
 62
   223
  6
CONTINUOUS
  0
LAYER
  5
119
330
2
100
AcDbSymbolTableRecord
100
AcDbLayerTableRecord
  2
224
 70
     0
 62
   224
  6
CONTINUOUS
  0
LAYER
  5
11A
330
2
100
AcDbSymbolTableRecord
100
AcDbLayerTableRecord
  2
225
 70
     0
 62
   225
  6
CONTINUOUS
  0
LAYER
  5
11B
330
2
100
AcDbSymbolTableRecord
100
AcDbLayerTableRecord
  2
226
 70
     0
 62
   226
  6
CONTINUOUS
  0
LAYER
  5
11C
330
2
100
AcDbSymbolTableRecord
100
AcDbLayerTableRecord
  2
227
 70
     0
 62
   227
  6
CONTINUOUS
  0
LAYER
  5
11D
330
2
100
AcDbSymbolTableRecord
100
AcDbLayerTableRecord
  2
228
 70
     0
 62
   228
  6
CONTINUOUS
  0
LAYER
  5
11E
330
2
100
AcDbSymbolTableRecord
100
AcDbLayerTableRecord
  2
229
 70
     0
 62
   229
  6
CONTINUOUS
  0
LAYER
  5
11F
330
2
100
AcDbSymbolTableRecord
100
AcDbLayerTableRecord
  2
230
 70
     0
 62
   230
  6
CONTINUOUS
  0
LAYER
  5
120
330
2
100
AcDbSymbolTableRecord
100
AcDbLayerTableRecord
  2
231
 70
     0
 62
   231
  6
CONTINUOUS
  0
LAYER
  5
121
330
2
100
AcDbSymbolTableRecord
100
AcDbLayerTableRecord
  2
232
 70
     0
 62
   232
  6
CONTINUOUS
  0
LAYER
  5
122
330
2
100
AcDbSymbolTableRecord
100
AcDbLayerTableRecord
  2
233
 70
     0
 62
   233
  6
CONTINUOUS
  0
LAYER
  5
123
330
2
100
AcDbSymbolTableRecord
100
AcDbLayerTableRecord
  2
234
 70
     0
 62
   234
  6
CONTINUOUS
  0
LAYER
  5
124
330
2
100
AcDbSymbolTableRecord
100
AcDbLayerTableRecord
  2
235
 70
     0
 62
   235
  6
CONTINUOUS
  0
LAYER
  5
125
330
2
100
AcDbSymbolTableRecord
100
AcDbLayerTableRecord
  2
236
 70
     0
 62
   236
  6
CONTINUOUS
  0
LAYER
  5
126
330
2
100
AcDbSymbolTableRecord
100
AcDbLayerTableRecord
  2
237
 70
     0
 62
   237
  6
CONTINUOUS
  0
LAYER
  5
127
330
2
100
AcDbSymbolTableRecord
100
AcDbLayerTableRecord
  2
238
 70
     0
 62
   238
  6
CONTINUOUS
  0
LAYER
  5
128
330
2
100
AcDbSymbolTableRecord
100
AcDbLayerTableRecord
  2
239
 70
     0
 62
   239
  6
CONTINUOUS
  0
LAYER
  5
129
330
2
100
AcDbSymbolTableRecord
100
AcDbLayerTableRecord
  2
240
 70
     0
 62
   240
  6
CONTINUOUS
  0
LAYER
  5
12A
330
2
100
AcDbSymbolTableRecord
100
AcDbLayerTableRecord
  2
241
 70
     0
 62
   241
  6
CONTINUOUS
  0
LAYER
  5
12B
330
2
100
AcDbSymbolTableRecord
100
AcDbLayerTableRecord
  2
242
 70
     0
 62
   242
  6
CONTINUOUS
  0
LAYER
  5
12C
330
2
100
AcDbSymbolTableRecord
100
AcDbLayerTableRecord
  2
243
 70
     0
 62
   243
  6
CONTINUOUS
  0
LAYER
  5
12D
330
2
100
AcDbSymbolTableRecord
100
AcDbLayerTableRecord
  2
244
 70
     0
 62
   244
  6
CONTINUOUS
  0
LAYER
  5
12E
330
2
100
AcDbSymbolTableRecord
100
AcDbLayerTableRecord
  2
245
 70
     0
 62
   245
  6
CONTINUOUS
  0
LAYER
  5
12F
330
2
100
AcDbSymbolTableRecord
100
AcDbLayerTableRecord
  2
246
 70
     0
 62
   246
  6
CONTINUOUS
  0
LAYER
  5
130
330
2
100
AcDbSymbolTableRecord
100
AcDbLayerTableRecord
  2
247
 70
     0
 62
   247
  6
CONTINUOUS
  0
LAYER
  5
131
330
2
100
AcDbSymbolTableRecord
100
AcDbLayerTableRecord
  2
248
 70
     0
 62
   248
  6
CONTINUOUS
  0
LAYER
  5
132
330
2
100
AcDbSymbolTableRecord
100
AcDbLayerTableRecord
  2
249
 70
     0
 62
   249
  6
CONTINUOUS
  0
LAYER
  5
133
330
2
100
AcDbSymbolTableRecord
100
AcDbLayerTableRecord
  2
250
 70
     0
 62
   250
  6
CONTINUOUS
  0
LAYER
  5
134
330
2
100
AcDbSymbolTableRecord
100
AcDbLayerTableRecord
  2
251
 70
     0
 62
   251
  6
CONTINUOUS
  0
LAYER
  5
135
330
2
100
AcDbSymbolTableRecord
100
AcDbLayerTableRecord
  2
252
 70
     0
 62
   252
  6
CONTINUOUS
  0
LAYER
  5
136
330
2
100
AcDbSymbolTableRecord
100
AcDbLayerTableRecord
  2
253
 70
     0
 62
   253
  6
CONTINUOUS
  0
LAYER
  5
137
330
2
100
AcDbSymbolTableRecord
100
AcDbLayerTableRecord
  2
254
 70
     0
 62
   254
  6
CONTINUOUS
  0
LAYER
  5
138
330
2
100
AcDbSymbolTableRecord
100
AcDbLayerTableRecord
  2
255
 70
     0
 62
   255
  6
CONTINUOUS
  0
ENDTAB
  0
TABLE
  2
STYLE
  5
3
330
0
100
AcDbSymbolTable
 70
     1
  0
STYLE
  5
11
330
3
100
AcDbSymbolTableRecord
100
AcDbTextStyleTableRecord
  2
STANDARD
 70
     0
 40
0.0
 41
1.0
 50
0.0
 71
     0
 42
0.2
  3
monotxt
  4

  0
ENDTAB
  0
TABLE
  2
VIEW
  5
6
330
0
100
AcDbSymbolTable
 70
     0
  0
ENDTAB
  0
TABLE
  2
UCS
  5
7
330
0
100
AcDbSymbolTable
 70
     0
  0
ENDTAB
  0
TABLE
  2
APPID
  5
9
330
0
100
AcDbSymbolTable
 70
     1
  0
APPID
  5
12
330
9
100
AcDbSymbolTableRecord
100
AcDbRegAppTableRecord
  2
ACAD
 70
     0
  0
ENDTAB
  0
TABLE
  2
DIMSTYLE
  5
A
330
0
100
AcDbSymbolTable
 70
     1
  0
DIMSTYLE
105
2166
330
A
100
AcDbSymbolTableRecord
100
AcDbDimStyleTableRecord
  2
STANDARD
 70
     0
  3

  4

  5

  6

  7

 40
1.0
 41
0.18
 42
0.0625
 43
0.38
 44
0.18
 45
0.0
 46
0.0
 47
0.0
 48
0.0
140
0.18
141
0.09
142
0.0
143
25.4
144
1.0
145
0.0
146
1.0
147
0.09
 71
     0
 72
     0
 73
     1
 74
     1
 75
     0
 76
     0
 77
     0
 78
     0
170
     0
171
     2
172
     0
173
     0
174
     0
175
     0
176
     0
177
     0
178
     0
270
     2
271
     4
272
     4
273
     2
274
     2
340
11
275
     0
280
     0
281
     0
282
     0
283
     1
284
     0
285
     0
286
     0
287
     3
288
     0
  0
ENDTAB
  0
TABLE
  2
BLOCK_RECORD
  5
1
330
0
100
AcDbSymbolTable
 70
     0
  0
BLOCK_RECORD
  5
1E
102
{ACAD_XDICTIONARY
360
21C1
102
}
330
1
100
AcDbSymbolTableRecord
100
AcDbBlockTableRecord
  2
*MODEL_SPACE
  0
BLOCK_RECORD
  5
1A
102
{ACAD_XDICTIONARY
360
21BF
102
}
330
1
100
AcDbSymbolTableRecord
100
AcDbBlockTableRecord
  2
*PAPER_SPACE
  0
ENDTAB
  0
ENDSEC
  0
SECTION
  2
BLOCKS
  0
BLOCK
  5
13B
330
1E
100
AcDbEntity
  8
0
100
AcDbBlockBegin
  2
*MODEL_SPACE
 70
     0
 10
0.0
 20
0.0
 30
0.0
  3
*MODEL_SPACE
  1

  0
ENDBLK
  5
13C
330
1E
100
AcDbEntity
  8
0
100
AcDbBlockEnd
  0
BLOCK
  5
139
330
1A
100
AcDbEntity
 67
     1
  8
0
100
AcDbBlockBegin
  2
*PAPER_SPACE
 70
     0
 10
0.0
 20
0.0
 30
0.0
  3
*PAPER_SPACE
  1

  0
ENDBLK
  5
13A
330
1A
100
AcDbEntity
 67
     1
  8
0
100
AcDbBlockEnd
  0
ENDSEC
  0
SECTION
  2
ENTITIES
  0
LINE
  5
140
330
1E
100
AcDbEntity
  8
7
100
AcDbLine
 10
33.25393700787401
 20
21.7273622047244
 30
0.0
 11
33.15354330708661
 21
21.7273622047244
 31
0.0
  0
LINE
  5
141
330
1E
100
AcDbEntity
  8
7
100
AcDbLine
 10
33.20374015748031
 20
21.7775590551181
 30
0.0
 11
33.20374015748031
 21
21.6771653543307
 31
0.0
  0
LINE
  5
144
330
1E
100
AcDbEntity
  8
7
100
AcDbLine
 10
33.25393700787401
 20
21.7273622047244
 30
0.0
 11
33.15354330708661
 21
21.7273622047244
 31
0.0
  0
LINE
  5
145
330
1E
100
AcDbEntity
  8
7
100
AcDbLine
 10
33.20374015748031
 20
21.7775590551181
 30
0.0
 11
33.20374015748031
 21
21.6771653543307
 31
0.0
  0
LINE
  5
14F
330
1E
100
AcDbEntity
  8
7
100
AcDbLine
 10
39.96275190214362
 20
24.35988578696945
 30
0.0
 11
43.30330308324598
 21
24.35988578696945
 31
0.0
  0
LINE
  5
151
330
1E
100
AcDbEntity
  8
7
100
AcDbLine
 10
39.96275190214362
 20
24.04689366098519
 30
0.0
 11
39.96275190214362
 21
24.67189366098519
 31
0.0
  0
LINE
  5
157
330
1E
100
AcDbEntity
  8
7
100
AcDbLine
 10
39.96275190214362
 20
24.04689366098519
 30
0.0
 11
43.30330308324598
 21
24.04689366098519
 31
0.0
  0
LINE
  5
162
330
1E
100
AcDbEntity
  8
7
100
AcDbLine
 10
41.46275190214362
 20
24.04689366098519
 30
0.0
 11
41.46275190214362
 21
24.67189366098519
 31
0.0
  0
LINE
  5
177
330
1E
100
AcDbEntity
  8
7
100
AcDbLine
 10
43.30330308324598
 20
24.04689366098519
 30
0.0
 11
43.30330308324598
 21
24.67189366098519
 31
0.0
  0
LINE
  5
184
330
1E
100
AcDbEntity
  8
7
100
AcDbLine
 10
39.96275190214362
 20
24.67189366098519
 30
0.0
 11
43.30330308324598
 21
24.67189366098519
 31
0.0
  0
LWPOLYLINE
  5
190
330
1E
100
AcDbEntity
  8
7
100
AcDbPolyline
 90
        4
 70
     0
 43
0.0098425196850394
 10
39.65452755905511
 20
26.53149606299212
 10
39.60925196850393
 20
26.53149606299212
 10
39.60925196850393
 20
26.36220472440944
 10
39.65452755905511
 20
26.36220472440944
  0
LWPOLYLINE
  5
196
330
1E
100
AcDbEntity
  8
7
100
AcDbPolyline
 90
        4
 70
     0
 43
0.0098425196850394
 10
40.12401574803148
 20
26.36220472440944
 10
40.16929133858267
 20
26.36220472440944
 10
40.16929133858267
 20
26.53149606299212
 10
40.12401574803148
 20
26.53149606299212
  0
LINE
  5
19C
330
1E
100
AcDbEntity
  8
3
100
AcDbLine
 10
38.75787401574802
 20
25.83661417322834
 30
0.0
 11
40.01476377952755
 21
25.83661417322834
 31
0.0
  0
LINE
  5
19D
330
1E
100
AcDbEntity
  8
3
100
AcDbLine
 10
38.75787401574802
 20
27.23622047244094
 30
0.0
 11
40.01476377952755
 21
27.23622047244094
 31
0.0
  0
LINE
  5
19E
330
1E
100
AcDbEntity
  8
3
100
AcDbLine
 10
39.88976377952755
 20
25.83661417322834
 30
0.0
 11
39.88976377952755
 21
26.3001968503937
 31
0.0
  0
LINE
  5
19F
330
1E
100
AcDbEntity
  8
3
100
AcDbLine
 10
39.88976377952755
 20
27.23622047244094
 30
0.0
 11
39.88976377952755
 21
26.77362204724409
 31
0.0
  0
LWPOLYLINE
  5
1A0
330
1E
100
AcDbEntity
  8
7
100
AcDbPolyline
 90
        3
 70
     0
 43
0.0098425196850394
 10
39.73425196850393
 20
26.62106299212598
 10
39.77854330708661
 20
26.71062992125984
 10
39.70767716535432
 20
26.71062992125984
  0
LWPOLYLINE
  5
1A5
330
1E
100
AcDbEntity
  8
7
100
AcDbPolyline
 90
        5
 70
     0
 43
0.0098425196850394
 10
39.83169291338582
 20
26.62106299212598
 10
39.84940944881889
 20
26.62106299212598
 10
39.84940944881889
 20
26.63877952755905
 10
39.83169291338582
 20
26.63877952755905
 10
39.83169291338582
 20
26.62106299212598
  0
LWPOLYLINE
  5
1AC
330
1E
100
AcDbEntity
  8
7
100
AcDbPolyline
 90
        6
 70
     0
 43
0.0098425196850394
 10
39.94783464566928
 20
26.62106299212598
 10
39.96555118110235
 20
26.63090551181102
 10
39.9753937007874
 20
26.65649606299212
 10
39.9753937007874
 20
26.67421259842519
 10
39.96555118110235
 20
26.7017716535433
 10
39.94783464566928
 20
26.71062992125984
  0
LWPOLYLINE
  5
1B4
330
1E
100
AcDbEntity
  8
7
100
AcDbPolyline
 90
        8
 70
     0
 43
0.0098425196850394
 10
39.94783464566928
 20
26.71062992125984
 10
39.93011811023621
 20
26.71062992125984
 10
39.91240157480314
 20
26.7017716535433
 10
39.9025590551181
 20
26.67421259842519
 10
39.9035433070866
 20
26.65649606299212
 10
39.91240157480314
 20
26.63090551181102
 10
39.93011811023621
 20
26.62106299212598
 10
39.94783464566928
 20
26.62106299212598
  0
LWPOLYLINE
  5
1BE
330
1E
100
AcDbEntity
  8
7
100
AcDbPolyline
 90
        8
 70
     0
 43
0.0098425196850394
 10
40.04625984251968
 20
26.62106299212598
 10
40.06397637795275
 20
26.63090551181102
 10
40.07283464566929
 20
26.65649606299212
 10
40.07283464566929
 20
26.67421259842519
 10
40.06397637795275
 20
26.7017716535433
 10
40.04625984251968
 20
26.71062992125984
 10
40.0275590551181
 20
26.71062992125984
 10
40.00984251968503
 20
26.7017716535433
  0
LWPOLYLINE
  5
1C8
330
1E
100
AcDbEntity
  8
7
100
AcDbPolyline
 90
        6
 70
     0
 43
0.0098425196850394
 10
40.00984251968503
 20
26.7017716535433
 10
40.0009842519685
 20
26.67421259842519
 10
40.00196850393701
 20
26.65649606299212
 10
40.00984251968503
 20
26.63090551181102
 10
40.0275590551181
 20
26.62106299212598
 10
40.04625984251968
 20
26.62106299212598
  0
LWPOLYLINE
  5
1D0
330
1E
100
AcDbEntity
  8
7
100
AcDbPolyline
 90
        3
 70
     0
 43
0.0098425196850394
 10
39.68602362204723
 20
26.48326771653543
 10
39.69389763779527
 20
26.49114173228346
 10
39.69389763779527
 20
26.4015748031496
  0
LINE
  5
1D5
330
1E
100
AcDbEntity
  8
7
100
AcDbLine
 10
39.68307086614172
 20
26.4015748031496
 30
0.0
 11
39.70570866141732
 21
26.4015748031496
 31
0.0
  0
LWPOLYLINE
  5
1D6
330
1E
100
AcDbEntity
  8
7
100
AcDbPolyline
 90
        3
 70
     0
 43
0.0098425196850394
 10
39.78248031496062
 20
26.4015748031496
 10
39.82775590551181
 20
26.49114173228346
 10
39.75688976377952
 20
26.49114173228346
  0
LWPOLYLINE
  5
1DB
330
1E
100
AcDbEntity
  8
7
100
AcDbPolyline
 90
        3
 70
     0
 43
0.0098425196850394
 10
39.88090551181102
 20
26.4015748031496
 10
39.9261811023622
 20
26.49114173228346
 10
39.85433070866141
 20
26.49114173228346
  0
LWPOLYLINE
  5
1E0
330
1E
100
AcDbEntity
  8
7
100
AcDbPolyline
 90
        5
 70
     0
 43
0.0098425196850394
 10
39.97834645669291
 20
26.4015748031496
 10
39.99704724409448
 20
26.4015748031496
 10
39.99704724409448
 20
26.41929133858267
 10
39.97834645669291
 20
26.41929133858267
 10
39.97834645669291
 20
26.4015748031496
  0
LWPOLYLINE
  5
1E7
330
1E
100
AcDbEntity
  8
7
100
AcDbPolyline
 90
        6
 70
     0
 43
0.0098425196850394
 10
40.06791338582677
 20
26.44685039370078
 10
40.0501968503937
 20
26.45472440944881
 10
40.0501968503937
 20
26.48228346456692
 10
40.06791338582677
 20
26.49114173228346
 10
40.10433070866141
 20
26.49114173228346
 10
40.12204724409448
 20
26.48228346456692
  0
LWPOLYLINE
  5
1EF
330
1E
100
AcDbEntity
  8
7
100
AcDbPolyline
 90
       11
 70
     0
 43
0.0098425196850394
 10
40.12204724409448
 20
26.48228346456692
 10
40.12204724409448
 20
26.45472440944881
 10
40.10433070866141
 20
26.44685039370078
 10
40.06791338582677
 20
26.44685039370078
 10
40.04921259842519
 20
26.43700787401574
 10
40.04921259842519
 20
26.41141732283464
 10
40.06791338582677
 20
26.4015748031496
 10
40.10433070866141
 20
26.4015748031496
 10
40.12204724409448
 20
26.41043307086614
 10
40.12204724409448
 20
26.43700787401574
 10
40.10433070866141
 20
26.44685039370078
  0
LWPOLYLINE
  5
1FC
330
1E
100
AcDbEntity
  8
3
100
AcDbPolyline
 90
        3
 70
     0
 43
0.0098425196850394
 10
39.88976377952755
 20
25.83661417322834
 10
39.91338582677165
 20
25.92716535433071
 10
39.86515748031495
 20
25.92716535433071
  0
LINE
  5
201
330
1E
100
AcDbEntity
  8
3
100
AcDbLine
 10
39.86515748031495
 20
25.92716535433071
 30
0.0
 11
39.88976377952755
 21
25.83661417322834
 31
0.0
  0
LINE
  5
202
330
1E
100
AcDbEntity
  8
3
100
AcDbLine
 10
39.91338582677165
 20
25.92716535433071
 30
0.0
 11
39.91338582677165
 21
25.9261811023622
 31
0.0
  0
LINE
  5
203
330
1E
100
AcDbEntity
  8
3
100
AcDbLine
 10
39.91338582677165
 20
25.92716535433071
 30
0.0
 11
39.91338582677165
 21
25.9261811023622
 31
0.0
  0
LINE
  5
204
330
1E
100
AcDbEntity
  8
3
100
AcDbLine
 10
39.91141732283464
 20
25.92716535433071
 30
0.0
 11
39.91141732283464
 21
25.91929133858267
 31
0.0
  0
LINE
  5
205
330
1E
100
AcDbEntity
  8
3
100
AcDbLine
 10
39.90944881889763
 20
25.92716535433071
 30
0.0
 11
39.90944881889763
 21
25.91141732283464
 31
0.0
  0
LINE
  5
206
330
1E
100
AcDbEntity
  8
3
100
AcDbLine
 10
39.90748031496062
 20
25.92716535433071
 30
0.0
 11
39.90748031496062
 21
25.90354330708661
 31
0.0
  0
LINE
  5
207
330
1E
100
AcDbEntity
  8
3
100
AcDbLine
 10
39.90551181102361
 20
25.92716535433071
 30
0.0
 11
39.90551181102361
 21
25.89665354330708
 31
0.0
  0
LINE
  5
208
330
1E
100
AcDbEntity
  8
3
100
AcDbLine
 10
39.9035433070866
 20
25.92716535433071
 30
0.0
 11
39.9035433070866
 21
25.88877952755905
 31
0.0
  0
LINE
  5
209
330
1E
100
AcDbEntity
  8
3
100
AcDbLine
 10
39.9015748031496
 20
25.92716535433071
 30
0.0
 11
39.9015748031496
 21
25.88188976377952
 31
0.0
  0
LINE
  5
20A
330
1E
100
AcDbEntity
  8
3
100
AcDbLine
 10
39.89960629921259
 20
25.92716535433071
 30
0.0
 11
39.89960629921259
 21
25.87401574803149
 31
0.0
  0
LINE
  5
20B
330
1E
100
AcDbEntity
  8
3
100
AcDbLine
 10
39.89763779527558
 20
25.92716535433071
 30
0.0
 11
39.89763779527558
 21
25.86614173228346
 31
0.0
  0
LINE
  5
20C
330
1E
100
AcDbEntity
  8
3
100
AcDbLine
 10
39.89566929133857
 20
25.92716535433071
 30
0.0
 11
39.89566929133857
 21
25.85925196850393
 31
0.0
  0
LINE
  5
20D
330
1E
100
AcDbEntity
  8
3
100
AcDbLine
 10
39.89370078740157
 20
25.92716535433071
 30
0.0
 11
39.89370078740157
 21
25.8513779527559
 31
0.0
  0
LINE
  5
20E
330
1E
100
AcDbEntity
  8
3
100
AcDbLine
 10
39.89173228346456
 20
25.92716535433071
 30
0.0
 11
39.89173228346456
 21
25.84448818897637
 31
0.0
  0
LINE
  5
20F
330
1E
100
AcDbEntity
  8
3
100
AcDbLine
 10
39.88976377952755
 20
25.92716535433071
 30
0.0
 11
39.88976377952755
 21
25.83661417322834
 31
0.0
  0
LINE
  5
210
330
1E
100
AcDbEntity
  8
3
100
AcDbLine
 10
39.86515748031495
 20
25.92716535433071
 30
0.0
 11
39.86515748031495
 21
25.9261811023622
 31
0.0
  0
LINE
  5
211
330
1E
100
AcDbEntity
  8
3
100
AcDbLine
 10
39.86515748031495
 20
25.92716535433071
 30
0.0
 11
39.86515748031495
 21
25.9261811023622
 31
0.0
  0
LINE
  5
212
330
1E
100
AcDbEntity
  8
3
100
AcDbLine
 10
39.86712598425196
 20
25.92716535433071
 30
0.0
 11
39.86712598425196
 21
25.91929133858267
 31
0.0
  0
LINE
  5
213
330
1E
100
AcDbEntity
  8
3
100
AcDbLine
 10
39.86909448818897
 20
25.92716535433071
 30
0.0
 11
39.86909448818897
 21
25.91141732283464
 31
0.0
  0
LINE
  5
214
330
1E
100
AcDbEntity
  8
3
100
AcDbLine
 10
39.87106299212598
 20
25.92716535433071
 30
0.0
 11
39.87106299212598
 21
25.90354330708661
 31
0.0
  0
LINE
  5
215
330
1E
100
AcDbEntity
  8
3
100
AcDbLine
 10
39.87303149606298
 20
25.92716535433071
 30
0.0
 11
39.87303149606298
 21
25.89665354330708
 31
0.0
  0
LINE
  5
216
330
1E
100
AcDbEntity
  8
3
100
AcDbLine
 10
39.875
 20
25.92716535433071
 30
0.0
 11
39.875
 21
25.88877952755905
 31
0.0
  0
LINE
  5
217
330
1E
100
AcDbEntity
  8
3
100
AcDbLine
 10
39.876968503937
 20
25.92716535433071
 30
0.0
 11
39.876968503937
 21
25.88188976377952
 31
0.0
  0
LINE
  5
218
330
1E
100
AcDbEntity
  8
3
100
AcDbLine
 10
39.87992125984252
 20
25.92716535433071
 30
0.0
 11
39.87992125984252
 21
25.87401574803149
 31
0.0
  0
LINE
  5
219
330
1E
100
AcDbEntity
  8
3
100
AcDbLine
 10
39.88188976377952
 20
25.92716535433071
 30
0.0
 11
39.88188976377952
 21
25.86614173228346
 31
0.0
  0
LINE
  5
21A
330
1E
100
AcDbEntity
  8
3
100
AcDbLine
 10
39.88385826771653
 20
25.92716535433071
 30
0.0
 11
39.88385826771653
 21
25.85925196850393
 31
0.0
  0
LINE
  5
21B
330
1E
100
AcDbEntity
  8
3
100
AcDbLine
 10
39.88582677165354
 20
25.92716535433071
 30
0.0
 11
39.88582677165354
 21
25.8513779527559
 31
0.0
  0
LINE
  5
21C
330
1E
100
AcDbEntity
  8
3
100
AcDbLine
 10
39.88779527559055
 20
25.92716535433071
 30
0.0
 11
39.88779527559055
 21
25.84448818897637
 31
0.0
  0
LINE
  5
21D
330
1E
100
AcDbEntity
  8
3
100
AcDbLine
 10
39.88976377952755
 20
25.92716535433071
 30
0.0
 11
39.88976377952755
 21
25.83661417322834
 31
0.0
  0
LWPOLYLINE
  5
21E
330
1E
100
AcDbEntity
  8
3
100
AcDbPolyline
 90
        4
 70
     0
 43
0.0098425196850394
 10
39.88976377952755
 20
27.23622047244094
 10
39.86515748031495
 20
27.14665354330708
 10
39.91338582677165
 20
27.14665354330708
 10
39.88976377952755
 20
27.23622047244094
  0
LINE
  5
224
330
1E
100
AcDbEntity
  8
3
100
AcDbLine
 10
39.86712598425196
 20
27.14665354330708
 30
0.0
 11
39.86712598425196
 21
27.15452755905511
 31
0.0
  0
LINE
  5
225
330
1E
100
AcDbEntity
  8
3
100
AcDbLine
 10
39.86909448818897
 20
27.14665354330708
 30
0.0
 11
39.86909448818897
 21
27.16240157480314
 31
0.0
  0
LINE
  5
226
330
1E
100
AcDbEntity
  8
3
100
AcDbLine
 10
39.87106299212598
 20
27.14665354330708
 30
0.0
 11
39.87106299212598
 21
27.16929133858267
 31
0.0
  0
LINE
  5
227
330
1E
100
AcDbEntity
  8
3
100
AcDbLine
 10
39.87303149606298
 20
27.14665354330708
 30
0.0
 11
39.87303149606298
 21
27.17716535433071
 31
0.0
  0
LINE
  5
228
330
1E
100
AcDbEntity
  8
3
100
AcDbLine
 10
39.875
 20
27.14665354330708
 30
0.0
 11
39.875
 21
27.18405511811023
 31
0.0
  0
LINE
  5
229
330
1E
100
AcDbEntity
  8
3
100
AcDbLine
 10
39.876968503937
 20
27.14665354330708
 30
0.0
 11
39.876968503937
 21
27.19192913385827
 31
0.0
  0
LINE
  5
22A
330
1E
100
AcDbEntity
  8
3
100
AcDbLine
 10
39.87992125984252
 20
27.14665354330708
 30
0.0
 11
39.87992125984252
 21
27.19980314960629
 31
0.0
  0
LINE
  5
22B
330
1E
100
AcDbEntity
  8
3
100
AcDbLine
 10
39.88188976377952
 20
27.14665354330708
 30
0.0
 11
39.88188976377952
 21
27.20669291338582
 31
0.0
  0
LINE
  5
22C
330
1E
100
AcDbEntity
  8
3
100
AcDbLine
 10
39.88385826771653
 20
27.14665354330708
 30
0.0
 11
39.88385826771653
 21
27.21456692913385
 31
0.0
  0
LINE
  5
22D
330
1E
100
AcDbEntity
  8
3
100
AcDbLine
 10
39.88582677165354
 20
27.14665354330708
 30
0.0
 11
39.88582677165354
 21
27.22145669291338
 31
0.0
  0
LINE
  5
22E
330
1E
100
AcDbEntity
  8
3
100
AcDbLine
 10
39.88779527559055
 20
27.14665354330708
 30
0.0
 11
39.88779527559055
 21
27.22933070866141
 31
0.0
  0
LINE
  5
22F
330
1E
100
AcDbEntity
  8
3
100
AcDbLine
 10
39.88976377952755
 20
27.14665354330708
 30
0.0
 11
39.88976377952755
 21
27.23622047244094
 31
0.0
  0
LINE
  5
230
330
1E
100
AcDbEntity
  8
3
100
AcDbLine
 10
39.91141732283464
 20
27.14665354330708
 30
0.0
 11
39.91141732283464
 21
27.15452755905511
 31
0.0
  0
LINE
  5
231
330
1E
100
AcDbEntity
  8
3
100
AcDbLine
 10
39.90944881889763
 20
27.14665354330708
 30
0.0
 11
39.90944881889763
 21
27.16240157480314
 31
0.0
  0
LINE
  5
232
330
1E
100
AcDbEntity
  8
3
100
AcDbLine
 10
39.90748031496062
 20
27.14665354330708
 30
0.0
 11
39.90748031496062
 21
27.16929133858267
 31
0.0
  0
LINE
  5
233
330
1E
100
AcDbEntity
  8
3
100
AcDbLine
 10
39.90551181102361
 20
27.14665354330708
 30
0.0
 11
39.90551181102361
 21
27.17716535433071
 31
0.0
  0
LINE
  5
234
330
1E
100
AcDbEntity
  8
3
100
AcDbLine
 10
39.9035433070866
 20
27.14665354330708
 30
0.0
 11
39.9035433070866
 21
27.18405511811023
 31
0.0
  0
LINE
  5
235
330
1E
100
AcDbEntity
  8
3
100
AcDbLine
 10
39.9015748031496
 20
27.14665354330708
 30
0.0
 11
39.9015748031496
 21
27.19192913385827
 31
0.0
  0
LINE
  5
236
330
1E
100
AcDbEntity
  8
3
100
AcDbLine
 10
39.89960629921259
 20
27.14665354330708
 30
0.0
 11
39.89960629921259
 21
27.19980314960629
 31
0.0
  0
LINE
  5
237
330
1E
100
AcDbEntity
  8
3
100
AcDbLine
 10
39.89763779527558
 20
27.14665354330708
 30
0.0
 11
39.89763779527558
 21
27.20669291338582
 31
0.0
  0
LINE
  5
238
330
1E
100
AcDbEntity
  8
3
100
AcDbLine
 10
39.89566929133857
 20
27.14665354330708
 30
0.0
 11
39.89566929133857
 21
27.21456692913385
 31
0.0
  0
LINE
  5
239
330
1E
100
AcDbEntity
  8
3
100
AcDbLine
 10
39.89370078740157
 20
27.14665354330708
 30
0.0
 11
39.89370078740157
 21
27.22145669291338
 31
0.0
  0
LINE
  5
23A
330
1E
100
AcDbEntity
  8
3
100
AcDbLine
 10
39.89173228346456
 20
27.14665354330708
 30
0.0
 11
39.89173228346456
 21
27.22933070866141
 31
0.0
  0
LINE
  5
23B
330
1E
100
AcDbEntity
  8
3
100
AcDbLine
 10
39.88976377952755
 20
27.14665354330708
 30
0.0
 11
39.88976377952755
 21
27.23622047244094
 31
0.0
  0
LINE
  5
243
330
1E
100
AcDbEntity
  8
7
100
AcDbLine
 10
39.96275190214362
 20
24.04689366098519
 30
0.0
 11
43.05330308324598
 21
24.04689366098519
 31
0.0
  0
LINE
  5
24A
330
1E
100
AcDbEntity
  8
7
100
AcDbLine
 10
39.96275190214362
 20
24.67189366098519
 30
0.0
 11
43.05330308324598
 21
24.67189366098519
 31
0.0
  0
LINE
  5
252
330
1E
100
AcDbEntity
  8
7
100
AcDbLine
 10
39.96275190214362
 20
24.04689366098519
 30
0.0
 11
39.96275190214362
 21
24.67189366098519
 31
0.0
  0
LINE
  5
25A
330
1E
100
AcDbEntity
  8
7
100
AcDbLine
 10
41.46275190214362
 20
24.04689366098519
 30
0.0
 11
41.46275190214362
 21
24.67189366098519
 31
0.0
  0
LINE
  5
262
330
1E
100
AcDbEntity
  8
7
100
AcDbLine
 10
39.96275190214362
 20
24.35988578696945
 30
0.0
 11
43.05330308324598
 21
24.35988578696945
 31
0.0
  0
LWPOLYLINE
  5
3F4
330
1E
100
AcDbEntity
  8
7
100
AcDbPolyline
 90
        7
 70
     0
 43
0.0098425196850394
 10
40.16747631159243
 20
24.47898027515842
 10
40.16747631159243
 20
24.56756295232378
 10
40.22062591789165
 20
24.56756295232378
 10
40.23834245332472
 20
24.55968893657574
 10
40.23834245332472
 20
24.53212988145764
 10
40.21964166592314
 20
24.5242558657096
 10
40.16747631159243
 20
24.5242558657096
  0
LWPOLYLINE
  5
3FD
330
1E
100
AcDbEntity
  8
7
100
AcDbPolyline
 90
        3
 70
     0
 43
0.0098425196850394
 10
40.26491725647433
 20
24.47898027515842
 10
40.30035032734047
 20
24.56756295232378
 10
40.33676765017512
 20
24.47898027515842
  0
LINE
  5
402
330
1E
100
AcDbEntity
  8
7
100
AcDbLine
 10
40.2826337919074
 20
24.5242558657096
 30
0.0
 11
40.31806686277354
 21
24.5242558657096
 31
0.0
  0
LWPOLYLINE
  5
403
330
1E
100
AcDbEntity
  8
7
100
AcDbPolyline
 90
        4
 70
     0
 43
0.0098425196850394
 10
40.36334245332472
 20
24.47898027515842
 10
40.36334245332472
 20
24.56756295232378
 10
40.434208595057
 20
24.47898027515842
 10
40.434208595057
 20
24.56756295232378
  0
LWPOLYLINE
  5
409
330
1E
100
AcDbEntity
  8
7
100
AcDbPolyline
 90
        7
 70
     0
 43
0.0098425196850394
 10
40.46078339820661
 20
24.47898027515842
 10
40.51393300450582
 20
24.47898027515842
 10
40.5326337919074
 20
24.49669681059149
 10
40.5326337919074
 20
24.54984641689071
 10
40.51393300450582
 20
24.56756295232378
 10
40.46078339820661
 20
24.56756295232378
 10
40.46078339820661
 20
24.47898027515842
  0
LINE
  5
412
330
1E
100
AcDbEntity
  8
7
100
AcDbLine
 10
40.559208595057
 20
24.56756295232378
 30
0.0
 11
40.559208595057
 21
24.49669681059149
 31
0.0
  0
LWPOLYLINE
  5
413
330
1E
100
AcDbEntity
  8
7
100
AcDbPolyline
 90
        5
 70
     0
 43
0.0098425196850394
 10
40.559208595057
 20
24.49669681059149
 10
40.57594087852157
 20
24.47898027515842
 10
40.61137394938771
 20
24.47898027515842
 10
40.63007473678928
 20
24.49669681059149
 10
40.63007473678928
 20
24.56756295232378
  0
LINE
  5
41A
330
1E
100
AcDbEntity
  8
7
100
AcDbLine
 10
40.6832243430885
 20
24.47898027515842
 30
0.0
 11
40.70094087852157
 21
24.47898027515842
 31
0.0
  0
LINE
  5
41B
330
1E
100
AcDbEntity
  8
7
100
AcDbLine
 10
40.69306686277354
 20
24.56756295232378
 30
0.0
 11
40.69306686277354
 21
24.47898027515842
 31
0.0
  0
LINE
  5
41C
330
1E
100
AcDbEntity
  8
7
100
AcDbLine
 10
40.6832243430885
 20
24.56756295232378
 30
0.0
 11
40.70094087852157
 21
24.56756295232378
 31
0.0
  0
LINE
  5
41D
330
1E
100
AcDbEntity
  8
7
100
AcDbLine
 10
40.79149205962393
 20
24.56756295232378
 30
0.0
 11
40.79149205962393
 21
24.47898027515842
 31
0.0
  0
LINE
  5
41E
330
1E
100
AcDbEntity
  8
7
100
AcDbLine
 10
40.82692513049008
 20
24.56756295232378
 30
0.0
 11
40.75507473678928
 21
24.56756295232378
 31
0.0
  0
LWPOLYLINE
  5
41F
330
1E
100
AcDbEntity
  8
7
100
AcDbPolyline
 90
        7
 70
     0
 43
0.0098425196850394
 10
40.95192513049008
 20
24.47898027515842
 10
40.95192513049008
 20
24.56756295232378
 10
41.00507473678929
 20
24.56756295232378
 10
41.02279127222236
 20
24.55968893657574
 10
41.02279127222236
 20
24.53212988145764
 10
41.00409048482078
 20
24.5242558657096
 10
40.95192513049008
 20
24.5242558657096
  0
LINE
  5
428
330
1E
100
AcDbEntity
  8
7
100
AcDbLine
 10
41.12121646907275
 20
24.56756295232378
 30
0.0
 11
41.04936607537196
 21
24.47898027515842
 31
0.0
  0
LINE
  5
429
330
1E
100
AcDbEntity
  8
7
100
AcDbLine
 10
41.14779127222236
 20
24.47898027515842
 30
0.0
 11
41.14779127222236
 21
24.56756295232378
 31
0.0
  0
LWPOLYLINE
  5
42A
330
1E
100
AcDbEntity
  8
7
100
AcDbPolyline
 90
        3
 70
     0
 43
0.0098425196850394
 10
41.14779127222236
 20
24.56756295232378
 10
41.21865741395464
 20
24.47898027515842
 10
41.21865741395464
 20
24.56756295232378
  0
LWPOLYLINE
  5
7F5
330
1E
100
AcDbEntity
  8
7
100
AcDbPolyline
 90
       12
 70
     0
 43
0.0098425196850394
 10
40.65551181102361
 20
23.59350393700787
 10
40.68011811023621
 20
23.58169291338582
 10
40.73031496062991
 20
23.58169291338582
 10
40.75492125984252
 20
23.59448818897637
 10
40.75492125984252
 20
23.63090551181102
 10
40.73031496062991
 20
23.64370078740157
 10
40.68110236220472
 20
23.64370078740157
 10
40.65551181102361
 20
23.65551181102361
 10
40.65551181102361
 20
23.69389763779527
 10
40.68110236220472
 20
23.70570866141732
 10
40.73031496062991
 20
23.70570866141732
 10
40.75492125984252
 20
23.69389763779527
  0
LWPOLYLINE
  5
803
330
1E
100
AcDbEntity
  8
7
100
AcDbPolyline
 90
        7
 70
     0
 43
0.0098425196850394
 10
40.79232283464566
 20
23.58169291338582
 10
40.79232283464566
 20
23.70570866141732
 10
40.86712598425196
 20
23.70570866141732
 10
40.89173228346456
 20
23.69389763779527
 10
40.89173228346456
 20
23.65551181102361
 10
40.86515748031495
 20
23.64370078740157
 10
40.79232283464566
 20
23.64370078740157
  0
LWPOLYLINE
  5
80C
330
1E
100
AcDbEntity
  8
7
100
AcDbPolyline
 90
        3
 70
     0
 43
0.0098425196850394
 10
40.92913385826771
 20
23.58169291338582
 10
40.97834645669291
 20
23.70570866141732
 10
41.0275590551181
 20
23.58169291338582
  0
LINE
  5
811
330
1E
100
AcDbEntity
  8
7
100
AcDbLine
 10
40.9537401574803
 20
23.64370078740157
 30
0.0
 11
41.00295275590551
 21
23.64370078740157
 31
0.0
  0
LWPOLYLINE
  5
812
330
1E
100
AcDbEntity
  8
7
100
AcDbPolyline
 90
        8
 70
     0
 43
0.0098425196850394
 10
41.16240157480315
 20
23.60629921259842
 10
41.13779527559055
 20
23.58169291338582
 10
41.08956692913385
 20
23.58169291338582
 10
41.06496062992126
 20
23.60629921259842
 10
41.06496062992126
 20
23.68110236220472
 10
41.08956692913385
 20
23.70570866141732
 10
41.13877952755905
 20
23.70570866141732
 10
41.16437007874015
 20
23.68110236220472
  0
LWPOLYLINE
  5
81C
330
1E
100
AcDbEntity
  8
7
100
AcDbPolyline
 90
        4
 70
     0
 43
0.0098425196850394
 10
41.3001968503937
 20
23.58169291338582
 10
41.2007874015748
 20
23.58169291338582
 10
41.2007874015748
 20
23.70570866141732
 10
41.3001968503937
 20
23.70570866141732
  0
LINE
  5
822
330
1E
100
AcDbEntity
  8
7
100
AcDbLine
 10
41.27559055118109
 20
23.64370078740157
 30
0.0
 11
41.2007874015748
 21
23.64370078740157
 31
0.0
  0
LWPOLYLINE
  5
823
330
1E
100
AcDbEntity
  8
7
100
AcDbPolyline
 90
        3
 70
     0
 43
0.0098425196850394
 10
41.47342519685039
 20
23.58169291338582
 10
41.47342519685039
 20
23.70570866141732
 10
41.57283464566929
 20
23.70570866141732
  0
LINE
  5
828
330
1E
100
AcDbEntity
  8
7
100
AcDbLine
 10
41.53444881889763
 20
23.65551181102361
 30
0.0
 11
41.47342519685039
 21
23.65551181102361
 31
0.0
  0
LINE
  5
829
330
1E
100
AcDbEntity
  8
7
100
AcDbLine
 10
41.64665354330708
 20
23.58169291338582
 30
0.0
 11
41.67125984251968
 21
23.58169291338582
 31
0.0
  0
LINE
  5
82A
330
1E
100
AcDbEntity
  8
7
100
AcDbLine
 10
41.65944881889763
 20
23.70570866141732
 30
0.0
 11
41.65944881889763
 21
23.58169291338582
 31
0.0
  0
LINE
  5
82B
330
1E
100
AcDbEntity
  8
7
100
AcDbLine
 10
41.64665354330708
 20
23.70570866141732
 30
0.0
 11
41.67125984251968
 21
23.70570866141732
 31
0.0
  0
LWPOLYLINE
  5
82C
330
1E
100
AcDbEntity
  8
7
100
AcDbPolyline
 90
        3
 70
     0
 43
0.0098425196850394
 10
41.74606299212597
 20
23.70570866141732
 10
41.74606299212597
 20
23.58169291338582
 10
41.84547244094487
 20
23.58169291338582
  0
LWPOLYLINE
  5
831
330
1E
100
AcDbEntity
  8
7
100
AcDbPolyline
 90
        3
 70
     0
 43
0.0098425196850394
 10
41.88188976377952
 20
23.70570866141732
 10
41.88188976377952
 20
23.58169291338582
 10
41.98129921259842
 20
23.58169291338582
  0
LWPOLYLINE
  5
836
330
1E
100
AcDbEntity
  8
7
100
AcDbPolyline
 90
        4
 70
     0
 43
0.0098425196850394
 10
42.11712598425196
 20
23.58169291338582
 10
42.01870078740157
 20
23.58169291338582
 10
42.01870078740157
 20
23.70570866141732
 10
42.11712598425196
 20
23.70570866141732
  0
LINE
  5
83C
330
1E
100
AcDbEntity
  8
7
100
AcDbLine
 10
42.09251968503936
 20
23.64370078740157
 30
0.0
 11
42.01870078740157
 21
23.64370078740157
 31
0.0
  0
LWPOLYLINE
  5
83D
330
1E
100
AcDbEntity
  8
7
100
AcDbPolyline
 90
        7
 70
     0
 43
0.0098425196850394
 10
42.15452755905511
 20
23.58169291338582
 10
42.15452755905511
 20
23.70570866141732
 10
42.22834645669291
 20
23.70570866141732
 10
42.25393700787401
 20
23.69389763779527
 10
42.25393700787401
 20
23.65551181102361
 10
42.22834645669291
 20
23.64370078740157
 10
42.15452755905511
 20
23.64370078740157
  0
LINE
  5
846
330
1E
100
AcDbEntity
  8
7
100
AcDbLine
 10
42.25393700787401
 20
23.58169291338582
 30
0.0
 11
42.22834645669291
 21
23.64370078740157
 31
0.0
  0
LWPOLYLINE
  5
847
330
1E
100
AcDbEntity
  8
7
100
AcDbPolyline
 90
        7
 70
     0
 43
0.0098425196850394
 10
42.4271653543307
 20
23.58169291338582
 10
42.4271653543307
 20
23.70570866141732
 10
42.5009842519685
 20
23.70570866141732
 10
42.52559055118109
 20
23.69389763779527
 10
42.52559055118109
 20
23.65551181102361
 10
42.5
 20
23.64370078740157
 10
42.4271653543307
 20
23.64370078740157
  0
LWPOLYLINE
  5
850
330
1E
100
AcDbEntity
  8
7
100
AcDbPolyline
 90
        3
 70
     0
 43
0.0098425196850394
 10
42.56299212598425
 20
23.58169291338582
 10
42.61220472440944
 20
23.70570866141732
 10
42.66240157480314
 20
23.58169291338582
  0
LINE
  5
855
330
1E
100
AcDbEntity
  8
7
100
AcDbLine
 10
42.58759842519684
 20
23.64370078740157
 30
0.0
 11
42.63779527559054
 21
23.64370078740157
 31
0.0
  0
LWPOLYLINE
  5
856
330
1E
100
AcDbEntity
  8
7
100
AcDbPolyline
 90
        4
 70
     0
 43
0.0098425196850394
 10
42.69980314960629
 20
23.58169291338582
 10
42.69980314960629
 20
23.70570866141732
 10
42.79822834645669
 20
23.58169291338582
 10
42.79822834645669
 20
23.70570866141732
  0
LWPOLYLINE
  5
85C
330
1E
100
AcDbEntity
  8
7
100
AcDbPolyline
 90
        4
 70
     0
 43
0.0098425196850394
 10
42.93503937007874
 20
23.58169291338582
 10
42.83562992125983
 20
23.58169291338582
 10
42.83562992125983
 20
23.70570866141732
 10
42.93503937007874
 20
23.70570866141732
  0
LINE
  5
862
330
1E
100
AcDbEntity
  8
7
100
AcDbLine
 10
42.90944881889763
 20
23.64370078740157
 30
0.0
 11
42.83562992125983
 21
23.64370078740157
 31
0.0
  0
LINE
  5
863
330
1E
100
AcDbEntity
  8
7
100
AcDbLine
 10
42.97145669291338
 20
23.70570866141732
 30
0.0
 11
42.97145669291338
 21
23.58169291338582
 31
0.0
  0
LINE
  5
864
330
1E
100
AcDbEntity
  8
7
100
AcDbLine
 10
42.97145669291338
 20
23.58169291338582
 30
0.0
 11
43.07086614173228
 21
23.58169291338582
 31
0.0
  0
LWPOLYLINE
  5
865
330
1E
100
AcDbEntity
  8
7
100
AcDbPolyline
 90
        4
 70
     0
 43
0.0098425196850394
 10
40.30807086614172
 20
23.39370078740157
 10
40.29527559055117
 20
23.41929133858267
 10
40.29527559055117
 20
23.49311023622047
 10
40.30807086614172
 20
23.51771653543307
  0
LWPOLYLINE
  5
86B
330
1E
100
AcDbEntity
  8
7
100
AcDbPolyline
 90
        7
 70
     0
 43
0.0098425196850394
 10
40.38385826771653
 20
23.39370078740157
 10
40.45669291338582
 20
23.39370078740157
 10
40.48228346456692
 20
23.41929133858267
 10
40.48228346456692
 20
23.49311023622047
 10
40.45669291338582
 20
23.51771653543307
 10
40.38385826771653
 20
23.51771653543307
 10
40.38385826771653
 20
23.39370078740157
  0
LWPOLYLINE
  5
874
330
1E
100
AcDbEntity
  8
7
100
AcDbPolyline
 90
        7
 70
     0
 43
0.0098425196850394
 10
40.51968503937007
 20
23.39370078740157
 10
40.51968503937007
 20
23.51771653543307
 10
40.59350393700786
 20
23.51771653543307
 10
40.61909448818897
 20
23.50590551181102
 10
40.61909448818897
 20
23.46850393700786
 10
40.59251968503936
 20
23.45669291338582
 10
40.51968503937007
 20
23.45669291338582
  0
LWPOLYLINE
  5
87D
330
1E
100
AcDbEntity
  8
7
100
AcDbPolyline
 90
        3
 70
     0
 43
0.0098425196850394
 10
40.65551181102361
 20
23.39370078740157
 10
40.65551181102361
 20
23.51771653543307
 10
40.75492125984252
 20
23.51771653543307
  0
LINE
  5
882
330
1E
100
AcDbEntity
  8
7
100
AcDbLine
 10
40.71751968503936
 20
23.46850393700786
 30
0.0
 11
40.65551181102361
 21
23.46850393700786
 31
0.0
  0
LWPOLYLINE
  5
883
330
1E
100
AcDbEntity
  8
7
100
AcDbPolyline
 90
        7
 70
     0
 43
0.0098425196850394
 10
40.79232283464566
 20
23.39370078740157
 10
40.79232283464566
 20
23.51771653543307
 10
40.86614173228346
 20
23.51771653543307
 10
40.89074803149606
 20
23.50590551181102
 10
40.89074803149606
 20
23.46850393700786
 10
40.86515748031495
 20
23.45669291338582
 10
40.79232283464566
 20
23.45669291338582
  0
LWPOLYLINE
  5
88C
330
1E
100
AcDbEntity
  8
7
100
AcDbPolyline
 90
        8
 70
     0
 43
0.0098425196850394
 10
40.9517716535433
 20
23.45669291338582
 10
40.92814960629921
 20
23.46850393700786
 10
40.92814960629921
 20
23.50590551181102
 10
40.9517716535433
 20
23.51771653543307
 10
41.00295275590551
 20
23.51771653543307
 10
41.0275590551181
 20
23.50590551181102
 10
41.0275590551181
 20
23.46850393700786
 10
41.00295275590551
 20
23.45669291338582
  0
LWPOLYLINE
  5
896
330
1E
100
AcDbEntity
  8
7
100
AcDbPolyline
 90
        9
 70
     0
 43
0.0098425196850394
 10
41.00295275590551
 20
23.45669291338582
 10
40.9517716535433
 20
23.45669291338582
 10
40.9271653543307
 20
23.44389763779527
 10
40.9271653543307
 20
23.40748031496063
 10
40.9517716535433
 20
23.39370078740157
 10
41.00295275590551
 20
23.39370078740157
 10
41.0275590551181
 20
23.40551181102362
 10
41.0275590551181
 20
23.44389763779527
 10
41.00295275590551
 20
23.45669291338582
  0
LWPOLYLINE
  5
8A1
330
1E
100
AcDbEntity
  8
7
100
AcDbPolyline
 90
        4
 70
     0
 43
0.0098425196850394
 10
41.1013779527559
 20
23.39370078740157
 10
41.11220472440944
 20
23.41929133858267
 10
41.11417322834645
 20
23.49311023622047
 10
41.1013779527559
 20
23.51771653543307
  0
LWPOLYLINE
  5
F6D
330
1E
100
AcDbEntity
  8
7
100
AcDbPolyline
 90
        7
 70
     0
 43
0.0098425196850394
 10
40.37515347694677
 20
24.18468893657574
 10
40.42731883127748
 20
24.18468893657574
 10
40.44601961867905
 20
24.20240547200882
 10
40.44601961867905
 20
24.25555507830803
 10
40.42731883127748
 20
24.2742558657096
 10
40.37515347694677
 20
24.2742558657096
 10
40.37515347694677
 20
24.18468893657574
  0
LWPOLYLINE
  5
F76
330
1E
100
AcDbEntity
  8
7
100
AcDbPolyline
 90
        7
 70
     0
 43
0.0098425196850394
 10
40.47259442182865
 20
24.18468893657574
 10
40.47259442182865
 20
24.2742558657096
 10
40.52574402812787
 20
24.2742558657096
 10
40.54444481552944
 20
24.26539759799307
 10
40.54444481552944
 20
24.23783854287496
 10
40.52475977615936
 20
24.22996452712693
 10
40.47259442182865
 20
24.22996452712693
  0
LWPOLYLINE
  5
F7F
330
1E
100
AcDbEntity
  8
7
100
AcDbPolyline
 90
        3
 70
     0
 43
0.0098425196850394
 10
40.57101961867905
 20
24.18468893657574
 10
40.57101961867905
 20
24.2742558657096
 10
40.64188576041134
 20
24.2742558657096
  0
LINE
  5
F84
330
1E
100
AcDbEntity
  8
7
100
AcDbLine
 10
40.61531095726173
 20
24.23783854287496
 30
0.0
 11
40.57101961867905
 21
24.23783854287496
 31
0.0
  0
LWPOLYLINE
  5
F85
330
1E
100
AcDbEntity
  8
7
100
AcDbPolyline
 90
        3
 70
     0
 43
0.0098425196850394
 10
40.66846056356093
 20
24.18468893657574
 10
40.66846056356093
 20
24.2742558657096
 10
40.72259442182866
 20
24.2742558657096
  0
LWPOLYLINE
  5
F8A
330
1E
100
AcDbEntity
  8
7
100
AcDbPolyline
 90
        5
 70
     0
 43
0.0098425196850394
 10
40.72259442182866
 20
24.2742558657096
 10
40.74031095726173
 20
24.26539759799307
 10
40.74031095726173
 20
24.23783854287496
 10
40.72161016986015
 20
24.22996452712693
 10
40.66846056356093
 20
24.22996452712693
  0
LWPOLYLINE
  5
F91
330
1E
100
AcDbEntity
  8
7
100
AcDbPolyline
 90
       11
 70
     0
 43
0.0098425196850394
 10
40.7836180438759
 20
24.22996452712693
 10
40.76688576041134
 20
24.23783854287496
 10
40.76688576041134
 20
24.26539759799307
 10
40.7836180438759
 20
24.2742558657096
 10
40.82003536671055
 20
24.2742558657096
 10
40.83775190214362
 20
24.26539759799307
 10
40.83775190214362
 20
24.23783854287496
 10
40.82003536671055
 20
24.22996452712693
 10
40.7836180438759
 20
24.22996452712693
 10
40.76590150844284
 20
24.22012200744189
 10
40.76590150844284
 20
24.19453145626079
  0
LWPOLYLINE
  5
F9E
330
1E
100
AcDbEntity
  8
7
100
AcDbPolyline
 90
        6
 70
     0
 43
0.0098425196850394
 10
40.76590150844284
 20
24.19453145626079
 10
40.7836180438759
 20
24.18468893657574
 10
40.82003536671055
 20
24.18468893657574
 10
40.83775190214362
 20
24.19354720429228
 10
40.83775190214362
 20
24.22012200744189
 10
40.82003536671055
 20
24.22996452712693
  0
LWPOLYLINE
  5
165D
330
1E
100
AcDbEntity
  8
7
100
AcDbPolyline
 90
        8
 70
     0
 43
0.0098425196850394
 10
41.684208595057
 20
24.31854720429228
 10
41.70094087852158
 20
24.32740547200882
 10
41.73735820135621
 20
24.32740547200882
 10
41.75507473678929
 20
24.31854720429228
 10
41.75507473678929
 20
24.30083066885921
 10
41.6832243430885
 20
24.25653933027653
 10
41.684208595057
 20
24.23882279484346
 10
41.75507473678929
 20
24.23882279484346
  0
LWPOLYLINE
  5
1667
330
1E
100
AcDbEntity
  8
7
100
AcDbPolyline
 90
        5
 70
     0
 43
0.0098425196850394
 10
41.8082243430885
 20
24.23882279484346
 10
41.82594087852158
 20
24.23882279484346
 10
41.82594087852158
 20
24.25653933027653
 10
41.8082243430885
 20
24.25653933027653
 10
41.8082243430885
 20
24.23882279484346
  0
LINE
  5
166E
330
1E
100
AcDbEntity
  8
7
100
AcDbLine
 10
41.87909048482079
 20
24.24669681059149
 30
0.0
 11
41.89680702025386
 21
24.23882279484346
 31
0.0
  0
LWPOLYLINE
  5
166F
330
1E
100
AcDbEntity
  8
7
100
AcDbPolyline
 90
        9
 70
     0
 43
0.0098425196850394
 10
41.89680702025386
 20
24.23882279484346
 10
41.934208595057
 20
24.23882279484346
 10
41.95192513049008
 20
24.24669681059149
 10
41.95192513049008
 20
24.28212988145764
 10
41.934208595057
 20
24.29197240114268
 10
41.89680702025386
 20
24.29197240114268
 10
41.87909048482079
 20
24.28311413342614
 10
41.87909048482079
 20
24.32740547200882
 10
41.95192513049008
 20
24.32740547200882
  0
LWPOLYLINE
  5
167A
330
1E
100
AcDbEntity
  8
7
100
AcDbPolyline
 90
        8
 70
     0
 43
0.0098425196850394
 10
41.99523221710425
 20
24.28311413342614
 10
41.97849993363968
 20
24.29197240114268
 10
41.97849993363968
 20
24.31854720429228
 10
41.99523221710425
 20
24.32740547200882
 10
42.0316495399389
 20
24.32740547200882
 10
42.04936607537196
 20
24.31854720429228
 10
42.04936607537196
 20
24.29197240114268
 10
42.0316495399389
 20
24.28311413342614
  0
LWPOLYLINE
  5
1684
330
1E
100
AcDbEntity
  8
7
100
AcDbPolyline
 90
        9
 70
     0
 43
0.0098425196850394
 10
42.0316495399389
 20
24.28311413342614
 10
41.99523221710425
 20
24.28311413342614
 10
41.97751568167118
 20
24.2742558657096
 10
41.97751568167118
 20
24.24768106256
 10
41.99523221710425
 20
24.23882279484346
 10
42.0316495399389
 20
24.23882279484346
 10
42.04936607537196
 20
24.24669681059149
 10
42.04936607537196
 20
24.2742558657096
 10
42.0316495399389
 20
24.28311413342614
  0
LWPOLYLINE
  5
168F
330
1E
100
AcDbEntity
  8
7
100
AcDbPolyline
 90
        3
 70
     0
 43
0.0098425196850394
 10
42.17436607537196
 20
24.32740547200882
 10
42.17436607537196
 20
24.23882279484346
 10
42.24621646907276
 20
24.23882279484346
  0
LWPOLYLINE
  5
1694
330
1E
100
AcDbEntity
  8
7
100
AcDbPolyline
 90
        3
 70
     0
 43
0.0098425196850394
 10
42.27279127222236
 20
24.29197240114268
 10
42.27279127222236
 20
24.32740547200882
 10
42.32594087852158
 20
24.32740547200882
  0
LWPOLYLINE
  5
1699
330
1E
100
AcDbEntity
  8
7
100
AcDbPolyline
 90
       10
 70
     0
 43
0.0098425196850394
 10
42.32594087852158
 20
24.32740547200882
 10
42.33479914623811
 20
24.31854720429228
 10
42.33479914623811
 20
24.30083066885921
 10
42.32594087852158
 20
24.29197240114268
 10
42.27279127222236
 20
24.29197240114268
 10
42.27279127222236
 20
24.23882279484346
 10
42.32495662655306
 20
24.23882279484346
 10
42.34267316198613
 20
24.24669681059149
 10
42.34267316198613
 20
24.28311413342614
 10
42.32594087852158
 20
24.29197240114268
  0
LINE
  5
16A5
330
1E
100
AcDbEntity
  8
7
100
AcDbLine
 10
42.44208261080504
 20
24.32740547200882
 30
0.0
 11
42.37023221710425
 21
24.23882279484346
 31
0.0
  0
LWPOLYLINE
  5
16A6
330
1E
100
AcDbEntity
  8
7
100
AcDbPolyline
 90
        4
 70
     0
 43
0.0098425196850394
 10
42.53952355568692
 20
24.23882279484346
 10
42.46865741395464
 20
24.23882279484346
 10
42.46865741395464
 20
24.32740547200882
 10
42.53952355568692
 20
24.32740547200882
  0
LINE
  5
16AC
330
1E
100
AcDbEntity
  8
7
100
AcDbLine
 10
42.52180702025386
 20
24.28311413342614
 30
0.0
 11
42.46865741395464
 21
24.28311413342614
 31
0.0
  0
LWPOLYLINE
  5
16AD
330
1E
100
AcDbEntity
  8
7
100
AcDbPolyline
 90
        3
 70
     0
 43
0.0098425196850394
 10
42.56708261080503
 20
24.23882279484346
 10
42.60251568167118
 20
24.32740547200882
 10
42.63794875253732
 20
24.23882279484346
  0
LINE
  5
16B2
330
1E
100
AcDbEntity
  8
7
100
AcDbLine
 10
42.58479914623811
 20
24.28311413342614
 30
0.0
 11
42.62023221710425
 21
24.28311413342614
 31
0.0
  0
LWPOLYLINE
  5
16B3
330
1E
100
AcDbEntity
  8
7
100
AcDbPolyline
 90
        5
 70
     0
 43
0.0098425196850394
 10
42.7353896974192
 20
24.25653933027653
 10
42.71767316198614
 20
24.23882279484346
 10
42.68224009112
 20
24.23882279484346
 10
42.66452355568692
 20
24.25653933027653
 10
42.66452355568692
 20
24.30968893657574
  0
LWPOLYLINE
  5
16BA
330
1E
100
AcDbEntity
  8
7
100
AcDbPolyline
 90
        4
 70
     0
 43
0.0098425196850394
 10
42.66452355568692
 20
24.30968893657574
 10
42.68224009112
 20
24.32740547200882
 10
42.71865741395465
 20
24.32740547200882
 10
42.73637394938771
 20
24.30968893657574
  0
LINE
  5
16C0
330
1E
100
AcDbEntity
  8
7
100
AcDbLine
 10
42.76294875253732
 20
24.23882279484346
 30
0.0
 11
42.76294875253732
 21
24.32740547200882
 31
0.0
  0
LINE
  5
16C1
330
1E
100
AcDbEntity
  8
7
100
AcDbLine
 10
42.8338148942696
 20
24.28311413342614
 30
0.0
 11
42.76294875253732
 21
24.28311413342614
 31
0.0
  0
LINE
  5
16C2
330
1E
100
AcDbEntity
  8
7
100
AcDbLine
 10
42.8338148942696
 20
24.23882279484346
 30
0.0
 11
42.8338148942696
 21
24.32740547200882
 31
0.0
  0
LWPOLYLINE
  5
16C3
330
1E
100
AcDbEntity
  8
7
100
AcDbPolyline
 90
        3
 70
     0
 43
0.0098425196850394
 10
42.9588148942696
 20
24.23882279484346
 10
42.9588148942696
 20
24.32740547200882
 10
43.01196450056881
 20
24.32740547200882
  0
LWPOLYLINE
  5
16C8
330
1E
100
AcDbEntity
  8
7
100
AcDbPolyline
 90
        5
 70
     0
 43
0.0098425196850394
 10
43.01196450056881
 20
24.32740547200882
 10
43.03066528797039
 20
24.31854720429228
 10
43.03066528797039
 20
24.29197240114268
 10
43.01196450056881
 20
24.28311413342614
 10
42.9588148942696
 20
24.28311413342614
  0
LWPOLYLINE
  5
16CF
330
1E
100
AcDbEntity
  8
7
100
AcDbPolyline
 90
        8
 70
     0
 43
0.0098425196850394
 10
43.12712198088378
 20
24.25653933027653
 10
43.1094054454507
 20
24.23882279484346
 10
43.07495662655306
 20
24.23882279484346
 10
43.05724009112
 20
24.25653933027653
 10
43.05724009112
 20
24.30968893657574
 10
43.07495662655306
 20
24.32740547200882
 10
43.11038969741921
 20
24.32740547200882
 10
43.12810623285228
 20
24.30968893657574
  0
LWPOLYLINE
  5
16D9
330
1E
100
AcDbEntity
  8
7
100
AcDbPolyline
 90
        4
 70
     0
 43
0.0098425196850394
 10
41.58086213836409
 20
24.10299602318992
 10
41.57200387064755
 20
24.12071255862299
 10
41.57200387064755
 20
24.17484641689071
 10
41.58086213836409
 20
24.19256295232377
  0
LWPOLYLINE
  5
16DF
330
1E
100
AcDbEntity
  8
7
100
AcDbPolyline
 90
        3
 70
     0
 43
0.0098425196850394
 10
41.66353930371842
 20
24.18468893657574
 10
41.67141331946645
 20
24.19256295232377
 10
41.67141331946645
 20
24.10299602318992
  0
LINE
  5
16E4
330
1E
100
AcDbEntity
  8
7
100
AcDbLine
 10
41.65960229584441
 20
24.10299602318992
 30
0.0
 11
41.68224009112
 21
24.10299602318992
 31
0.0
  0
LWPOLYLINE
  5
16E5
330
1E
100
AcDbEntity
  8
7
100
AcDbPolyline
 90
        3
 70
     0
 43
0.0098425196850394
 10
41.76196450056881
 20
24.18468893657574
 10
41.76885426434835
 20
24.19256295232377
 10
41.76885426434835
 20
24.10299602318992
  0
LINE
  5
16EA
330
1E
100
AcDbEntity
  8
7
100
AcDbLine
 10
41.7580274926948
 20
24.10299602318992
 30
0.0
 11
41.78066528797039
 21
24.10299602318992
 31
0.0
  0
LWPOLYLINE
  5
16EB
330
1E
100
AcDbEntity
  8
7
100
AcDbPolyline
 90
        3
 70
     0
 43
0.0098425196850394
 10
41.85743694151369
 20
24.10299602318992
 10
41.90271253206488
 20
24.19256295232377
 10
41.83184639033259
 20
24.19256295232377
  0
LWPOLYLINE
  5
16F0
330
1E
100
AcDbEntity
  8
7
100
AcDbPolyline
 90
        7
 70
     0
 43
0.0098425196850394
 10
41.92928733521449
 20
24.11185429090645
 10
41.94601961867905
 20
24.10299602318992
 10
41.9834211934822
 20
24.10299602318992
 10
42.00113772891527
 20
24.11185429090645
 10
42.00113772891527
 20
24.13941334602457
 10
41.9834211934822
 20
24.1482716137411
 10
41.95586213836409
 20
24.1482716137411
  0
LWPOLYLINE
  5
16F9
330
1E
100
AcDbEntity
  8
7
100
AcDbPolyline
 90
        6
 70
     0
 43
0.0098425196850394
 10
41.9834211934822
 20
24.1482716137411
 10
42.00113772891527
 20
24.15712988145763
 10
42.00113772891527
 20
24.18370468460724
 10
41.9834211934822
 20
24.19256295232377
 10
41.94601961867905
 20
24.19256295232377
 10
41.92830308324598
 20
24.18370468460724
  0
LWPOLYLINE
  5
1701
330
1E
100
AcDbEntity
  8
7
100
AcDbPolyline
 90
        5
 70
     0
 43
0.0098425196850394
 10
42.05428733521449
 20
24.10299602318992
 10
42.07200387064755
 20
24.10299602318992
 10
42.07200387064755
 20
24.12071255862299
 10
42.05428733521449
 20
24.12071255862299
 10
42.05428733521449
 20
24.10299602318992
  0
LWPOLYLINE
  5
1708
330
1E
100
AcDbEntity
  8
7
100
AcDbPolyline
 90
        8
 70
     0
 43
0.0098425196850394
 10
42.12515347694677
 20
24.18370468460724
 10
42.14287001237984
 20
24.19256295232377
 10
42.17928733521449
 20
24.19256295232377
 10
42.19700387064755
 20
24.18370468460724
 10
42.19700387064755
 20
24.16598814917417
 10
42.12515347694677
 20
24.12071255862299
 10
42.12515347694677
 20
24.10299602318992
 10
42.19700387064755
 20
24.10299602318992
  0
LWPOLYLINE
  5
1712
330
1E
100
AcDbEntity
  8
7
100
AcDbPolyline
 90
       17
 70
     0
 43
0.0098425196850394
 10
42.32200387064755
 20
24.09315350350488
 10
42.32397237458456
 20
24.08331098381984
 10
42.3308621383641
 20
24.07642122004031
 10
42.33775190214362
 20
24.07445271610331
 10
42.37613772891527
 20
24.07445271610331
 10
42.3830274926948
 20
24.07642122004031
 10
42.38991725647433
 20
24.08331098381984
 10
42.39188576041134
 20
24.09020074759936
 10
42.39188576041134
 20
24.14039759799307
 10
42.38598024860031
 20
24.15122436964661
 10
42.37613772891527
 20
24.16008263736315
 10
42.36334245332471
 20
24.16205114130015
 10
42.35054717773417
 20
24.16205114130015
 10
42.33775190214362
 20
24.16008263736315
 10
42.32692513049008
 20
24.15122436964661
 10
42.32200387064755
 20
24.14039759799307
 10
42.32200387064755
 20
24.12661807043401
  0
LWPOLYLINE
  5
1725
330
1E
100
AcDbEntity
  8
7
100
AcDbPolyline
 90
        8
 70
     0
 43
0.0098425196850394
 10
42.32200387064755
 20
24.12661807043401
 10
42.32692513049008
 20
24.11480704681197
 10
42.33775190214362
 20
24.10594877909543
 10
42.35054717773417
 20
24.10299602318992
 10
42.36334245332471
 20
24.10299602318992
 10
42.37613772891527
 20
24.10594877909543
 10
42.38598024860031
 20
24.11480704681197
 10
42.39188576041134
 20
24.12661807043401
  0
LINE
  5
172F
330
1E
100
AcDbEntity
  8
7
100
AcDbLine
 10
42.49129520923023
 20
24.19256295232377
 30
0.0
 11
42.41944481552944
 21
24.10299602318992
 31
0.0
  0
LWPOLYLINE
  5
1730
330
1E
100
AcDbEntity
  8
7
100
AcDbPolyline
 90
        4
 70
     0
 43
0.0098425196850394
 10
42.58873615411213
 20
24.10299602318992
 10
42.51787001237985
 20
24.10299602318992
 10
42.51787001237985
 20
24.19256295232377
 10
42.58873615411213
 20
24.19256295232377
  0
LINE
  5
1736
330
1E
100
AcDbEntity
  8
7
100
AcDbLine
 10
42.57101961867905
 20
24.1482716137411
 30
0.0
 11
42.51787001237985
 21
24.1482716137411
 31
0.0
  0
LWPOLYLINE
  5
1737
330
1E
100
AcDbEntity
  8
7
100
AcDbPolyline
 90
        3
 70
     0
 43
0.0098425196850394
 10
42.61629520923023
 20
24.10299602318992
 10
42.65172828009638
 20
24.19256295232377
 10
42.68716135096251
 20
24.10299602318992
  0
LINE
  5
173C
330
1E
100
AcDbEntity
  8
7
100
AcDbLine
 10
42.6340117446633
 20
24.1482716137411
 30
0.0
 11
42.66944481552944
 21
24.1482716137411
 31
0.0
  0
LWPOLYLINE
  5
173D
330
1E
100
AcDbEntity
  8
7
100
AcDbPolyline
 90
        7
 70
     0
 43
0.0098425196850394
 10
42.78460229584441
 20
24.12071255862299
 10
42.76688576041133
 20
24.10299602318992
 10
42.73145268954519
 20
24.10299602318992
 10
42.71373615411213
 20
24.12071255862299
 10
42.71373615411213
 20
24.17484641689071
 10
42.73145268954519
 20
24.19256295232377
 10
42.76787001237984
 20
24.19256295232377
  0
LINE
  5
1746
330
1E
100
AcDbEntity
  8
7
100
AcDbLine
 10
42.76787001237984
 20
24.19256295232377
 30
0.0
 11
42.78558654781291
 21
24.17484641689071
 31
0.0
  0
LINE
  5
1747
330
1E
100
AcDbEntity
  8
7
100
AcDbLine
 10
42.81216135096252
 20
24.10299602318992
 30
0.0
 11
42.81216135096252
 21
24.19256295232377
 31
0.0
  0
LINE
  5
1748
330
1E
100
AcDbEntity
  8
7
100
AcDbLine
 10
42.8830274926948
 20
24.1482716137411
 30
0.0
 11
42.81216135096252
 21
24.1482716137411
 31
0.0
  0
LINE
  5
1749
330
1E
100
AcDbEntity
  8
7
100
AcDbLine
 10
42.8830274926948
 20
24.10299602318992
 30
0.0
 11
42.8830274926948
 21
24.19256295232377
 31
0.0
  0
LWPOLYLINE
  5
174A
330
1E
100
AcDbEntity
  8
7
100
AcDbPolyline
 90
        4
 70
     0
 43
0.0098425196850394
 10
43.0080274926948
 20
24.10299602318992
 10
43.0080274926948
 20
24.19256295232377
 10
43.06117709899401
 20
24.19256295232377
 10
43.07987788639559
 20
24.18370468460724
  0
LWPOLYLINE
  5
1750
330
1E
100
AcDbEntity
  8
7
100
AcDbPolyline
 90
        4
 70
     0
 43
0.0098425196850394
 10
43.07987788639559
 20
24.18370468460724
 10
43.07987788639559
 20
24.15712988145763
 10
43.06019284702551
 20
24.1482716137411
 10
43.0080274926948
 20
24.1482716137411
  0
LWPOLYLINE
  5
1756
330
1E
100
AcDbEntity
  8
7
100
AcDbPolyline
 90
        8
 70
     0
 43
0.0098425196850394
 10
43.17633457930897
 20
24.12071255862299
 10
43.1586180438759
 20
24.10299602318992
 10
43.12416922497827
 20
24.10299602318992
 10
43.10645268954519
 20
24.12071255862299
 10
43.10645268954519
 20
24.17484641689071
 10
43.12416922497827
 20
24.19256295232377
 10
43.1596022958444
 20
24.19256295232377
 10
43.17731883127748
 20
24.17484641689071
  0
LWPOLYLINE
  5
1760
330
1E
100
AcDbEntity
  8
7
100
AcDbPolyline
 90
        3
 70
     0
 43
0.0098425196850394
 10
43.23046843757668
 20
24.10299602318992
 10
43.23932670529322
 20
24.12071255862299
 10
43.24031095726173
 20
24.17484641689071
  0
LINE
  5
1765
330
1E
100
AcDbEntity
  8
7
100
AcDbLine
 10
43.24031095726173
 20
24.17484641689071
 30
0.0
 11
43.23046843757668
 21
24.19256295232377
 31
0.0
  0
LWPOLYLINE
  5
1766
330
1E
100
AcDbEntity
  8
7
100
AcDbPolyline
 90
        5
 70
     0
 43
0.0098425196850394
 10
41.93224009111999
 20
24.55968893657574
 10
41.94897237458456
 20
24.47012200744189
 10
41.96668891001763
 20
24.55968893657574
 10
41.9853896974192
 20
24.47012200744189
 10
42.00310623285228
 20
24.55968893657574
  0
LWPOLYLINE
  5
176D
330
1E
100
AcDbEntity
  8
7
100
AcDbPolyline
 90
        4
 70
     0
 43
0.0098425196850394
 10
42.10153142970267
 20
24.47012200744189
 10
42.02968103600189
 20
24.47012200744189
 10
42.02968103600189
 20
24.55968893657574
 10
42.10153142970267
 20
24.55968893657574
  0
LINE
  5
1773
330
1E
100
AcDbEntity
  8
7
100
AcDbLine
 10
42.0828306423011
 20
24.51539759799307
 30
0.0
 11
42.02968103600189
 21
24.51539759799307
 31
0.0
  0
LINE
  5
1774
330
1E
100
AcDbEntity
  8
7
100
AcDbLine
 10
42.15369678403338
 20
24.47012200744189
 30
0.0
 11
42.17239757143495
 21
24.47012200744189
 31
0.0
  0
LINE
  5
1775
330
1E
100
AcDbEntity
  8
7
100
AcDbLine
 10
42.16353930371842
 20
24.55968893657574
 30
0.0
 11
42.16353930371842
 21
24.47012200744189
 31
0.0
  0
LINE
  5
1776
330
1E
100
AcDbEntity
  8
7
100
AcDbLine
 10
42.15369678403338
 20
24.55968893657574
 30
0.0
 11
42.17239757143495
 21
24.55968893657574
 31
0.0
  0
LWPOLYLINE
  5
1777
330
1E
100
AcDbEntity
  8
7
100
AcDbPolyline
 90
        7
 70
     0
 43
0.0098425196850394
 10
42.26196450056881
 20
24.51539759799307
 10
42.29739757143495
 20
24.51539759799307
 10
42.29739757143495
 20
24.48783854287496
 10
42.27968103600189
 20
24.47012200744189
 10
42.24326371316724
 20
24.47012200744189
 10
42.22456292576566
 20
24.48783854287496
 10
42.22456292576566
 20
24.54197240114268
  0
LWPOLYLINE
  5
1780
330
1E
100
AcDbEntity
  8
7
100
AcDbPolyline
 90
        4
 70
     0
 43
0.0098425196850394
 10
42.22456292576566
 20
24.54197240114268
 10
42.24424796513575
 20
24.55968893657574
 10
42.27869678403338
 20
24.55968893657574
 10
42.29641331946645
 20
24.54197240114268
  0
LINE
  5
1786
330
1E
100
AcDbEntity
  8
7
100
AcDbLine
 10
42.32397237458456
 20
24.47012200744189
 30
0.0
 11
42.32397237458456
 21
24.55968893657574
 31
0.0
  0
LINE
  5
1787
330
1E
100
AcDbEntity
  8
7
100
AcDbLine
 10
42.39483851631685
 20
24.51539759799307
 30
0.0
 11
42.32397237458456
 21
24.51539759799307
 31
0.0
  0
LINE
  5
1788
330
1E
100
AcDbEntity
  8
7
100
AcDbLine
 10
42.39483851631685
 20
24.47012200744189
 30
0.0
 11
42.39483851631685
 21
24.55968893657574
 31
0.0
  0
LINE
  5
1789
330
1E
100
AcDbEntity
  8
7
100
AcDbLine
 10
42.4578306423011
 20
24.55968893657574
 30
0.0
 11
42.4578306423011
 21
24.47012200744189
 31
0.0
  0
LINE
  5
178A
330
1E
100
AcDbEntity
  8
7
100
AcDbLine
 10
42.49326371316724
 20
24.55968893657574
 30
0.0
 11
42.42239757143495
 21
24.55968893657574
 31
0.0
  0
LWPOLYLINE
  5
1791
330
1E
100
AcDbEntity
  8
7
100
AcDbPolyline
 90
        4
 70
     0
 43
0.0098425196850394
 10
33.59645669291338
 20
26.93110236220472
 10
33.5511811023622
 20
26.93110236220472
 10
33.5511811023622
 20
26.76279527559055
 10
33.59645669291338
 20
26.76279527559055
  0
LWPOLYLINE
  5
1797
330
1E
100
AcDbEntity
  8
7
100
AcDbPolyline
 90
        4
 70
     0
 43
0.0098425196850394
 10
34.06692913385827
 20
26.76279527559055
 10
34.11122047244094
 20
26.76279527559055
 10
34.11122047244094
 20
26.93110236220472
 10
34.06692913385827
 20
26.93110236220472
  0
LINE
  5
179D
330
1E
100
AcDbEntity
  8
3
100
AcDbLine
 10
34.89960629921259
 20
28.33366141732283
 30
0.0
 11
33.70669291338582
 21
28.33366141732283
 31
0.0
  0
LINE
  5
179E
330
1E
100
AcDbEntity
  8
3
100
AcDbLine
 10
34.89960629921259
 20
25.53937007874015
 30
0.0
 11
33.70669291338582
 21
25.53937007874015
 31
0.0
  0
LINE
  5
179F
330
1E
100
AcDbEntity
  8
3
100
AcDbLine
 10
33.83169291338582
 20
28.33366141732283
 30
0.0
 11
33.83169291338582
 21
27.17322834645669
 31
0.0
  0
LINE
  5
17A0
330
1E
100
AcDbEntity
  8
3
100
AcDbLine
 10
33.83169291338582
 20
25.53937007874015
 30
0.0
 11
33.83169291338582
 21
26.69980314960629
 31
0.0
  0
LWPOLYLINE
  5
17A1
330
1E
100
AcDbEntity
  8
7
100
AcDbPolyline
 90
        3
 70
     0
 43
0.0098425196850394
 10
33.62893700787401
 20
27.1023622047244
 10
33.63582677165354
 20
27.11023622047243
 10
33.63582677165354
 20
27.02066929133858
  0
LINE
  5
17A6
330
1E
100
AcDbEntity
  8
7
100
AcDbLine
 10
33.62499999999999
 20
27.02066929133858
 30
0.0
 11
33.64763779527558
 21
27.02066929133858
 31
0.0
  0
LWPOLYLINE
  5
17A7
330
1E
100
AcDbEntity
  8
7
100
AcDbPolyline
 90
        6
 70
     0
 43
0.0098425196850394
 10
33.69881889763779
 20
27.02952755905511
 10
33.71555118110235
 20
27.02066929133858
 10
33.75196850393701
 20
27.02066929133858
 10
33.76968503937007
 20
27.02952755905511
 10
33.76968503937007
 20
27.05708661417322
 10
33.75196850393701
 20
27.06594488188976
  0
LINE
  5
17AF
330
1E
100
AcDbEntity
  8
7
100
AcDbLine
 10
33.75196850393701
 20
27.06594488188976
 30
0.0
 11
33.72440944881889
 21
27.06594488188976
 31
0.0
  0
LWPOLYLINE
  5
17B0
330
1E
100
AcDbEntity
  8
7
100
AcDbPolyline
 90
        6
 70
     0
 43
0.0098425196850394
 10
33.75196850393701
 20
27.06594488188976
 10
33.76968503937007
 20
27.07480314960629
 10
33.76968503937007
 20
27.1013779527559
 10
33.75196850393701
 20
27.11023622047243
 10
33.71555118110235
 20
27.11023622047243
 10
33.69783464566928
 20
27.1013779527559
  0
LWPOLYLINE
  5
17B8
330
1E
100
AcDbEntity
  8
7
100
AcDbPolyline
 90
        5
 70
     0
 43
0.0098425196850394
 10
33.82283464566929
 20
27.02066929133858
 10
33.84055118110235
 20
27.02066929133858
 10
33.84055118110235
 20
27.03937007874015
 10
33.82283464566929
 20
27.03937007874015
 10
33.82283464566929
 20
27.02066929133858
  0
LINE
  5
17BF
330
1E
100
AcDbEntity
  8
7
100
AcDbLine
 10
33.89468503937007
 20
27.03937007874015
 30
0.0
 11
33.91141732283464
 21
27.02066929133858
 31
0.0
  0
LWPOLYLINE
  5
17C0
330
1E
100
AcDbEntity
  8
7
100
AcDbPolyline
 90
       11
 70
     0
 43
0.0098425196850394
 10
33.91141732283464
 20
27.02066929133858
 10
33.94783464566929
 20
27.02066929133858
 10
33.96555118110235
 20
27.03937007874015
 10
33.96555118110235
 20
27.09251968503936
 10
33.94783464566929
 20
27.11023622047243
 10
33.91141732283464
 20
27.11023622047243
 10
33.89468503937007
 20
27.09251968503936
 10
33.89370078740157
 20
27.07480314960629
 10
33.91141732283464
 20
27.05708661417322
 10
33.94783464566929
 20
27.05708661417322
 10
33.96555118110235
 20
27.07480314960629
  0
LWPOLYLINE
  5
17CD
330
1E
100
AcDbEntity
  8
7
100
AcDbPolyline
 90
        3
 70
     0
 43
0.0098425196850394
 10
34.01870078740157
 20
27.02066929133858
 10
34.06397637795275
 20
27.11023622047243
 10
33.99311023622046
 20
27.11023622047243
  0
LWPOLYLINE
  5
17D2
330
1E
100
AcDbEntity
  8
7
100
AcDbPolyline
 90
        7
 70
     0
 43
0.0098425196850394
 10
33.6003937007874
 20
26.81003937007873
 10
33.61712598425196
 20
26.8021653543307
 10
33.6535433070866
 20
26.8021653543307
 10
33.67125984251968
 20
26.81003937007873
 10
33.67125984251968
 20
26.83759842519684
 10
33.6535433070866
 20
26.84645669291338
 10
33.626968503937
 20
26.84645669291338
  0
LWPOLYLINE
  5
17DB
330
1E
100
AcDbEntity
  8
7
100
AcDbPolyline
 90
        6
 70
     0
 43
0.0098425196850394
 10
33.6535433070866
 20
26.84645669291338
 10
33.67125984251968
 20
26.85531496062992
 10
33.67125984251968
 20
26.88188976377952
 10
33.6535433070866
 20
26.89074803149606
 10
33.61712598425196
 20
26.89074803149606
 10
33.59940944881889
 20
26.88188976377952
  0
LWPOLYLINE
  5
17E3
330
1E
100
AcDbEntity
  8
7
100
AcDbPolyline
 90
       10
 70
     0
 43
0.0098425196850394
 10
33.69783464566928
 20
26.81003937007873
 10
33.71555118110235
 20
26.8021653543307
 10
33.75196850393701
 20
26.8021653543307
 10
33.76968503937007
 20
26.81003937007873
 10
33.76968503937007
 20
26.84547244094488
 10
33.75196850393701
 20
26.85531496062992
 10
33.71555118110235
 20
26.85531496062992
 10
33.69783464566928
 20
26.84645669291338
 10
33.69783464566928
 20
26.89074803149606
 10
33.76968503937007
 20
26.89074803149606
  0
LWPOLYLINE
  5
17EF
330
1E
100
AcDbEntity
  8
7
100
AcDbPolyline
 90
        4
 70
     0
 43
0.0098425196850394
 10
33.86811023622046
 20
26.83759842519684
 10
33.79625984251968
 20
26.83759842519684
 10
33.8503937007874
 20
26.89074803149606
 10
33.8503937007874
 20
26.8021653543307
  0
LINE
  5
17F5
330
1E
100
AcDbEntity
  8
7
100
AcDbLine
 10
33.92125984251968
 20
26.8021653543307
 30
0.0
 11
33.93897637795275
 21
26.8021653543307
 31
0.0
  0
LWPOLYLINE
  5
17F6
330
1E
100
AcDbEntity
  8
7
100
AcDbPolyline
 90
        4
 70
     0
 43
0.0098425196850394
 10
33.93897637795275
 20
26.8021653543307
 10
33.93897637795275
 20
26.81988188976378
 10
33.92125984251968
 20
26.81988188976378
 10
33.92125984251968
 20
26.8021653543307
  0
LWPOLYLINE
  5
17FC
330
1E
100
AcDbEntity
  8
7
100
AcDbPolyline
 90
       12
 70
     0
 43
0.0098425196850394
 10
34.00984251968504
 20
26.84645669291338
 10
33.99311023622046
 20
26.85531496062992
 10
33.99311023622046
 20
26.88188976377952
 10
34.00984251968504
 20
26.89074803149606
 10
34.04625984251968
 20
26.89074803149606
 10
34.06397637795275
 20
26.88188976377952
 10
34.06397637795275
 20
26.85531496062992
 10
34.04625984251968
 20
26.84645669291338
 10
34.00984251968504
 20
26.84645669291338
 10
33.99212598425196
 20
26.83759842519684
 10
33.99212598425196
 20
26.81102362204724
 10
34.00984251968504
 20
26.8021653543307
  0
LWPOLYLINE
  5
180A
330
1E
100
AcDbEntity
  8
7
100
AcDbPolyline
 90
        5
 70
     0
 43
0.0098425196850394
 10
34.00984251968504
 20
26.8021653543307
 10
34.04625984251968
 20
26.8021653543307
 10
34.06397637795275
 20
26.81003937007873
 10
34.06397637795275
 20
26.83759842519684
 10
34.04625984251968
 20
26.84645669291338
  0
LWPOLYLINE
  5
1811
330
1E
100
AcDbEntity
  8
3
100
AcDbPolyline
 90
        4
 70
     0
 43
0.0098425196850394
 10
33.83169291338582
 20
28.33366141732283
 10
33.80708661417322
 20
28.24311023622047
 10
33.85531496062991
 20
28.24311023622047
 10
33.83169291338582
 20
28.33366141732283
  0
LINE
  5
1817
330
1E
100
AcDbEntity
  8
3
100
AcDbLine
 10
33.80708661417322
 20
28.24311023622047
 30
0.0
 11
33.80708661417322
 21
28.24409448818897
 31
0.0
  0
LINE
  5
1818
330
1E
100
AcDbEntity
  8
3
100
AcDbLine
 10
33.80708661417322
 20
28.24311023622047
 30
0.0
 11
33.80708661417322
 21
28.24409448818897
 31
0.0
  0
LINE
  5
1819
330
1E
100
AcDbEntity
  8
3
100
AcDbLine
 10
33.81003937007873
 20
28.24311023622047
 30
0.0
 11
33.81003937007873
 21
28.251968503937
 31
0.0
  0
LINE
  5
181A
330
1E
100
AcDbEntity
  8
3
100
AcDbLine
 10
33.81200787401574
 20
28.24311023622047
 30
0.0
 11
33.81200787401574
 21
28.25885826771653
 31
0.0
  0
LINE
  5
181B
330
1E
100
AcDbEntity
  8
3
100
AcDbLine
 10
33.81397637795275
 20
28.24311023622047
 30
0.0
 11
33.81397637795275
 21
28.26673228346456
 31
0.0
  0
LINE
  5
181C
330
1E
100
AcDbEntity
  8
3
100
AcDbLine
 10
33.81594488188976
 20
28.24311023622047
 30
0.0
 11
33.81594488188976
 21
28.27362204724409
 31
0.0
  0
LINE
  5
181D
330
1E
100
AcDbEntity
  8
3
100
AcDbLine
 10
33.81791338582677
 20
28.24311023622047
 30
0.0
 11
33.81791338582677
 21
28.28149606299212
 31
0.0
  0
LINE
  5
181E
330
1E
100
AcDbEntity
  8
3
100
AcDbLine
 10
33.81988188976377
 20
28.24311023622047
 30
0.0
 11
33.81988188976377
 21
28.28838582677165
 31
0.0
  0
LINE
  5
181F
330
1E
100
AcDbEntity
  8
3
100
AcDbLine
 10
33.82185039370078
 20
28.24311023622047
 30
0.0
 11
33.82185039370078
 21
28.29625984251968
 31
0.0
  0
LINE
  5
1820
330
1E
100
AcDbEntity
  8
3
100
AcDbLine
 10
33.82381889763779
 20
28.24311023622047
 30
0.0
 11
33.82381889763779
 21
28.30413385826771
 31
0.0
  0
LINE
  5
1821
330
1E
100
AcDbEntity
  8
3
100
AcDbLine
 10
33.8257874015748
 20
28.24311023622047
 30
0.0
 11
33.8257874015748
 21
28.31102362204724
 31
0.0
  0
LINE
  5
1822
330
1E
100
AcDbEntity
  8
3
100
AcDbLine
 10
33.8277559055118
 20
28.24311023622047
 30
0.0
 11
33.8277559055118
 21
28.31889763779527
 31
0.0
  0
LINE
  5
1823
330
1E
100
AcDbEntity
  8
3
100
AcDbLine
 10
33.82972440944881
 20
28.24311023622047
 30
0.0
 11
33.82972440944881
 21
28.3257874015748
 31
0.0
  0
LINE
  5
1824
330
1E
100
AcDbEntity
  8
3
100
AcDbLine
 10
33.83169291338582
 20
28.24311023622047
 30
0.0
 11
33.83169291338582
 21
28.33366141732283
 31
0.0
  0
LINE
  5
1825
330
1E
100
AcDbEntity
  8
3
100
AcDbLine
 10
33.85531496062991
 20
28.24311023622047
 30
0.0
 11
33.85531496062991
 21
28.24409448818897
 31
0.0
  0
LINE
  5
1826
330
1E
100
AcDbEntity
  8
3
100
AcDbLine
 10
33.85531496062991
 20
28.24311023622047
 30
0.0
 11
33.85531496062991
 21
28.24409448818897
 31
0.0
  0
LINE
  5
1827
330
1E
100
AcDbEntity
  8
3
100
AcDbLine
 10
33.85334645669291
 20
28.24311023622047
 30
0.0
 11
33.85334645669291
 21
28.251968503937
 31
0.0
  0
LINE
  5
1828
330
1E
100
AcDbEntity
  8
3
100
AcDbLine
 10
33.8513779527559
 20
28.24311023622047
 30
0.0
 11
33.8513779527559
 21
28.25885826771653
 31
0.0
  0
LINE
  5
1829
330
1E
100
AcDbEntity
  8
3
100
AcDbLine
 10
33.84940944881889
 20
28.24311023622047
 30
0.0
 11
33.84940944881889
 21
28.26673228346456
 31
0.0
  0
LINE
  5
182A
330
1E
100
AcDbEntity
  8
3
100
AcDbLine
 10
33.84744094488189
 20
28.24311023622047
 30
0.0
 11
33.84744094488189
 21
28.27362204724409
 31
0.0
  0
LINE
  5
182B
330
1E
100
AcDbEntity
  8
3
100
AcDbLine
 10
33.84547244094488
 20
28.24311023622047
 30
0.0
 11
33.84547244094488
 21
28.28149606299212
 31
0.0
  0
LINE
  5
182C
330
1E
100
AcDbEntity
  8
3
100
AcDbLine
 10
33.84350393700787
 20
28.24311023622047
 30
0.0
 11
33.84350393700787
 21
28.28838582677165
 31
0.0
  0
LINE
  5
182D
330
1E
100
AcDbEntity
  8
3
100
AcDbLine
 10
33.84153543307085
 20
28.24311023622047
 30
0.0
 11
33.84153543307085
 21
28.29625984251968
 31
0.0
  0
LINE
  5
182E
330
1E
100
AcDbEntity
  8
3
100
AcDbLine
 10
33.83956692913385
 20
28.24311023622047
 30
0.0
 11
33.83956692913385
 21
28.30413385826771
 31
0.0
  0
LINE
  5
182F
330
1E
100
AcDbEntity
  8
3
100
AcDbLine
 10
33.83759842519684
 20
28.24311023622047
 30
0.0
 11
33.83759842519684
 21
28.31102362204724
 31
0.0
  0
LINE
  5
1830
330
1E
100
AcDbEntity
  8
3
100
AcDbLine
 10
33.83562992125983
 20
28.24311023622047
 30
0.0
 11
33.83562992125983
 21
28.31889763779527
 31
0.0
  0
LINE
  5
1831
330
1E
100
AcDbEntity
  8
3
100
AcDbLine
 10
33.83366141732283
 20
28.24311023622047
 30
0.0
 11
33.83366141732283
 21
28.3257874015748
 31
0.0
  0
LINE
  5
1832
330
1E
100
AcDbEntity
  8
3
100
AcDbLine
 10
33.83169291338582
 20
28.24311023622047
 30
0.0
 11
33.83169291338582
 21
28.33366141732283
 31
0.0
  0
LWPOLYLINE
  5
1833
330
1E
100
AcDbEntity
  8
3
100
AcDbPolyline
 90
        4
 70
     0
 43
0.0098425196850394
 10
33.83169291338582
 20
25.53937007874015
 10
33.85531496062991
 20
25.62992125984251
 10
33.80708661417322
 20
25.62992125984251
 10
33.83169291338582
 20
25.53937007874015
  0
LINE
  5
1839
330
1E
100
AcDbEntity
  8
3
100
AcDbLine
 10
33.85531496062991
 20
25.62992125984251
 30
0.0
 11
33.85531496062991
 21
25.62893700787401
 31
0.0
  0
LINE
  5
183A
330
1E
100
AcDbEntity
  8
3
100
AcDbLine
 10
33.85531496062991
 20
25.62992125984251
 30
0.0
 11
33.85531496062991
 21
25.62893700787401
 31
0.0
  0
LINE
  5
183B
330
1E
100
AcDbEntity
  8
3
100
AcDbLine
 10
33.85334645669291
 20
25.62992125984251
 30
0.0
 11
33.85334645669291
 21
25.62204724409448
 31
0.0
  0
LINE
  5
183C
330
1E
100
AcDbEntity
  8
3
100
AcDbLine
 10
33.8513779527559
 20
25.62992125984251
 30
0.0
 11
33.8513779527559
 21
25.61417322834645
 31
0.0
  0
LINE
  5
183D
330
1E
100
AcDbEntity
  8
3
100
AcDbLine
 10
33.84940944881889
 20
25.62992125984251
 30
0.0
 11
33.84940944881889
 21
25.60728346456692
 31
0.0
  0
LINE
  5
183E
330
1E
100
AcDbEntity
  8
3
100
AcDbLine
 10
33.84744094488189
 20
25.62992125984251
 30
0.0
 11
33.84744094488189
 21
25.59940944881889
 31
0.0
  0
LINE
  5
183F
330
1E
100
AcDbEntity
  8
3
100
AcDbLine
 10
33.84547244094488
 20
25.62992125984251
 30
0.0
 11
33.84547244094488
 21
25.59251968503936
 31
0.0
  0
LINE
  5
1840
330
1E
100
AcDbEntity
  8
3
100
AcDbLine
 10
33.84350393700787
 20
25.62992125984251
 30
0.0
 11
33.84350393700787
 21
25.58464566929133
 31
0.0
  0
LINE
  5
1841
330
1E
100
AcDbEntity
  8
3
100
AcDbLine
 10
33.84153543307085
 20
25.62992125984251
 30
0.0
 11
33.84153543307085
 21
25.5767716535433
 31
0.0
  0
LINE
  5
1842
330
1E
100
AcDbEntity
  8
3
100
AcDbLine
 10
33.83956692913385
 20
25.62992125984251
 30
0.0
 11
33.83956692913385
 21
25.56988188976378
 31
0.0
  0
LINE
  5
1843
330
1E
100
AcDbEntity
  8
3
100
AcDbLine
 10
33.83759842519684
 20
25.62992125984251
 30
0.0
 11
33.83759842519684
 21
25.56200787401574
 31
0.0
  0
LINE
  5
1844
330
1E
100
AcDbEntity
  8
3
100
AcDbLine
 10
33.83562992125983
 20
25.62992125984251
 30
0.0
 11
33.83562992125983
 21
25.55511811023622
 31
0.0
  0
LINE
  5
1845
330
1E
100
AcDbEntity
  8
3
100
AcDbLine
 10
33.83366141732283
 20
25.62992125984251
 30
0.0
 11
33.83366141732283
 21
25.54724409448818
 31
0.0
  0
LINE
  5
1846
330
1E
100
AcDbEntity
  8
3
100
AcDbLine
 10
33.83169291338582
 20
25.62992125984251
 30
0.0
 11
33.83169291338582
 21
25.53937007874015
 31
0.0
  0
LINE
  5
1847
330
1E
100
AcDbEntity
  8
3
100
AcDbLine
 10
33.80708661417322
 20
25.62992125984251
 30
0.0
 11
33.80708661417322
 21
25.62893700787401
 31
0.0
  0
LINE
  5
1848
330
1E
100
AcDbEntity
  8
3
100
AcDbLine
 10
33.80708661417322
 20
25.62992125984251
 30
0.0
 11
33.80708661417322
 21
25.62893700787401
 31
0.0
  0
LINE
  5
1849
330
1E
100
AcDbEntity
  8
3
100
AcDbLine
 10
33.81003937007873
 20
25.62992125984251
 30
0.0
 11
33.81003937007873
 21
25.62204724409448
 31
0.0
  0
LINE
  5
184A
330
1E
100
AcDbEntity
  8
3
100
AcDbLine
 10
33.81200787401574
 20
25.62992125984251
 30
0.0
 11
33.81200787401574
 21
25.61417322834645
 31
0.0
  0
LINE
  5
184B
330
1E
100
AcDbEntity
  8
3
100
AcDbLine
 10
33.81397637795275
 20
25.62992125984251
 30
0.0
 11
33.81397637795275
 21
25.60728346456692
 31
0.0
  0
LINE
  5
184C
330
1E
100
AcDbEntity
  8
3
100
AcDbLine
 10
33.81594488188976
 20
25.62992125984251
 30
0.0
 11
33.81594488188976
 21
25.59940944881889
 31
0.0
  0
LINE
  5
184D
330
1E
100
AcDbEntity
  8
3
100
AcDbLine
 10
33.81791338582677
 20
25.62992125984251
 30
0.0
 11
33.81791338582677
 21
25.59251968503936
 31
0.0
  0
LINE
  5
184E
330
1E
100
AcDbEntity
  8
3
100
AcDbLine
 10
33.81988188976377
 20
25.62992125984251
 30
0.0
 11
33.81988188976377
 21
25.58464566929133
 31
0.0
  0
LINE
  5
184F
330
1E
100
AcDbEntity
  8
3
100
AcDbLine
 10
33.82185039370078
 20
25.62992125984251
 30
0.0
 11
33.82185039370078
 21
25.5767716535433
 31
0.0
  0
LINE
  5
1850
330
1E
100
AcDbEntity
  8
3
100
AcDbLine
 10
33.82381889763779
 20
25.62992125984251
 30
0.0
 11
33.82381889763779
 21
25.56988188976378
 31
0.0
  0
LINE
  5
1851
330
1E
100
AcDbEntity
  8
3
100
AcDbLine
 10
33.8257874015748
 20
25.62992125984251
 30
0.0
 11
33.8257874015748
 21
25.56200787401574
 31
0.0
  0
LINE
  5
1852
330
1E
100
AcDbEntity
  8
3
100
AcDbLine
 10
33.8277559055118
 20
25.62992125984251
 30
0.0
 11
33.8277559055118
 21
25.55511811023622
 31
0.0
  0
LINE
  5
1853
330
1E
100
AcDbEntity
  8
3
100
AcDbLine
 10
33.82972440944881
 20
25.62992125984251
 30
0.0
 11
33.82972440944881
 21
25.54724409448818
 31
0.0
  0
LINE
  5
1854
330
1E
100
AcDbEntity
  8
3
100
AcDbLine
 10
33.83169291338582
 20
25.62992125984251
 30
0.0
 11
33.83169291338582
 21
25.53937007874015
 31
0.0
  0
LWPOLYLINE
  5
1855
330
1E
100
AcDbEntity
  8
7
100
AcDbPolyline
 90
        4
 70
     0
 43
0.0098425196850394
 10
36.61515748031495
 20
28.76377952755905
 10
36.56988188976377
 20
28.76377952755905
 10
36.56988188976377
 20
28.59448818897638
 10
36.61515748031495
 20
28.59448818897638
  0
LWPOLYLINE
  5
185B
330
1E
100
AcDbEntity
  8
7
100
AcDbPolyline
 90
        4
 70
     0
 43
0.0098425196850394
 10
37.08464566929133
 20
28.59448818897638
 10
37.12992125984252
 20
28.59448818897638
 10
37.12992125984252
 20
28.76377952755905
 10
37.08464566929133
 20
28.76377952755905
  0
LINE
  5
1861
330
1E
100
AcDbEntity
  8
3
100
AcDbLine
 10
34.94980314960629
 20
28.38385826771653
 30
0.0
 11
34.94980314960629
 21
29.02362204724409
 31
0.0
  0
LINE
  5
1862
330
1E
100
AcDbEntity
  8
3
100
AcDbLine
 10
38.75
 20
28.38385826771653
 30
0.0
 11
38.75
 21
29.02362204724409
 31
0.0
  0
LINE
  5
1863
330
1E
100
AcDbEntity
  8
3
100
AcDbLine
 10
34.94980314960629
 20
28.89862204724409
 30
0.0
 11
36.54625984251968
 21
28.89862204724409
 31
0.0
  0
LINE
  5
1864
330
1E
100
AcDbEntity
  8
3
100
AcDbLine
 10
38.75
 20
28.89862204724409
 30
0.0
 11
37.1525590551181
 21
28.89862204724409
 31
0.0
  0
LWPOLYLINE
  5
1865
330
1E
100
AcDbEntity
  8
7
100
AcDbPolyline
 90
        3
 70
     0
 43
0.0098425196850394
 10
36.64665354330708
 20
28.93503937007873
 10
36.65452755905511
 20
28.94291338582677
 10
36.65452755905511
 20
28.85334645669291
  0
LINE
  5
186A
330
1E
100
AcDbEntity
  8
7
100
AcDbLine
 10
36.64271653543306
 20
28.85334645669291
 30
0.0
 11
36.66535433070865
 21
28.85334645669291
 31
0.0
  0
LWPOLYLINE
  5
186B
330
1E
100
AcDbEntity
  8
7
100
AcDbPolyline
 90
       12
 70
     0
 43
0.0098425196850394
 10
36.71653543307086
 20
28.87106299212598
 10
36.73326771653543
 20
28.85334645669291
 10
36.76968503937007
 20
28.85334645669291
 10
36.78838582677165
 20
28.87106299212598
 10
36.78838582677165
 20
28.9251968503937
 10
36.76968503937007
 20
28.94291338582677
 10
36.73326771653543
 20
28.94291338582677
 10
36.71653543307086
 20
28.9251968503937
 10
36.71555118110235
 20
28.90649606299212
 10
36.73326771653543
 20
28.88877952755905
 10
36.76968503937007
 20
28.88877952755905
 10
36.78838582677165
 20
28.90649606299212
  0
LWPOLYLINE
  5
1879
330
1E
100
AcDbEntity
  8
7
100
AcDbPolyline
 90
        3
 70
     0
 43
0.0098425196850394
 10
36.84055118110235
 20
28.85334645669291
 10
36.85925196850393
 20
28.85334645669291
 10
36.85925196850393
 20
28.87106299212598
  0
LWPOLYLINE
  5
187E
330
1E
100
AcDbEntity
  8
7
100
AcDbPolyline
 90
        3
 70
     0
 43
0.0098425196850394
 10
36.85925196850393
 20
28.87106299212598
 10
36.84055118110235
 20
28.87106299212598
 10
36.84055118110235
 20
28.85334645669291
  0
LWPOLYLINE
  5
1883
330
1E
100
AcDbEntity
  8
7
100
AcDbPolyline
 90
       12
 70
     0
 43
0.0098425196850394
 10
36.95669291338582
 20
28.85334645669291
 10
36.97440944881889
 20
28.86318897637795
 10
36.98425196850393
 20
28.88877952755905
 10
36.98425196850393
 20
28.90649606299212
 10
36.97440944881889
 20
28.93405511811023
 10
36.95669291338582
 20
28.94291338582677
 10
36.93897637795275
 20
28.94291338582677
 10
36.92125984251968
 20
28.93405511811023
 10
36.91141732283464
 20
28.90649606299212
 10
36.91240157480315
 20
28.88877952755905
 10
36.92125984251968
 20
28.86318897637795
 10
36.93897637795275
 20
28.85334645669291
  0
LINE
  5
1891
330
1E
100
AcDbEntity
  8
7
100
AcDbLine
 10
36.93897637795275
 20
28.85334645669291
 30
0.0
 11
36.95669291338582
 21
28.85334645669291
 31
0.0
  0
LWPOLYLINE
  5
1892
330
1E
100
AcDbEntity
  8
7
100
AcDbPolyline
 90
       13
 70
     0
 43
0.0098425196850394
 10
37.05511811023621
 20
28.85334645669291
 10
37.07283464566929
 20
28.86318897637795
 10
37.08169291338582
 20
28.88877952755905
 10
37.08169291338582
 20
28.90649606299212
 10
37.07283464566929
 20
28.93405511811023
 10
37.05511811023621
 20
28.94291338582677
 10
37.03740157480314
 20
28.94291338582677
 10
37.01968503937007
 20
28.93405511811023
 10
37.00984251968503
 20
28.90649606299212
 10
37.01082677165354
 20
28.88877952755905
 10
37.01968503937007
 20
28.86318897637795
 10
37.03740157480314
 20
28.85334645669291
 10
37.05511811023621
 20
28.85334645669291
  0
LWPOLYLINE
  5
18A1
330
1E
100
AcDbEntity
  8
7
100
AcDbPolyline
 90
        4
 70
     0
 43
0.0098425196850394
 10
36.68996062992126
 20
28.67027559055117
 10
36.61909448818897
 20
28.67027559055117
 10
36.67224409448818
 20
28.72342519685039
 10
36.67224409448818
 20
28.63385826771653
  0
LWPOLYLINE
  5
18A7
330
1E
100
AcDbEntity
  8
7
100
AcDbPolyline
 90
       10
 70
     0
 43
0.0098425196850394
 10
36.73326771653543
 20
28.67913385826771
 10
36.71653543307086
 20
28.68799212598425
 10
36.71653543307086
 20
28.71456692913385
 10
36.73326771653543
 20
28.72342519685039
 10
36.76968503937007
 20
28.72342519685039
 10
36.78838582677165
 20
28.71456692913385
 10
36.78838582677165
 20
28.68799212598425
 10
36.76968503937007
 20
28.67913385826771
 10
36.73326771653543
 20
28.67913385826771
 10
36.71555118110235
 20
28.67027559055117
  0
LWPOLYLINE
  5
18B3
330
1E
100
AcDbEntity
  8
7
100
AcDbPolyline
 90
        7
 70
     0
 43
0.0098425196850394
 10
36.71555118110235
 20
28.67027559055117
 10
36.71555118110235
 20
28.64370078740157
 10
36.73326771653543
 20
28.63385826771653
 10
36.76968503937007
 20
28.63385826771653
 10
36.78838582677165
 20
28.64271653543307
 10
36.78838582677165
 20
28.67027559055117
 10
36.76968503937007
 20
28.67913385826771
  0
LWPOLYLINE
  5
18BC
330
1E
100
AcDbEntity
  8
7
100
AcDbPolyline
 90
        8
 70
     0
 43
0.0098425196850394
 10
36.81496062992126
 20
28.71456692913385
 10
36.83169291338582
 20
28.72342519685039
 10
36.86811023622047
 20
28.72342519685039
 10
36.88582677165354
 20
28.71456692913385
 10
36.88582677165354
 20
28.69685039370078
 10
36.81397637795275
 20
28.6515748031496
 10
36.81496062992126
 20
28.63385826771653
 10
36.88582677165354
 20
28.63385826771653
  0
LWPOLYLINE
  5
18C6
330
1E
100
AcDbEntity
  8
7
100
AcDbPolyline
 90
        5
 70
     0
 43
0.0098425196850394
 10
36.93897637795275
 20
28.63385826771653
 10
36.95669291338582
 20
28.63385826771653
 10
36.95669291338582
 20
28.6515748031496
 10
36.93897637795275
 20
28.6515748031496
 10
36.93897637795275
 20
28.63385826771653
  0
LWPOLYLINE
  5
18CD
330
1E
100
AcDbEntity
  8
7
100
AcDbPolyline
 90
       11
 70
     0
 43
0.0098425196850394
 10
37.01082677165354
 20
28.67027559055117
 10
37.0275590551181
 20
28.68799212598425
 10
37.06397637795275
 20
28.68799212598425
 10
37.08169291338582
 20
28.67027559055117
 10
37.08169291338582
 20
28.6515748031496
 10
37.06397637795275
 20
28.63385826771653
 10
37.0275590551181
 20
28.63385826771653
 10
37.01082677165354
 20
28.6515748031496
 10
37.01082677165354
 20
28.70570866141731
 10
37.0275590551181
 20
28.72342519685039
 10
37.06397637795275
 20
28.72342519685039
  0
LINE
  5
18DA
330
1E
100
AcDbEntity
  8
7
100
AcDbLine
 10
37.06397637795275
 20
28.72342519685039
 30
0.0
 11
37.08169291338582
 21
28.70570866141731
 31
0.0
  0
LWPOLYLINE
  5
18DB
330
1E
100
AcDbEntity
  8
3
100
AcDbPolyline
 90
        4
 70
     0
 43
0.0098425196850394
 10
34.94980314960629
 20
28.89862204724409
 10
35.03937007874015
 20
28.87401574803149
 10
35.03937007874015
 20
28.92224409448818
 10
34.94980314960629
 20
28.89862204724409
  0
LINE
  5
18E1
330
1E
100
AcDbEntity
  8
3
100
AcDbLine
 10
35.03937007874015
 20
28.876968503937
 30
0.0
 11
35.03149606299212
 21
28.876968503937
 31
0.0
  0
LINE
  5
18E2
330
1E
100
AcDbEntity
  8
3
100
AcDbLine
 10
35.03937007874015
 20
28.87893700787401
 30
0.0
 11
35.02460629921259
 21
28.87893700787401
 31
0.0
  0
LINE
  5
18E3
330
1E
100
AcDbEntity
  8
3
100
AcDbLine
 10
35.03937007874015
 20
28.88090551181102
 30
0.0
 11
35.01673228346456
 21
28.88090551181102
 31
0.0
  0
LINE
  5
18E4
330
1E
100
AcDbEntity
  8
3
100
AcDbLine
 10
35.03937007874015
 20
28.88287401574803
 30
0.0
 11
35.00984251968503
 21
28.88287401574803
 31
0.0
  0
LINE
  5
18E5
330
1E
100
AcDbEntity
  8
3
100
AcDbLine
 10
35.03937007874015
 20
28.88484251968503
 30
0.0
 11
35.00196850393701
 21
28.88484251968503
 31
0.0
  0
LINE
  5
18E6
330
1E
100
AcDbEntity
  8
3
100
AcDbLine
 10
35.03937007874015
 20
28.88681102362204
 30
0.0
 11
34.99409448818897
 21
28.88681102362204
 31
0.0
  0
LINE
  5
18E7
330
1E
100
AcDbEntity
  8
3
100
AcDbLine
 10
35.03937007874015
 20
28.88877952755905
 30
0.0
 11
34.98720472440944
 21
28.88877952755905
 31
0.0
  0
LINE
  5
18E8
330
1E
100
AcDbEntity
  8
3
100
AcDbLine
 10
35.03937007874015
 20
28.89074803149606
 30
0.0
 11
34.97933070866141
 21
28.89074803149606
 31
0.0
  0
LINE
  5
18E9
330
1E
100
AcDbEntity
  8
3
100
AcDbLine
 10
35.03937007874015
 20
28.89271653543307
 30
0.0
 11
34.97244094488189
 21
28.89271653543307
 31
0.0
  0
LINE
  5
18EA
330
1E
100
AcDbEntity
  8
3
100
AcDbLine
 10
35.03937007874015
 20
28.89468503937008
 30
0.0
 11
34.96456692913385
 21
28.89468503937008
 31
0.0
  0
LINE
  5
18EB
330
1E
100
AcDbEntity
  8
3
100
AcDbLine
 10
35.03937007874015
 20
28.89665354330708
 30
0.0
 11
34.95767716535432
 21
28.89665354330708
 31
0.0
  0
LINE
  5
18EC
330
1E
100
AcDbEntity
  8
3
100
AcDbLine
 10
35.03937007874015
 20
28.89862204724409
 30
0.0
 11
34.94980314960629
 21
28.89862204724409
 31
0.0
  0
LINE
  5
18ED
330
1E
100
AcDbEntity
  8
3
100
AcDbLine
 10
35.03937007874015
 20
28.92027559055117
 30
0.0
 11
35.03149606299212
 21
28.92027559055117
 31
0.0
  0
LINE
  5
18EE
330
1E
100
AcDbEntity
  8
3
100
AcDbLine
 10
35.03937007874015
 20
28.91830708661417
 30
0.0
 11
35.02460629921259
 21
28.91830708661417
 31
0.0
  0
LINE
  5
18EF
330
1E
100
AcDbEntity
  8
3
100
AcDbLine
 10
35.03937007874015
 20
28.91633858267716
 30
0.0
 11
35.01673228346456
 21
28.91633858267716
 31
0.0
  0
LINE
  5
18F0
330
1E
100
AcDbEntity
  8
3
100
AcDbLine
 10
35.03937007874015
 20
28.91437007874015
 30
0.0
 11
35.00984251968503
 21
28.91437007874015
 31
0.0
  0
LINE
  5
18F1
330
1E
100
AcDbEntity
  8
3
100
AcDbLine
 10
35.03937007874015
 20
28.91240157480314
 30
0.0
 11
35.00196850393701
 21
28.91240157480314
 31
0.0
  0
LINE
  5
18F2
330
1E
100
AcDbEntity
  8
3
100
AcDbLine
 10
35.03937007874015
 20
28.91043307086614
 30
0.0
 11
34.99409448818897
 21
28.91043307086614
 31
0.0
  0
LINE
  5
18F3
330
1E
100
AcDbEntity
  8
3
100
AcDbLine
 10
35.03937007874015
 20
28.90846456692913
 30
0.0
 11
34.98720472440944
 21
28.90846456692913
 31
0.0
  0
LINE
  5
18F4
330
1E
100
AcDbEntity
  8
3
100
AcDbLine
 10
35.03937007874015
 20
28.90649606299212
 30
0.0
 11
34.97933070866141
 21
28.90649606299212
 31
0.0
  0
LINE
  5
18F5
330
1E
100
AcDbEntity
  8
3
100
AcDbLine
 10
35.03937007874015
 20
28.90452755905511
 30
0.0
 11
34.97244094488189
 21
28.90452755905511
 31
0.0
  0
LINE
  5
18F6
330
1E
100
AcDbEntity
  8
3
100
AcDbLine
 10
35.03937007874015
 20
28.90255905511811
 30
0.0
 11
34.96456692913385
 21
28.90255905511811
 31
0.0
  0
LINE
  5
18F7
330
1E
100
AcDbEntity
  8
3
100
AcDbLine
 10
35.03937007874015
 20
28.9005905511811
 30
0.0
 11
34.95767716535432
 21
28.9005905511811
 31
0.0
  0
LINE
  5
18F8
330
1E
100
AcDbEntity
  8
3
100
AcDbLine
 10
35.03937007874015
 20
28.89862204724409
 30
0.0
 11
34.94980314960629
 21
28.89862204724409
 31
0.0
  0
LWPOLYLINE
  5
18F9
330
1E
100
AcDbEntity
  8
3
100
AcDbPolyline
 90
        4
 70
     0
 43
0.0098425196850394
 10
38.75
 20
28.89862204724409
 10
38.65944881889763
 20
28.92224409448818
 10
38.65944881889763
 20
28.87401574803149
 10
38.75
 20
28.89862204724409
  0
LINE
  5
18FF
330
1E
100
AcDbEntity
  8
3
100
AcDbLine
 10
38.65944881889763
 20
28.92224409448818
 30
0.0
 11
38.66043307086614
 21
28.92224409448818
 31
0.0
  0
LINE
  5
1900
330
1E
100
AcDbEntity
  8
3
100
AcDbLine
 10
38.65944881889763
 20
28.92224409448818
 30
0.0
 11
38.66043307086614
 21
28.92224409448818
 31
0.0
  0
LINE
  5
1901
330
1E
100
AcDbEntity
  8
3
100
AcDbLine
 10
38.65944881889763
 20
28.92027559055117
 30
0.0
 11
38.66732283464566
 21
28.92027559055117
 31
0.0
  0
LINE
  5
1902
330
1E
100
AcDbEntity
  8
3
100
AcDbLine
 10
38.65944881889763
 20
28.91830708661417
 30
0.0
 11
38.67519685039369
 21
28.91830708661417
 31
0.0
  0
LINE
  5
1903
330
1E
100
AcDbEntity
  8
3
100
AcDbLine
 10
38.65944881889763
 20
28.91633858267716
 30
0.0
 11
38.68208661417322
 21
28.91633858267716
 31
0.0
  0
LINE
  5
1904
330
1E
100
AcDbEntity
  8
3
100
AcDbLine
 10
38.65944881889763
 20
28.91437007874015
 30
0.0
 11
38.68996062992126
 21
28.91437007874015
 31
0.0
  0
LINE
  5
1905
330
1E
100
AcDbEntity
  8
3
100
AcDbLine
 10
38.65944881889763
 20
28.91240157480314
 30
0.0
 11
38.69783464566928
 21
28.91240157480314
 31
0.0
  0
LINE
  5
1906
330
1E
100
AcDbEntity
  8
3
100
AcDbLine
 10
38.65944881889763
 20
28.91043307086614
 30
0.0
 11
38.70472440944881
 21
28.91043307086614
 31
0.0
  0
LINE
  5
1907
330
1E
100
AcDbEntity
  8
3
100
AcDbLine
 10
38.65944881889763
 20
28.90846456692913
 30
0.0
 11
38.71259842519684
 21
28.90846456692913
 31
0.0
  0
LINE
  5
1908
330
1E
100
AcDbEntity
  8
3
100
AcDbLine
 10
38.65944881889763
 20
28.90649606299212
 30
0.0
 11
38.71948818897637
 21
28.90649606299212
 31
0.0
  0
LINE
  5
1909
330
1E
100
AcDbEntity
  8
3
100
AcDbLine
 10
38.65944881889763
 20
28.90452755905511
 30
0.0
 11
38.7273622047244
 21
28.90452755905511
 31
0.0
  0
LINE
  5
190A
330
1E
100
AcDbEntity
  8
3
100
AcDbLine
 10
38.65944881889763
 20
28.90255905511811
 30
0.0
 11
38.73523622047244
 21
28.90255905511811
 31
0.0
  0
LINE
  5
190B
330
1E
100
AcDbEntity
  8
3
100
AcDbLine
 10
38.65944881889763
 20
28.9005905511811
 30
0.0
 11
38.74212598425196
 21
28.9005905511811
 31
0.0
  0
LINE
  5
190C
330
1E
100
AcDbEntity
  8
3
100
AcDbLine
 10
38.65944881889763
 20
28.89862204724409
 30
0.0
 11
38.75
 21
28.89862204724409
 31
0.0
  0
LINE
  5
190D
330
1E
100
AcDbEntity
  8
3
100
AcDbLine
 10
38.65944881889763
 20
28.875
 30
0.0
 11
38.66043307086614
 21
28.875
 31
0.0
  0
LINE
  5
190E
330
1E
100
AcDbEntity
  8
3
100
AcDbLine
 10
38.65944881889763
 20
28.875
 30
0.0
 11
38.66043307086614
 21
28.875
 31
0.0
  0
LINE
  5
190F
330
1E
100
AcDbEntity
  8
3
100
AcDbLine
 10
38.65944881889763
 20
28.876968503937
 30
0.0
 11
38.66732283464566
 21
28.876968503937
 31
0.0
  0
LINE
  5
1910
330
1E
100
AcDbEntity
  8
3
100
AcDbLine
 10
38.65944881889763
 20
28.87893700787401
 30
0.0
 11
38.67519685039369
 21
28.87893700787401
 31
0.0
  0
LINE
  5
1911
330
1E
100
AcDbEntity
  8
3
100
AcDbLine
 10
38.65944881889763
 20
28.88090551181102
 30
0.0
 11
38.68208661417322
 21
28.88090551181102
 31
0.0
  0
LINE
  5
1912
330
1E
100
AcDbEntity
  8
3
100
AcDbLine
 10
38.65944881889763
 20
28.88287401574803
 30
0.0
 11
38.68996062992126
 21
28.88287401574803
 31
0.0
  0
LINE
  5
1913
330
1E
100
AcDbEntity
  8
3
100
AcDbLine
 10
38.65944881889763
 20
28.88484251968503
 30
0.0
 11
38.69783464566928
 21
28.88484251968503
 31
0.0
  0
LINE
  5
1914
330
1E
100
AcDbEntity
  8
3
100
AcDbLine
 10
38.65944881889763
 20
28.88681102362204
 30
0.0
 11
38.70472440944881
 21
28.88681102362204
 31
0.0
  0
LINE
  5
1915
330
1E
100
AcDbEntity
  8
3
100
AcDbLine
 10
38.65944881889763
 20
28.88877952755905
 30
0.0
 11
38.71259842519684
 21
28.88877952755905
 31
0.0
  0
LINE
  5
1916
330
1E
100
AcDbEntity
  8
3
100
AcDbLine
 10
38.65944881889763
 20
28.89074803149606
 30
0.0
 11
38.71948818897637
 21
28.89074803149606
 31
0.0
  0
LINE
  5
1917
330
1E
100
AcDbEntity
  8
3
100
AcDbLine
 10
38.65944881889763
 20
28.89271653543307
 30
0.0
 11
38.7273622047244
 21
28.89271653543307
 31
0.0
  0
LINE
  5
1918
330
1E
100
AcDbEntity
  8
3
100
AcDbLine
 10
38.65944881889763
 20
28.89468503937008
 30
0.0
 11
38.73523622047244
 21
28.89468503937008
 31
0.0
  0
LINE
  5
1919
330
1E
100
AcDbEntity
  8
3
100
AcDbLine
 10
38.65944881889763
 20
28.89665354330708
 30
0.0
 11
38.74212598425196
 21
28.89665354330708
 31
0.0
  0
LINE
  5
191A
330
1E
100
AcDbEntity
  8
3
100
AcDbLine
 10
38.65944881889763
 20
28.89862204724409
 30
0.0
 11
38.75
 21
28.89862204724409
 31
0.0
  0
LWPOLYLINE
  5
191B
330
1E
100
AcDbEntity
  8
7
100
AcDbPolyline
 90
        4
 70
     0
 43
0.0098425196850394
 10
36.62106299212597
 20
24.84153543307086
 10
36.5757874015748
 20
24.84153543307086
 10
36.5757874015748
 20
24.67322834645669
 10
36.62106299212597
 20
24.67322834645669
  0
LWPOLYLINE
  5
1921
330
1E
100
AcDbEntity
  8
7
100
AcDbPolyline
 90
        4
 70
     0
 43
0.0098425196850394
 10
37.09153543307086
 20
24.67322834645669
 10
37.13582677165354
 20
24.67322834645669
 10
37.13582677165354
 20
24.84153543307086
 10
37.09153543307086
 20
24.84153543307086
  0
LINE
  5
1927
330
1E
100
AcDbEntity
  8
3
100
AcDbLine
 10
35.01673228346456
 20
25.74606299212598
 30
0.0
 11
35.01673228346456
 21
24.8523622047244
 31
0.0
  0
LINE
  5
1928
330
1E
100
AcDbEntity
  8
3
100
AcDbLine
 10
38.69488188976378
 20
25.77460629921259
 30
0.0
 11
38.69488188976378
 21
24.8523622047244
 31
0.0
  0
LINE
  5
1929
330
1E
100
AcDbEntity
  8
3
100
AcDbLine
 10
35.01673228346456
 20
24.9773622047244
 30
0.0
 11
36.55314960629921
 21
24.9773622047244
 31
0.0
  0
LINE
  5
192A
330
1E
100
AcDbEntity
  8
3
100
AcDbLine
 10
38.69488188976378
 20
24.9773622047244
 30
0.0
 11
37.15944881889763
 21
24.9773622047244
 31
0.0
  0
LWPOLYLINE
  5
192B
330
1E
100
AcDbEntity
  8
7
100
AcDbPolyline
 90
        3
 70
     0
 43
0.0098425196850394
 10
36.65354330708661
 20
25.01377952755905
 10
36.66043307086614
 20
25.02066929133858
 10
36.66043307086614
 20
24.93208661417322
  0
LINE
  5
1930
330
1E
100
AcDbEntity
  8
7
100
AcDbLine
 10
36.64960629921259
 20
24.93208661417322
 30
0.0
 11
36.67224409448818
 21
24.93208661417322
 31
0.0
  0
LWPOLYLINE
  5
1931
330
1E
100
AcDbEntity
  8
7
100
AcDbPolyline
 90
       11
 70
     0
 43
0.0098425196850394
 10
36.74015748031495
 20
24.9773622047244
 10
36.72342519685039
 20
24.98523622047243
 10
36.72342519685039
 20
25.01279527559054
 10
36.74015748031495
 20
25.02066929133858
 10
36.7765748031496
 20
25.02066929133858
 10
36.79429133858267
 20
25.01279527559054
 10
36.79429133858267
 20
24.98523622047243
 10
36.7765748031496
 20
24.9773622047244
 10
36.74015748031495
 20
24.9773622047244
 10
36.72244094488188
 20
24.96751968503936
 10
36.72244094488188
 20
24.94094488188976
  0
LWPOLYLINE
  5
193E
330
1E
100
AcDbEntity
  8
7
100
AcDbPolyline
 90
        6
 70
     0
 43
0.0098425196850394
 10
36.72244094488188
 20
24.94094488188976
 10
36.74015748031495
 20
24.93208661417322
 10
36.7765748031496
 20
24.93208661417322
 10
36.79429133858267
 20
24.93996062992126
 10
36.79429133858267
 20
24.96751968503936
 10
36.7765748031496
 20
24.9773622047244
  0
LWPOLYLINE
  5
1946
330
1E
100
AcDbEntity
  8
7
100
AcDbPolyline
 90
        5
 70
     0
 43
0.0098425196850394
 10
36.84744094488189
 20
24.93208661417322
 10
36.86515748031495
 20
24.93208661417322
 10
36.86515748031495
 20
24.94980314960629
 10
36.84744094488189
 20
24.94980314960629
 10
36.84744094488189
 20
24.93208661417322
  0
LWPOLYLINE
  5
194D
330
1E
100
AcDbEntity
  8
7
100
AcDbPolyline
 90
        5
 70
     0
 43
0.0098425196850394
 10
36.91929133858267
 20
24.93996062992126
 10
36.93602362204723
 20
24.93208661417322
 10
36.97244094488189
 20
24.93208661417322
 10
36.99015748031495
 20
24.93996062992126
 10
36.99015748031495
 20
24.96751968503936
  0
LWPOLYLINE
  5
1954
330
1E
100
AcDbEntity
  8
7
100
AcDbPolyline
 90
        3
 70
     0
 43
0.0098425196850394
 10
36.99015748031495
 20
24.96751968503936
 10
36.97244094488189
 20
24.9773622047244
 10
36.94488188976377
 20
24.9773622047244
  0
LWPOLYLINE
  5
1959
330
1E
100
AcDbEntity
  8
7
100
AcDbPolyline
 90
        6
 70
     0
 43
0.0098425196850394
 10
36.97244094488189
 20
24.9773622047244
 10
36.99015748031495
 20
24.98523622047243
 10
36.99015748031495
 20
25.01279527559054
 10
36.97244094488189
 20
25.02066929133858
 10
36.93602362204723
 20
25.02066929133858
 10
36.91830708661417
 20
25.01279527559054
  0
LWPOLYLINE
  5
1961
330
1E
100
AcDbEntity
  8
7
100
AcDbPolyline
 90
        6
 70
     0
 43
0.0098425196850394
 10
37.01673228346456
 20
24.94980314960629
 10
37.03444881889764
 20
24.93208661417322
 10
37.07086614173228
 20
24.93208661417322
 10
37.08858267716534
 20
24.94980314960629
 10
37.08858267716534
 20
25.00295275590551
 10
37.07086614173228
 20
25.02066929133858
  0
LWPOLYLINE
  5
1969
330
1E
100
AcDbEntity
  8
7
100
AcDbPolyline
 90
        7
 70
     0
 43
0.0098425196850394
 10
37.07086614173228
 20
25.02066929133858
 10
37.03444881889764
 20
25.02066929133858
 10
37.01673228346456
 20
25.00295275590551
 10
37.01673228346456
 20
24.98523622047243
 10
37.03444881889764
 20
24.96751968503936
 10
37.07086614173228
 20
24.96751968503936
 10
37.08858267716534
 20
24.98523622047243
  0
LWPOLYLINE
  5
1972
330
1E
100
AcDbEntity
  8
7
100
AcDbPolyline
 90
        4
 70
     0
 43
0.0098425196850394
 10
36.69586614173228
 20
24.74803149606298
 10
36.625
 20
24.74803149606298
 10
36.6781496062992
 20
24.8011811023622
 10
36.6781496062992
 20
24.71259842519685
  0
LWPOLYLINE
  5
1978
330
1E
100
AcDbEntity
  8
7
100
AcDbPolyline
 90
        3
 70
     0
 43
0.0098425196850394
 10
36.72342519685039
 20
24.74803149606298
 10
36.74015748031495
 20
24.76574803149606
 10
36.7765748031496
 20
24.76574803149606
  0
LWPOLYLINE
  5
197D
330
1E
100
AcDbEntity
  8
7
100
AcDbPolyline
 90
       10
 70
     0
 43
0.0098425196850394
 10
36.7765748031496
 20
24.76574803149606
 10
36.79429133858267
 20
24.74803149606298
 10
36.79429133858267
 20
24.73031496062992
 10
36.7765748031496
 20
24.71259842519685
 10
36.74015748031495
 20
24.71259842519685
 10
36.72342519685039
 20
24.73031496062992
 10
36.72342519685039
 20
24.78346456692913
 10
36.74015748031495
 20
24.8011811023622
 10
36.7765748031496
 20
24.8011811023622
 10
36.79429133858267
 20
24.78346456692913
  0
LWPOLYLINE
  5
1989
330
1E
100
AcDbEntity
  8
7
100
AcDbPolyline
 90
        3
 70
     0
 43
0.0098425196850394
 10
36.84744094488189
 20
24.71259842519685
 10
36.89271653543306
 20
24.8011811023622
 10
36.82086614173228
 20
24.8011811023622
  0
LWPOLYLINE
  5
198E
330
1E
100
AcDbEntity
  8
7
100
AcDbPolyline
 90
        5
 70
     0
 43
0.0098425196850394
 10
36.94488188976377
 20
24.71259842519685
 10
36.96358267716535
 20
24.71259842519685
 10
36.96358267716535
 20
24.73031496062992
 10
36.94488188976377
 20
24.73031496062992
 10
36.94488188976377
 20
24.71259842519685
  0
LWPOLYLINE
  5
1995
330
1E
100
AcDbEntity
  8
7
100
AcDbPolyline
 90
        3
 70
     0
 43
0.0098425196850394
 10
37.04527559055117
 20
24.79429133858267
 10
37.0531496062992
 20
24.8011811023622
 10
37.0531496062992
 20
24.71259842519685
  0
LINE
  5
199A
330
1E
100
AcDbEntity
  8
7
100
AcDbLine
 10
37.04133858267716
 20
24.71259842519685
 30
0.0
 11
37.06397637795275
 21
24.71259842519685
 31
0.0
  0
LWPOLYLINE
  5
199B
330
1E
100
AcDbEntity
  8
3
100
AcDbPolyline
 90
        3
 70
     0
 43
0.0098425196850394
 10
35.01673228346456
 20
24.9773622047244
 10
35.10728346456692
 20
24.9527559055118
 10
35.10728346456692
 20
25.0009842519685
  0
LINE
  5
19A0
330
1E
100
AcDbEntity
  8
3
100
AcDbLine
 10
35.10728346456692
 20
25.0009842519685
 30
0.0
 11
35.01673228346456
 21
24.9773622047244
 31
0.0
  0
LINE
  5
19A1
330
1E
100
AcDbEntity
  8
3
100
AcDbLine
 10
35.10728346456692
 20
24.9527559055118
 30
0.0
 11
35.10629921259842
 21
24.9527559055118
 31
0.0
  0
LINE
  5
19A2
330
1E
100
AcDbEntity
  8
3
100
AcDbLine
 10
35.10728346456692
 20
24.9527559055118
 30
0.0
 11
35.10629921259842
 21
24.9527559055118
 31
0.0
  0
LINE
  5
19A3
330
1E
100
AcDbEntity
  8
3
100
AcDbLine
 10
35.10728346456692
 20
24.95472440944881
 30
0.0
 11
35.09940944881889
 21
24.95472440944881
 31
0.0
  0
LINE
  5
19A4
330
1E
100
AcDbEntity
  8
3
100
AcDbLine
 10
35.10728346456692
 20
24.95669291338582
 30
0.0
 11
35.09153543307085
 21
24.95669291338582
 31
0.0
  0
LINE
  5
19A5
330
1E
100
AcDbEntity
  8
3
100
AcDbLine
 10
35.10728346456692
 20
24.95866141732283
 30
0.0
 11
35.08464566929133
 21
24.95866141732283
 31
0.0
  0
LINE
  5
19A6
330
1E
100
AcDbEntity
  8
3
100
AcDbLine
 10
35.10728346456692
 20
24.96062992125984
 30
0.0
 11
35.0767716535433
 21
24.96062992125984
 31
0.0
  0
LINE
  5
19A7
330
1E
100
AcDbEntity
  8
3
100
AcDbLine
 10
35.10728346456692
 20
24.96259842519684
 30
0.0
 11
35.06889763779527
 21
24.96259842519684
 31
0.0
  0
LINE
  5
19A8
330
1E
100
AcDbEntity
  8
3
100
AcDbLine
 10
35.10728346456692
 20
24.96456692913385
 30
0.0
 11
35.06200787401574
 21
24.96456692913385
 31
0.0
  0
LINE
  5
19A9
330
1E
100
AcDbEntity
  8
3
100
AcDbLine
 10
35.10728346456692
 20
24.96653543307086
 30
0.0
 11
35.05413385826771
 21
24.96653543307086
 31
0.0
  0
LINE
  5
19AA
330
1E
100
AcDbEntity
  8
3
100
AcDbLine
 10
35.10728346456692
 20
24.96850393700787
 30
0.0
 11
35.04724409448818
 21
24.96850393700787
 31
0.0
  0
LINE
  5
19AB
330
1E
100
AcDbEntity
  8
3
100
AcDbLine
 10
35.10728346456692
 20
24.97047244094488
 30
0.0
 11
35.03937007874015
 21
24.97047244094488
 31
0.0
  0
LINE
  5
19AC
330
1E
100
AcDbEntity
  8
3
100
AcDbLine
 10
35.10728346456692
 20
24.97342519685039
 30
0.0
 11
35.03248031496063
 21
24.97342519685039
 31
0.0
  0
LINE
  5
19AD
330
1E
100
AcDbEntity
  8
3
100
AcDbLine
 10
35.10728346456692
 20
24.9753937007874
 30
0.0
 11
35.02460629921259
 21
24.9753937007874
 31
0.0
  0
LINE
  5
19AE
330
1E
100
AcDbEntity
  8
3
100
AcDbLine
 10
35.10728346456692
 20
24.9773622047244
 30
0.0
 11
35.01673228346456
 21
24.9773622047244
 31
0.0
  0
LINE
  5
19AF
330
1E
100
AcDbEntity
  8
3
100
AcDbLine
 10
35.10728346456692
 20
25.0009842519685
 30
0.0
 11
35.10629921259842
 21
25.0009842519685
 31
0.0
  0
LINE
  5
19B0
330
1E
100
AcDbEntity
  8
3
100
AcDbLine
 10
35.10728346456692
 20
25.0009842519685
 30
0.0
 11
35.10629921259842
 21
25.0009842519685
 31
0.0
  0
LINE
  5
19B1
330
1E
100
AcDbEntity
  8
3
100
AcDbLine
 10
35.10728346456692
 20
24.99901574803149
 30
0.0
 11
35.09940944881889
 21
24.99901574803149
 31
0.0
  0
LINE
  5
19B2
330
1E
100
AcDbEntity
  8
3
100
AcDbLine
 10
35.10728346456692
 20
24.99704724409448
 30
0.0
 11
35.09153543307085
 21
24.99704724409448
 31
0.0
  0
LINE
  5
19B3
330
1E
100
AcDbEntity
  8
3
100
AcDbLine
 10
35.10728346456692
 20
24.99507874015748
 30
0.0
 11
35.08464566929133
 21
24.99507874015748
 31
0.0
  0
LINE
  5
19B4
330
1E
100
AcDbEntity
  8
3
100
AcDbLine
 10
35.10728346456692
 20
24.99311023622047
 30
0.0
 11
35.0767716535433
 21
24.99311023622047
 31
0.0
  0
LINE
  5
19B5
330
1E
100
AcDbEntity
  8
3
100
AcDbLine
 10
35.10728346456692
 20
24.99114173228346
 30
0.0
 11
35.06889763779527
 21
24.99114173228346
 31
0.0
  0
LINE
  5
19B6
330
1E
100
AcDbEntity
  8
3
100
AcDbLine
 10
35.10728346456692
 20
24.98917322834645
 30
0.0
 11
35.06200787401574
 21
24.98917322834645
 31
0.0
  0
LINE
  5
19B7
330
1E
100
AcDbEntity
  8
3
100
AcDbLine
 10
35.10728346456692
 20
24.98720472440945
 30
0.0
 11
35.05413385826771
 21
24.98720472440945
 31
0.0
  0
LINE
  5
19B8
330
1E
100
AcDbEntity
  8
3
100
AcDbLine
 10
35.10728346456692
 20
24.98523622047243
 30
0.0
 11
35.04724409448818
 21
24.98523622047243
 31
0.0
  0
LINE
  5
19B9
330
1E
100
AcDbEntity
  8
3
100
AcDbLine
 10
35.10728346456692
 20
24.98326771653543
 30
0.0
 11
35.03937007874015
 21
24.98326771653543
 31
0.0
  0
LINE
  5
19BA
330
1E
100
AcDbEntity
  8
3
100
AcDbLine
 10
35.10728346456692
 20
24.98129921259842
 30
0.0
 11
35.03248031496063
 21
24.98129921259842
 31
0.0
  0
LINE
  5
19BB
330
1E
100
AcDbEntity
  8
3
100
AcDbLine
 10
35.10728346456692
 20
24.97933070866141
 30
0.0
 11
35.02460629921259
 21
24.97933070866141
 31
0.0
  0
LINE
  5
19BC
330
1E
100
AcDbEntity
  8
3
100
AcDbLine
 10
35.10728346456692
 20
24.9773622047244
 30
0.0
 11
35.01673228346456
 21
24.9773622047244
 31
0.0
  0
LWPOLYLINE
  5
19BD
330
1E
100
AcDbEntity
  8
3
100
AcDbPolyline
 90
        4
 70
     0
 43
0.0098425196850394
 10
38.69488188976378
 20
24.9773622047244
 10
38.60531496062991
 20
25.0009842519685
 10
38.60531496062991
 20
24.9527559055118
 10
38.69488188976378
 20
24.9773622047244
  0
LINE
  5
19C3
330
1E
100
AcDbEntity
  8
3
100
AcDbLine
 10
38.60531496062991
 20
24.99901574803149
 30
0.0
 11
38.61318897637795
 21
24.99901574803149
 31
0.0
  0
LINE
  5
19C4
330
1E
100
AcDbEntity
  8
3
100
AcDbLine
 10
38.60531496062991
 20
24.99704724409448
 30
0.0
 11
38.62007874015747
 21
24.99704724409448
 31
0.0
  0
LINE
  5
19C5
330
1E
100
AcDbEntity
  8
3
100
AcDbLine
 10
38.60531496062991
 20
24.99507874015748
 30
0.0
 11
38.62795275590551
 21
24.99507874015748
 31
0.0
  0
LINE
  5
19C6
330
1E
100
AcDbEntity
  8
3
100
AcDbLine
 10
38.60531496062991
 20
24.99311023622047
 30
0.0
 11
38.63484251968504
 21
24.99311023622047
 31
0.0
  0
LINE
  5
19C7
330
1E
100
AcDbEntity
  8
3
100
AcDbLine
 10
38.60531496062991
 20
24.99114173228346
 30
0.0
 11
38.64271653543307
 21
24.99114173228346
 31
0.0
  0
LINE
  5
19C8
330
1E
100
AcDbEntity
  8
3
100
AcDbLine
 10
38.60531496062991
 20
24.98917322834645
 30
0.0
 11
38.65059055118109
 21
24.98917322834645
 31
0.0
  0
LINE
  5
19C9
330
1E
100
AcDbEntity
  8
3
100
AcDbLine
 10
38.60531496062991
 20
24.98720472440945
 30
0.0
 11
38.65748031496062
 21
24.98720472440945
 31
0.0
  0
LINE
  5
19CA
330
1E
100
AcDbEntity
  8
3
100
AcDbLine
 10
38.60531496062991
 20
24.98523622047243
 30
0.0
 11
38.66535433070866
 21
24.98523622047243
 31
0.0
  0
LINE
  5
19CB
330
1E
100
AcDbEntity
  8
3
100
AcDbLine
 10
38.60531496062991
 20
24.98326771653543
 30
0.0
 11
38.67224409448818
 21
24.98326771653543
 31
0.0
  0
LINE
  5
19CC
330
1E
100
AcDbEntity
  8
3
100
AcDbLine
 10
38.60531496062991
 20
24.98129921259842
 30
0.0
 11
38.68011811023621
 21
24.98129921259842
 31
0.0
  0
LINE
  5
19CD
330
1E
100
AcDbEntity
  8
3
100
AcDbLine
 10
38.60531496062991
 20
24.97933070866141
 30
0.0
 11
38.68700787401575
 21
24.97933070866141
 31
0.0
  0
LINE
  5
19CE
330
1E
100
AcDbEntity
  8
3
100
AcDbLine
 10
38.60531496062991
 20
24.9773622047244
 30
0.0
 11
38.69488188976378
 21
24.9773622047244
 31
0.0
  0
LINE
  5
19CF
330
1E
100
AcDbEntity
  8
3
100
AcDbLine
 10
38.60531496062991
 20
24.95472440944881
 30
0.0
 11
38.61318897637795
 21
24.95472440944881
 31
0.0
  0
LINE
  5
19D0
330
1E
100
AcDbEntity
  8
3
100
AcDbLine
 10
38.60531496062991
 20
24.95669291338582
 30
0.0
 11
38.62007874015747
 21
24.95669291338582
 31
0.0
  0
LINE
  5
19D1
330
1E
100
AcDbEntity
  8
3
100
AcDbLine
 10
38.60531496062991
 20
24.95866141732283
 30
0.0
 11
38.62795275590551
 21
24.95866141732283
 31
0.0
  0
LINE
  5
19D2
330
1E
100
AcDbEntity
  8
3
100
AcDbLine
 10
38.60531496062991
 20
24.96062992125984
 30
0.0
 11
38.63484251968504
 21
24.96062992125984
 31
0.0
  0
LINE
  5
19D3
330
1E
100
AcDbEntity
  8
3
100
AcDbLine
 10
38.60531496062991
 20
24.96259842519684
 30
0.0
 11
38.64271653543307
 21
24.96259842519684
 31
0.0
  0
LINE
  5
19D4
330
1E
100
AcDbEntity
  8
3
100
AcDbLine
 10
38.60531496062991
 20
24.96456692913385
 30
0.0
 11
38.65059055118109
 21
24.96456692913385
 31
0.0
  0
LINE
  5
19D5
330
1E
100
AcDbEntity
  8
3
100
AcDbLine
 10
38.60531496062991
 20
24.96653543307086
 30
0.0
 11
38.65748031496062
 21
24.96653543307086
 31
0.0
  0
LINE
  5
19D6
330
1E
100
AcDbEntity
  8
3
100
AcDbLine
 10
38.60531496062991
 20
24.96850393700787
 30
0.0
 11
38.66535433070866
 21
24.96850393700787
 31
0.0
  0
LINE
  5
19D7
330
1E
100
AcDbEntity
  8
3
100
AcDbLine
 10
38.60531496062991
 20
24.97047244094488
 30
0.0
 11
38.67224409448818
 21
24.97047244094488
 31
0.0
  0
LINE
  5
19D8
330
1E
100
AcDbEntity
  8
3
100
AcDbLine
 10
38.60531496062991
 20
24.97342519685039
 30
0.0
 11
38.68011811023621
 21
24.97342519685039
 31
0.0
  0
LINE
  5
19D9
330
1E
100
AcDbEntity
  8
3
100
AcDbLine
 10
38.60531496062991
 20
24.9753937007874
 30
0.0
 11
38.68700787401575
 21
24.9753937007874
 31
0.0
  0
LINE
  5
19DA
330
1E
100
AcDbEntity
  8
3
100
AcDbLine
 10
38.60531496062991
 20
24.9773622047244
 30
0.0
 11
38.69488188976378
 21
24.9773622047244
 31
0.0
  0
LINE
  5
19DB
330
1E
100
AcDbEntity
  8
7
100
AcDbLine
 10
34.23228346456692
 20
26.93110236220472
 30
0.0
 11
34.18700787401574
 21
26.93110236220472
 31
0.0
  0
LWPOLYLINE
  5
19DC
330
1E
100
AcDbEntity
  8
7
100
AcDbPolyline
 90
        3
 70
     0
 43
0.0098425196850394
 10
34.18700787401574
 20
26.93110236220472
 10
34.18700787401574
 20
26.76279527559055
 10
34.23228346456692
 20
26.76279527559055
  0
LWPOLYLINE
  5
19E1
330
1E
100
AcDbEntity
  8
7
100
AcDbPolyline
 90
        4
 70
     0
 43
0.0098425196850394
 10
34.7027559055118
 20
26.76279527559055
 10
34.74803149606298
 20
26.76279527559055
 10
34.74803149606298
 20
26.93110236220472
 10
34.7027559055118
 20
26.93110236220472
  0
LINE
  5
19E7
330
1E
100
AcDbEntity
  8
3
100
AcDbLine
 10
34.94192913385826
 20
28.03641732283464
 30
0.0
 11
34.34251968503936
 21
28.03641732283464
 31
0.0
  0
LINE
  5
19E8
330
1E
100
AcDbEntity
  8
3
100
AcDbLine
 10
34.94192913385826
 20
25.83661417322834
 30
0.0
 11
34.34251968503936
 21
25.83661417322834
 31
0.0
  0
LINE
  5
19E9
330
1E
100
AcDbEntity
  8
3
100
AcDbLine
 10
34.46751968503936
 20
28.03641732283464
 30
0.0
 11
34.46751968503936
 21
27.17322834645669
 31
0.0
  0
LINE
  5
19EA
330
1E
100
AcDbEntity
  8
3
100
AcDbLine
 10
34.46751968503936
 20
25.83661417322834
 30
0.0
 11
34.46751968503936
 21
26.69980314960629
 31
0.0
  0
LWPOLYLINE
  5
19EB
330
1E
100
AcDbEntity
  8
7
100
AcDbPolyline
 90
        3
 70
     0
 43
0.0098425196850394
 10
34.26476377952755
 20
27.1023622047244
 10
34.27165354330708
 20
27.11023622047243
 10
34.27165354330708
 20
27.02066929133858
  0
LINE
  5
19F0
330
1E
100
AcDbEntity
  8
7
100
AcDbLine
 10
34.26082677165354
 20
27.02066929133858
 30
0.0
 11
34.28346456692913
 21
27.02066929133858
 31
0.0
  0
LINE
  5
19F1
330
1E
100
AcDbEntity
  8
7
100
AcDbLine
 10
34.36220472440944
 20
27.1023622047244
 30
0.0
 11
34.37007874015747
 21
27.11023622047243
 31
0.0
  0
LINE
  5
19F2
330
1E
100
AcDbEntity
  8
7
100
AcDbLine
 10
34.37007874015747
 20
27.11023622047243
 30
0.0
 11
34.37007874015747
 21
27.02066929133858
 31
0.0
  0
LINE
  5
19F3
330
1E
100
AcDbEntity
  8
7
100
AcDbLine
 10
34.35925196850393
 20
27.02066929133858
 30
0.0
 11
34.38090551181102
 21
27.02066929133858
 31
0.0
  0
LWPOLYLINE
  5
19F4
330
1E
100
AcDbEntity
  8
7
100
AcDbPolyline
 90
        5
 70
     0
 43
0.0098425196850394
 10
34.45866141732283
 20
27.02066929133858
 10
34.4763779527559
 20
27.02066929133858
 10
34.4763779527559
 20
27.03937007874015
 10
34.45866141732283
 20
27.03937007874015
 10
34.45866141732283
 20
27.02066929133858
  0
LWPOLYLINE
  5
19FB
330
1E
100
AcDbEntity
  8
7
100
AcDbPolyline
 90
        6
 70
     0
 43
0.0098425196850394
 10
34.57480314960629
 20
27.02066929133858
 10
34.59251968503936
 20
27.03051181102362
 10
34.6023622047244
 20
27.05708661417322
 10
34.6023622047244
 20
27.07480314960629
 10
34.59251968503936
 20
27.1013779527559
 10
34.57480314960629
 20
27.11023622047243
  0
LWPOLYLINE
  5
1A03
330
1E
100
AcDbEntity
  8
7
100
AcDbPolyline
 90
        8
 70
     0
 43
0.0098425196850394
 10
34.57480314960629
 20
27.11023622047243
 10
34.55708661417322
 20
27.11023622047243
 10
34.53937007874015
 20
27.1013779527559
 10
34.52952755905511
 20
27.07480314960629
 10
34.53051181102361
 20
27.05708661417322
 10
34.53937007874015
 20
27.03051181102362
 10
34.55708661417322
 20
27.02066929133858
 10
34.57480314960629
 20
27.02066929133858
  0
LWPOLYLINE
  5
1A0D
330
1E
100
AcDbEntity
  8
7
100
AcDbPolyline
 90
        8
 70
     0
 43
0.0098425196850394
 10
34.67322834645669
 20
27.02066929133858
 10
34.69094488188976
 20
27.03051181102362
 10
34.69980314960629
 20
27.05708661417322
 10
34.69980314960629
 20
27.07480314960629
 10
34.69094488188976
 20
27.1013779527559
 10
34.67322834645669
 20
27.11023622047243
 10
34.65452755905511
 20
27.11023622047243
 10
34.63681102362204
 20
27.1013779527559
  0
LWPOLYLINE
  5
1A17
330
1E
100
AcDbEntity
  8
7
100
AcDbPolyline
 90
        6
 70
     0
 43
0.0098425196850394
 10
34.63681102362204
 20
27.1013779527559
 10
34.62795275590551
 20
27.07480314960629
 10
34.62893700787401
 20
27.05708661417322
 10
34.63681102362204
 20
27.03051181102362
 10
34.65452755905511
 20
27.02066929133858
 10
34.67322834645669
 20
27.02066929133858
  0
LWPOLYLINE
  5
1A1F
330
1E
100
AcDbEntity
  8
7
100
AcDbPolyline
 90
        8
 70
     0
 43
0.0098425196850394
 10
34.23622047244094
 20
26.88188976377952
 10
34.25295275590551
 20
26.89074803149606
 10
34.29035433070866
 20
26.89074803149606
 10
34.30807086614172
 20
26.88188976377952
 10
34.30807086614172
 20
26.86417322834645
 10
34.23523622047243
 20
26.81988188976378
 10
34.23622047244094
 20
26.8021653543307
 10
34.30807086614172
 20
26.8021653543307
  0
LWPOLYLINE
  5
1A29
330
1E
100
AcDbEntity
  8
7
100
AcDbPolyline
 90
        3
 70
     0
 43
0.0098425196850394
 10
34.36122047244094
 20
26.8021653543307
 10
34.40551181102361
 20
26.89074803149606
 10
34.33464566929133
 20
26.89074803149606
  0
LWPOLYLINE
  5
1A2E
330
1E
100
AcDbEntity
  8
7
100
AcDbPolyline
 90
       12
 70
     0
 43
0.0098425196850394
 10
34.43208661417322
 20
26.81988188976378
 10
34.44980314960629
 20
26.8021653543307
 10
34.48622047244094
 20
26.8021653543307
 10
34.50393700787401
 20
26.81988188976378
 10
34.50393700787401
 20
26.87303149606298
 10
34.48622047244094
 20
26.89074803149606
 10
34.44980314960629
 20
26.89074803149606
 10
34.43208661417322
 20
26.87303149606298
 10
34.43208661417322
 20
26.85531496062992
 10
34.44980314960629
 20
26.83759842519684
 10
34.48622047244094
 20
26.83759842519684
 10
34.50393700787401
 20
26.85531496062992
  0
LWPOLYLINE
  5
1A3C
330
1E
100
AcDbEntity
  8
7
100
AcDbPolyline
 90
        5
 70
     0
 43
0.0098425196850394
 10
34.55708661417322
 20
26.8021653543307
 10
34.57480314960629
 20
26.8021653543307
 10
34.57480314960629
 20
26.81988188976378
 10
34.55708661417322
 20
26.81988188976378
 10
34.55708661417322
 20
26.8021653543307
  0
LWPOLYLINE
  5
1A43
330
1E
100
AcDbEntity
  8
7
100
AcDbPolyline
 90
        4
 70
     0
 43
0.0098425196850394
 10
34.69980314960629
 20
26.83759842519684
 10
34.62893700787401
 20
26.83759842519684
 10
34.68208661417322
 20
26.89074803149606
 10
34.68208661417322
 20
26.8021653543307
  0
LWPOLYLINE
  5
1A49
330
1E
100
AcDbEntity
  8
3
100
AcDbPolyline
 90
        3
 70
     0
 43
0.0098425196850394
 10
34.46751968503936
 20
28.03641732283464
 10
34.44389763779527
 20
27.94685039370078
 10
34.49212598425196
 20
27.94685039370078
  0
LINE
  5
1A4E
330
1E
100
AcDbEntity
  8
3
100
AcDbLine
 10
34.49212598425196
 20
27.94685039370078
 30
0.0
 11
34.46751968503936
 21
28.03641732283464
 31
0.0
  0
LINE
  5
1A4F
330
1E
100
AcDbEntity
  8
3
100
AcDbLine
 10
34.44586614173228
 20
27.94685039370078
 30
0.0
 11
34.44586614173228
 21
27.95472440944881
 31
0.0
  0
LINE
  5
1A50
330
1E
100
AcDbEntity
  8
3
100
AcDbLine
 10
34.44783464566929
 20
27.94685039370078
 30
0.0
 11
34.44783464566929
 21
27.96161417322834
 31
0.0
  0
LINE
  5
1A51
330
1E
100
AcDbEntity
  8
3
100
AcDbLine
 10
34.44980314960629
 20
27.94685039370078
 30
0.0
 11
34.44980314960629
 21
27.96948818897638
 31
0.0
  0
LINE
  5
1A52
330
1E
100
AcDbEntity
  8
3
100
AcDbLine
 10
34.4517716535433
 20
27.94685039370078
 30
0.0
 11
34.4517716535433
 21
27.9773622047244
 31
0.0
  0
LINE
  5
1A53
330
1E
100
AcDbEntity
  8
3
100
AcDbLine
 10
34.45374015748031
 20
27.94685039370078
 30
0.0
 11
34.45374015748031
 21
27.98425196850393
 31
0.0
  0
LINE
  5
1A54
330
1E
100
AcDbEntity
  8
3
100
AcDbLine
 10
34.45570866141732
 20
27.94685039370078
 30
0.0
 11
34.45570866141732
 21
27.99212598425196
 31
0.0
  0
LINE
  5
1A55
330
1E
100
AcDbEntity
  8
3
100
AcDbLine
 10
34.45767716535432
 20
27.94685039370078
 30
0.0
 11
34.45767716535432
 21
27.99901574803149
 31
0.0
  0
LINE
  5
1A56
330
1E
100
AcDbEntity
  8
3
100
AcDbLine
 10
34.45964566929133
 20
27.94685039370078
 30
0.0
 11
34.45964566929133
 21
28.00688976377952
 31
0.0
  0
LINE
  5
1A57
330
1E
100
AcDbEntity
  8
3
100
AcDbLine
 10
34.46161417322834
 20
27.94685039370078
 30
0.0
 11
34.46161417322834
 21
28.01476377952755
 31
0.0
  0
LINE
  5
1A58
330
1E
100
AcDbEntity
  8
3
100
AcDbLine
 10
34.46358267716535
 20
27.94685039370078
 30
0.0
 11
34.46358267716535
 21
28.02165354330708
 31
0.0
  0
LINE
  5
1A59
330
1E
100
AcDbEntity
  8
3
100
AcDbLine
 10
34.46555118110235
 20
27.94685039370078
 30
0.0
 11
34.46555118110235
 21
28.02952755905511
 31
0.0
  0
LINE
  5
1A5A
330
1E
100
AcDbEntity
  8
3
100
AcDbLine
 10
34.46751968503936
 20
27.94685039370078
 30
0.0
 11
34.46751968503936
 21
28.03641732283464
 31
0.0
  0
LINE
  5
1A5B
330
1E
100
AcDbEntity
  8
3
100
AcDbLine
 10
34.48917322834645
 20
27.94685039370078
 30
0.0
 11
34.48917322834645
 21
27.95472440944881
 31
0.0
  0
LINE
  5
1A5C
330
1E
100
AcDbEntity
  8
3
100
AcDbLine
 10
34.48720472440944
 20
27.94685039370078
 30
0.0
 11
34.48720472440944
 21
27.96161417322834
 31
0.0
  0
LINE
  5
1A5D
330
1E
100
AcDbEntity
  8
3
100
AcDbLine
 10
34.48523622047243
 20
27.94685039370078
 30
0.0
 11
34.48523622047243
 21
27.96948818897638
 31
0.0
  0
LINE
  5
1A5E
330
1E
100
AcDbEntity
  8
3
100
AcDbLine
 10
34.48326771653543
 20
27.94685039370078
 30
0.0
 11
34.48326771653543
 21
27.9773622047244
 31
0.0
  0
LINE
  5
1A5F
330
1E
100
AcDbEntity
  8
3
100
AcDbLine
 10
34.48129921259842
 20
27.94685039370078
 30
0.0
 11
34.48129921259842
 21
27.98425196850393
 31
0.0
  0
LINE
  5
1A60
330
1E
100
AcDbEntity
  8
3
100
AcDbLine
 10
34.47933070866141
 20
27.94685039370078
 30
0.0
 11
34.47933070866141
 21
27.99212598425196
 31
0.0
  0
LINE
  5
1A61
330
1E
100
AcDbEntity
  8
3
100
AcDbLine
 10
34.47736220472441
 20
27.94685039370078
 30
0.0
 11
34.47736220472441
 21
27.99901574803149
 31
0.0
  0
LINE
  5
1A62
330
1E
100
AcDbEntity
  8
3
100
AcDbLine
 10
34.4753937007874
 20
27.94685039370078
 30
0.0
 11
34.4753937007874
 21
28.00688976377952
 31
0.0
  0
LINE
  5
1A63
330
1E
100
AcDbEntity
  8
3
100
AcDbLine
 10
34.47342519685039
 20
27.94685039370078
 30
0.0
 11
34.47342519685039
 21
28.01476377952755
 31
0.0
  0
LINE
  5
1A64
330
1E
100
AcDbEntity
  8
3
100
AcDbLine
 10
34.47145669291338
 20
27.94685039370078
 30
0.0
 11
34.47145669291338
 21
28.02165354330708
 31
0.0
  0
LINE
  5
1A65
330
1E
100
AcDbEntity
  8
3
100
AcDbLine
 10
34.46948818897637
 20
27.94685039370078
 30
0.0
 11
34.46948818897637
 21
28.02952755905511
 31
0.0
  0
LINE
  5
1A66
330
1E
100
AcDbEntity
  8
3
100
AcDbLine
 10
34.46751968503936
 20
27.94685039370078
 30
0.0
 11
34.46751968503936
 21
28.03641732283464
 31
0.0
  0
LWPOLYLINE
  5
1A67
330
1E
100
AcDbEntity
  8
3
100
AcDbPolyline
 90
        4
 70
     0
 43
0.0098425196850394
 10
34.46751968503936
 20
25.83661417322834
 10
34.49212598425196
 20
25.92716535433071
 10
34.44389763779527
 20
25.92716535433071
 10
34.46751968503936
 20
25.83661417322834
  0
LINE
  5
1A6D
330
1E
100
AcDbEntity
  8
3
100
AcDbLine
 10
34.49114173228346
 20
25.92716535433071
 30
0.0
 11
34.49114173228346
 21
25.9261811023622
 31
0.0
  0
LINE
  5
1A6E
330
1E
100
AcDbEntity
  8
3
100
AcDbLine
 10
34.49114173228346
 20
25.92716535433071
 30
0.0
 11
34.49114173228346
 21
25.9261811023622
 31
0.0
  0
LINE
  5
1A6F
330
1E
100
AcDbEntity
  8
3
100
AcDbLine
 10
34.48917322834645
 20
25.92716535433071
 30
0.0
 11
34.48917322834645
 21
25.91929133858267
 31
0.0
  0
LINE
  5
1A70
330
1E
100
AcDbEntity
  8
3
100
AcDbLine
 10
34.48720472440944
 20
25.92716535433071
 30
0.0
 11
34.48720472440944
 21
25.91141732283464
 31
0.0
  0
LINE
  5
1A71
330
1E
100
AcDbEntity
  8
3
100
AcDbLine
 10
34.48523622047243
 20
25.92716535433071
 30
0.0
 11
34.48523622047243
 21
25.90354330708661
 31
0.0
  0
LINE
  5
1A72
330
1E
100
AcDbEntity
  8
3
100
AcDbLine
 10
34.48326771653543
 20
25.92716535433071
 30
0.0
 11
34.48326771653543
 21
25.89665354330708
 31
0.0
  0
LINE
  5
1A73
330
1E
100
AcDbEntity
  8
3
100
AcDbLine
 10
34.48129921259842
 20
25.92716535433071
 30
0.0
 11
34.48129921259842
 21
25.88877952755905
 31
0.0
  0
LINE
  5
1A74
330
1E
100
AcDbEntity
  8
3
100
AcDbLine
 10
34.47933070866141
 20
25.92716535433071
 30
0.0
 11
34.47933070866141
 21
25.88188976377952
 31
0.0
  0
LINE
  5
1A75
330
1E
100
AcDbEntity
  8
3
100
AcDbLine
 10
34.47736220472441
 20
25.92716535433071
 30
0.0
 11
34.47736220472441
 21
25.87401574803149
 31
0.0
  0
LINE
  5
1A76
330
1E
100
AcDbEntity
  8
3
100
AcDbLine
 10
34.4753937007874
 20
25.92716535433071
 30
0.0
 11
34.4753937007874
 21
25.86614173228346
 31
0.0
  0
LINE
  5
1A77
330
1E
100
AcDbEntity
  8
3
100
AcDbLine
 10
34.47342519685039
 20
25.92716535433071
 30
0.0
 11
34.47342519685039
 21
25.85925196850393
 31
0.0
  0
LINE
  5
1A78
330
1E
100
AcDbEntity
  8
3
100
AcDbLine
 10
34.47145669291338
 20
25.92716535433071
 30
0.0
 11
34.47145669291338
 21
25.8513779527559
 31
0.0
  0
LINE
  5
1A79
330
1E
100
AcDbEntity
  8
3
100
AcDbLine
 10
34.46948818897637
 20
25.92716535433071
 30
0.0
 11
34.46948818897637
 21
25.84448818897637
 31
0.0
  0
LINE
  5
1A7A
330
1E
100
AcDbEntity
  8
3
100
AcDbLine
 10
34.46751968503936
 20
25.92716535433071
 30
0.0
 11
34.46751968503936
 21
25.83661417322834
 31
0.0
  0
LINE
  5
1A7B
330
1E
100
AcDbEntity
  8
3
100
AcDbLine
 10
34.44389763779527
 20
25.92716535433071
 30
0.0
 11
34.44389763779527
 21
25.9261811023622
 31
0.0
  0
LINE
  5
1A7C
330
1E
100
AcDbEntity
  8
3
100
AcDbLine
 10
34.44389763779527
 20
25.92716535433071
 30
0.0
 11
34.44389763779527
 21
25.9261811023622
 31
0.0
  0
LINE
  5
1A7D
330
1E
100
AcDbEntity
  8
3
100
AcDbLine
 10
34.44586614173228
 20
25.92716535433071
 30
0.0
 11
34.44586614173228
 21
25.91929133858267
 31
0.0
  0
LINE
  5
1A7E
330
1E
100
AcDbEntity
  8
3
100
AcDbLine
 10
34.44783464566929
 20
25.92716535433071
 30
0.0
 11
34.44783464566929
 21
25.91141732283464
 31
0.0
  0
LINE
  5
1A7F
330
1E
100
AcDbEntity
  8
3
100
AcDbLine
 10
34.44980314960629
 20
25.92716535433071
 30
0.0
 11
34.44980314960629
 21
25.90354330708661
 31
0.0
  0
LINE
  5
1A80
330
1E
100
AcDbEntity
  8
3
100
AcDbLine
 10
34.4517716535433
 20
25.92716535433071
 30
0.0
 11
34.4517716535433
 21
25.89665354330708
 31
0.0
  0
LINE
  5
1A81
330
1E
100
AcDbEntity
  8
3
100
AcDbLine
 10
34.45374015748031
 20
25.92716535433071
 30
0.0
 11
34.45374015748031
 21
25.88877952755905
 31
0.0
  0
LINE
  5
1A82
330
1E
100
AcDbEntity
  8
3
100
AcDbLine
 10
34.45570866141732
 20
25.92716535433071
 30
0.0
 11
34.45570866141732
 21
25.88188976377952
 31
0.0
  0
LINE
  5
1A83
330
1E
100
AcDbEntity
  8
3
100
AcDbLine
 10
34.45767716535432
 20
25.92716535433071
 30
0.0
 11
34.45767716535432
 21
25.87401574803149
 31
0.0
  0
LINE
  5
1A84
330
1E
100
AcDbEntity
  8
3
100
AcDbLine
 10
34.45964566929133
 20
25.92716535433071
 30
0.0
 11
34.45964566929133
 21
25.86614173228346
 31
0.0
  0
LINE
  5
1A85
330
1E
100
AcDbEntity
  8
3
100
AcDbLine
 10
34.46161417322834
 20
25.92716535433071
 30
0.0
 11
34.46161417322834
 21
25.85925196850393
 31
0.0
  0
LINE
  5
1A86
330
1E
100
AcDbEntity
  8
3
100
AcDbLine
 10
34.46358267716535
 20
25.92716535433071
 30
0.0
 11
34.46358267716535
 21
25.8513779527559
 31
0.0
  0
LINE
  5
1A87
330
1E
100
AcDbEntity
  8
3
100
AcDbLine
 10
34.46555118110235
 20
25.92716535433071
 30
0.0
 11
34.46555118110235
 21
25.84448818897637
 31
0.0
  0
LINE
  5
1A88
330
1E
100
AcDbEntity
  8
3
100
AcDbLine
 10
34.46751968503936
 20
25.92716535433071
 30
0.0
 11
34.46751968503936
 21
25.83661417322834
 31
0.0
  0
LWPOLYLINE
  5
1A89
330
1E
100
AcDbEntity
  8
7
100
AcDbPolyline
 90
        4
 70
     0
 43
0.0098425196850394
 10
38.95374015748031
 20
26.23129921259842
 10
38.90846456692912
 20
26.23129921259842
 10
38.90846456692912
 20
26.06200787401574
 10
38.95374015748031
 20
26.06200787401574
  0
LWPOLYLINE
  5
1A8F
330
1E
100
AcDbEntity
  8
7
100
AcDbPolyline
 90
        4
 70
     0
 43
0.0098425196850394
 10
39.42421259842519
 20
26.06200787401574
 10
39.46850393700787
 20
26.06200787401574
 10
39.46850393700787
 20
26.23129921259842
 10
39.42421259842519
 20
26.23129921259842
  0
LINE
  5
1A95
330
1E
100
AcDbEntity
  8
3
100
AcDbLine
 10
38.75787401574802
 20
25.83661417322834
 30
0.0
 11
39.31397637795275
 21
25.83661417322834
 31
0.0
  0
LINE
  5
1A96
330
1E
100
AcDbEntity
  8
3
100
AcDbLine
 10
38.75787401574802
 20
26.63681102362204
 30
0.0
 11
39.31397637795275
 21
26.63681102362204
 31
0.0
  0
LINE
  5
1A97
330
1E
100
AcDbEntity
  8
3
100
AcDbLine
 10
39.18897637795275
 20
25.83661417322834
 30
0.0
 11
39.18897637795275
 21
26.0
 31
0.0
  0
LINE
  5
1A98
330
1E
100
AcDbEntity
  8
3
100
AcDbLine
 10
39.18897637795275
 20
26.63681102362204
 30
0.0
 11
39.18897637795275
 21
26.47342519685039
 31
0.0
  0
LWPOLYLINE
  5
1A99
330
1E
100
AcDbEntity
  8
7
100
AcDbPolyline
 90
        4
 70
     0
 43
0.0098425196850394
 10
39.0777559055118
 20
26.35629921259842
 10
39.00688976377952
 20
26.35629921259842
 10
39.06003937007873
 20
26.41043307086614
 10
39.06003937007873
 20
26.32086614173228
  0
LWPOLYLINE
  5
1A9F
330
1E
100
AcDbEntity
  8
7
100
AcDbPolyline
 90
        4
 70
     0
 43
0.0098425196850394
 10
39.13090551181102
 20
26.32086614173228
 10
39.14862204724409
 20
26.32086614173228
 10
39.14862204724409
 20
26.33858267716535
 10
39.13090551181102
 20
26.33858267716535
  0
LINE
  5
1AA5
330
1E
100
AcDbEntity
  8
7
100
AcDbLine
 10
39.13090551181102
 20
26.33858267716535
 30
0.0
 11
39.13090551181102
 21
26.32086614173228
 31
0.0
  0
LWPOLYLINE
  5
1AA6
330
1E
100
AcDbEntity
  8
7
100
AcDbPolyline
 90
       13
 70
     0
 43
0.0098425196850394
 10
39.24704724409448
 20
26.32086614173228
 10
39.26476377952755
 20
26.33070866141732
 10
39.27460629921259
 20
26.35629921259842
 10
39.27460629921259
 20
26.375
 10
39.26476377952755
 20
26.4015748031496
 10
39.24704724409448
 20
26.41043307086614
 10
39.22933070866141
 20
26.41043307086614
 10
39.21161417322834
 20
26.4015748031496
 10
39.2017716535433
 20
26.375
 10
39.20275590551181
 20
26.35629921259842
 10
39.21161417322834
 20
26.33070866141732
 10
39.22933070866141
 20
26.32086614173228
 10
39.24704724409448
 20
26.32086614173228
  0
LWPOLYLINE
  5
1AB5
330
1E
100
AcDbEntity
  8
7
100
AcDbPolyline
 90
       13
 70
     0
 43
0.0098425196850394
 10
39.34547244094487
 20
26.32086614173228
 10
39.36318897637795
 20
26.33070866141732
 10
39.37204724409448
 20
26.35629921259842
 10
39.37204724409448
 20
26.375
 10
39.36318897637795
 20
26.4015748031496
 10
39.34547244094487
 20
26.41043307086614
 10
39.3277559055118
 20
26.41043307086614
 10
39.31003937007873
 20
26.4015748031496
 10
39.30019685039369
 20
26.375
 10
39.3011811023622
 20
26.35629921259842
 10
39.31003937007873
 20
26.33070866141732
 10
39.3277559055118
 20
26.32086614173228
 10
39.34547244094487
 20
26.32086614173228
  0
LWPOLYLINE
  5
1AC4
330
1E
100
AcDbEntity
  8
7
100
AcDbPolyline
 90
        3
 70
     0
 43
0.0098425196850394
 10
38.98622047244094
 20
26.18307086614173
 10
38.99311023622047
 20
26.19094488188976
 10
38.99311023622047
 20
26.1013779527559
  0
LINE
  5
1AC9
330
1E
100
AcDbEntity
  8
7
100
AcDbLine
 10
38.98228346456692
 20
26.1013779527559
 30
0.0
 11
39.00492125984252
 21
26.1013779527559
 31
0.0
  0
LWPOLYLINE
  5
1ACA
330
1E
100
AcDbEntity
  8
7
100
AcDbPolyline
 90
       11
 70
     0
 43
0.0098425196850394
 10
39.09940944881889
 20
26.1013779527559
 10
39.11811023622046
 20
26.11122047244094
 10
39.126968503937
 20
26.13779527559055
 10
39.126968503937
 20
26.15551181102362
 10
39.11811023622046
 20
26.18208661417322
 10
39.09940944881889
 20
26.19094488188976
 10
39.08169291338582
 20
26.19094488188976
 10
39.06397637795275
 20
26.18208661417322
 10
39.05511811023621
 20
26.15551181102362
 10
39.05610236220471
 20
26.13779527559055
 10
39.06397637795275
 20
26.11122047244094
  0
LWPOLYLINE
  5
1AD7
330
1E
100
AcDbEntity
  8
7
100
AcDbPolyline
 90
        3
 70
     0
 43
0.0098425196850394
 10
39.06397637795275
 20
26.11122047244094
 10
39.08169291338582
 20
26.1013779527559
 10
39.09940944881889
 20
26.1013779527559
  0
LWPOLYLINE
  5
1ADC
330
1E
100
AcDbEntity
  8
7
100
AcDbPolyline
 90
        3
 70
     0
 43
0.0098425196850394
 10
39.18208661417322
 20
26.18307086614173
 10
39.18897637795275
 20
26.19094488188976
 10
39.18897637795275
 20
26.1013779527559
  0
LINE
  5
1AE1
330
1E
100
AcDbEntity
  8
7
100
AcDbLine
 10
39.1781496062992
 20
26.1013779527559
 30
0.0
 11
39.2007874015748
 21
26.1013779527559
 31
0.0
  0
LWPOLYLINE
  5
1AE2
330
1E
100
AcDbEntity
  8
7
100
AcDbPolyline
 90
        5
 70
     0
 43
0.0098425196850394
 10
39.2785433070866
 20
26.1013779527559
 10
39.29625984251968
 20
26.1013779527559
 10
39.29625984251968
 20
26.11909448818897
 10
39.2785433070866
 20
26.11909448818897
 10
39.2785433070866
 20
26.1013779527559
  0
LINE
  5
1AE9
330
1E
100
AcDbEntity
  8
7
100
AcDbLine
 10
39.3503937007874
 20
26.13779527559055
 30
0.0
 11
39.36712598425196
 21
26.15551181102362
 31
0.0
  0
LWPOLYLINE
  5
1AEA
330
1E
100
AcDbEntity
  8
7
100
AcDbPolyline
 90
       11
 70
     0
 43
0.0098425196850394
 10
39.36712598425196
 20
26.15551181102362
 10
39.40354330708661
 20
26.15551181102362
 10
39.42125984251968
 20
26.13779527559055
 10
39.42125984251968
 20
26.11909448818897
 10
39.40354330708661
 20
26.1013779527559
 10
39.36712598425196
 20
26.1013779527559
 10
39.3503937007874
 20
26.11909448818897
 10
39.3503937007874
 20
26.17322834645669
 10
39.36712598425196
 20
26.19094488188976
 10
39.40354330708661
 20
26.19094488188976
 10
39.42125984251968
 20
26.17322834645669
  0
LWPOLYLINE
  5
1AF7
330
1E
100
AcDbEntity
  8
3
100
AcDbPolyline
 90
        3
 70
     0
 43
0.0098425196850394
 10
39.18897637795275
 20
25.83661417322834
 10
39.21259842519684
 20
25.92716535433071
 10
39.16437007874015
 20
25.92716535433071
  0
LINE
  5
1AFC
330
1E
100
AcDbEntity
  8
3
100
AcDbLine
 10
39.16437007874015
 20
25.92716535433071
 30
0.0
 11
39.18897637795275
 21
25.83661417322834
 31
0.0
  0
LINE
  5
1AFD
330
1E
100
AcDbEntity
  8
3
100
AcDbLine
 10
39.21259842519684
 20
25.92716535433071
 30
0.0
 11
39.21259842519684
 21
25.9261811023622
 31
0.0
  0
LINE
  5
1AFE
330
1E
100
AcDbEntity
  8
3
100
AcDbLine
 10
39.21259842519684
 20
25.92716535433071
 30
0.0
 11
39.21259842519684
 21
25.9261811023622
 31
0.0
  0
LINE
  5
1AFF
330
1E
100
AcDbEntity
  8
3
100
AcDbLine
 10
39.21062992125984
 20
25.92716535433071
 30
0.0
 11
39.21062992125984
 21
25.91929133858267
 31
0.0
  0
LINE
  5
1B00
330
1E
100
AcDbEntity
  8
3
100
AcDbLine
 10
39.20866141732282
 20
25.92716535433071
 30
0.0
 11
39.20866141732282
 21
25.91141732283464
 31
0.0
  0
LINE
  5
1B01
330
1E
100
AcDbEntity
  8
3
100
AcDbLine
 10
39.20669291338582
 20
25.92716535433071
 30
0.0
 11
39.20669291338582
 21
25.90354330708661
 31
0.0
  0
LINE
  5
1B02
330
1E
100
AcDbEntity
  8
3
100
AcDbLine
 10
39.20472440944881
 20
25.92716535433071
 30
0.0
 11
39.20472440944881
 21
25.89665354330708
 31
0.0
  0
LINE
  5
1B03
330
1E
100
AcDbEntity
  8
3
100
AcDbLine
 10
39.20275590551181
 20
25.92716535433071
 30
0.0
 11
39.20275590551181
 21
25.88877952755905
 31
0.0
  0
LINE
  5
1B04
330
1E
100
AcDbEntity
  8
3
100
AcDbLine
 10
39.2007874015748
 20
25.92716535433071
 30
0.0
 11
39.2007874015748
 21
25.88188976377952
 31
0.0
  0
LINE
  5
1B05
330
1E
100
AcDbEntity
  8
3
100
AcDbLine
 10
39.19881889763779
 20
25.92716535433071
 30
0.0
 11
39.19881889763779
 21
25.87401574803149
 31
0.0
  0
LINE
  5
1B06
330
1E
100
AcDbEntity
  8
3
100
AcDbLine
 10
39.19685039370078
 20
25.92716535433071
 30
0.0
 11
39.19685039370078
 21
25.86614173228346
 31
0.0
  0
LINE
  5
1B07
330
1E
100
AcDbEntity
  8
3
100
AcDbLine
 10
39.19488188976377
 20
25.92716535433071
 30
0.0
 11
39.19488188976377
 21
25.85925196850393
 31
0.0
  0
LINE
  5
1B08
330
1E
100
AcDbEntity
  8
3
100
AcDbLine
 10
39.19291338582677
 20
25.92716535433071
 30
0.0
 11
39.19291338582677
 21
25.8513779527559
 31
0.0
  0
LINE
  5
1B09
330
1E
100
AcDbEntity
  8
3
100
AcDbLine
 10
39.19094488188976
 20
25.92716535433071
 30
0.0
 11
39.19094488188976
 21
25.84448818897637
 31
0.0
  0
LINE
  5
1B0A
330
1E
100
AcDbEntity
  8
3
100
AcDbLine
 10
39.18897637795275
 20
25.92716535433071
 30
0.0
 11
39.18897637795275
 21
25.83661417322834
 31
0.0
  0
LINE
  5
1B0B
330
1E
100
AcDbEntity
  8
3
100
AcDbLine
 10
39.16437007874015
 20
25.92716535433071
 30
0.0
 11
39.16437007874015
 21
25.9261811023622
 31
0.0
  0
LINE
  5
1B0C
330
1E
100
AcDbEntity
  8
3
100
AcDbLine
 10
39.16437007874015
 20
25.92716535433071
 30
0.0
 11
39.16437007874015
 21
25.9261811023622
 31
0.0
  0
LINE
  5
1B0D
330
1E
100
AcDbEntity
  8
3
100
AcDbLine
 10
39.16633858267716
 20
25.92716535433071
 30
0.0
 11
39.16633858267716
 21
25.91929133858267
 31
0.0
  0
LINE
  5
1B0E
330
1E
100
AcDbEntity
  8
3
100
AcDbLine
 10
39.16929133858267
 20
25.92716535433071
 30
0.0
 11
39.16929133858267
 21
25.91141732283464
 31
0.0
  0
LINE
  5
1B0F
330
1E
100
AcDbEntity
  8
3
100
AcDbLine
 10
39.17125984251968
 20
25.92716535433071
 30
0.0
 11
39.17125984251968
 21
25.90354330708661
 31
0.0
  0
LINE
  5
1B10
330
1E
100
AcDbEntity
  8
3
100
AcDbLine
 10
39.17322834645668
 20
25.92716535433071
 30
0.0
 11
39.17322834645668
 21
25.89665354330708
 31
0.0
  0
LINE
  5
1B11
330
1E
100
AcDbEntity
  8
3
100
AcDbLine
 10
39.17519685039369
 20
25.92716535433071
 30
0.0
 11
39.17519685039369
 21
25.88877952755905
 31
0.0
  0
LINE
  5
1B12
330
1E
100
AcDbEntity
  8
3
100
AcDbLine
 10
39.1771653543307
 20
25.92716535433071
 30
0.0
 11
39.1771653543307
 21
25.88188976377952
 31
0.0
  0
LINE
  5
1B13
330
1E
100
AcDbEntity
  8
3
100
AcDbLine
 10
39.17913385826771
 20
25.92716535433071
 30
0.0
 11
39.17913385826771
 21
25.87401574803149
 31
0.0
  0
LINE
  5
1B14
330
1E
100
AcDbEntity
  8
3
100
AcDbLine
 10
39.18110236220472
 20
25.92716535433071
 30
0.0
 11
39.18110236220472
 21
25.86614173228346
 31
0.0
  0
LINE
  5
1B15
330
1E
100
AcDbEntity
  8
3
100
AcDbLine
 10
39.18307086614172
 20
25.92716535433071
 30
0.0
 11
39.18307086614172
 21
25.85925196850393
 31
0.0
  0
LINE
  5
1B16
330
1E
100
AcDbEntity
  8
3
100
AcDbLine
 10
39.18503937007873
 20
25.92716535433071
 30
0.0
 11
39.18503937007873
 21
25.8513779527559
 31
0.0
  0
LINE
  5
1B17
330
1E
100
AcDbEntity
  8
3
100
AcDbLine
 10
39.18700787401574
 20
25.92716535433071
 30
0.0
 11
39.18700787401574
 21
25.84448818897637
 31
0.0
  0
LINE
  5
1B18
330
1E
100
AcDbEntity
  8
3
100
AcDbLine
 10
39.18897637795275
 20
25.92716535433071
 30
0.0
 11
39.18897637795275
 21
25.83661417322834
 31
0.0
  0
LWPOLYLINE
  5
1B19
330
1E
100
AcDbEntity
  8
3
100
AcDbPolyline
 90
        4
 70
     0
 43
0.0098425196850394
 10
39.18897637795275
 20
26.63681102362204
 10
39.16437007874015
 20
26.54625984251968
 10
39.21259842519684
 20
26.54625984251968
 10
39.18897637795275
 20
26.63681102362204
  0
LINE
  5
1B1F
330
1E
100
AcDbEntity
  8
3
100
AcDbLine
 10
39.16437007874015
 20
26.54625984251968
 30
0.0
 11
39.16437007874015
 21
26.54724409448818
 31
0.0
  0
LINE
  5
1B20
330
1E
100
AcDbEntity
  8
3
100
AcDbLine
 10
39.16437007874015
 20
26.54625984251968
 30
0.0
 11
39.16437007874015
 21
26.54724409448818
 31
0.0
  0
LINE
  5
1B21
330
1E
100
AcDbEntity
  8
3
100
AcDbLine
 10
39.16633858267716
 20
26.54625984251968
 30
0.0
 11
39.16633858267716
 21
26.55413385826771
 31
0.0
  0
LINE
  5
1B22
330
1E
100
AcDbEntity
  8
3
100
AcDbLine
 10
39.16929133858267
 20
26.54625984251968
 30
0.0
 11
39.16929133858267
 21
26.56200787401575
 31
0.0
  0
LINE
  5
1B23
330
1E
100
AcDbEntity
  8
3
100
AcDbLine
 10
39.17125984251968
 20
26.54625984251968
 30
0.0
 11
39.17125984251968
 21
26.56988188976377
 31
0.0
  0
LINE
  5
1B24
330
1E
100
AcDbEntity
  8
3
100
AcDbLine
 10
39.17322834645668
 20
26.54625984251968
 30
0.0
 11
39.17322834645668
 21
26.5767716535433
 31
0.0
  0
LINE
  5
1B25
330
1E
100
AcDbEntity
  8
3
100
AcDbLine
 10
39.17519685039369
 20
26.54625984251968
 30
0.0
 11
39.17519685039369
 21
26.58464566929133
 31
0.0
  0
LINE
  5
1B26
330
1E
100
AcDbEntity
  8
3
100
AcDbLine
 10
39.1771653543307
 20
26.54625984251968
 30
0.0
 11
39.1771653543307
 21
26.59153543307086
 31
0.0
  0
LINE
  5
1B27
330
1E
100
AcDbEntity
  8
3
100
AcDbLine
 10
39.17913385826771
 20
26.54625984251968
 30
0.0
 11
39.17913385826771
 21
26.59940944881889
 31
0.0
  0
LINE
  5
1B28
330
1E
100
AcDbEntity
  8
3
100
AcDbLine
 10
39.18110236220472
 20
26.54625984251968
 30
0.0
 11
39.18110236220472
 21
26.60728346456692
 31
0.0
  0
LINE
  5
1B29
330
1E
100
AcDbEntity
  8
3
100
AcDbLine
 10
39.18307086614172
 20
26.54625984251968
 30
0.0
 11
39.18307086614172
 21
26.61417322834645
 31
0.0
  0
LINE
  5
1B2A
330
1E
100
AcDbEntity
  8
3
100
AcDbLine
 10
39.18503937007873
 20
26.54625984251968
 30
0.0
 11
39.18503937007873
 21
26.62204724409448
 31
0.0
  0
LINE
  5
1B2B
330
1E
100
AcDbEntity
  8
3
100
AcDbLine
 10
39.18700787401574
 20
26.54625984251968
 30
0.0
 11
39.18700787401574
 21
26.62893700787401
 31
0.0
  0
LINE
  5
1B2C
330
1E
100
AcDbEntity
  8
3
100
AcDbLine
 10
39.18897637795275
 20
26.54625984251968
 30
0.0
 11
39.18897637795275
 21
26.63681102362204
 31
0.0
  0
LINE
  5
1B2D
330
1E
100
AcDbEntity
  8
3
100
AcDbLine
 10
39.21259842519684
 20
26.54625984251968
 30
0.0
 11
39.21259842519684
 21
26.54724409448818
 31
0.0
  0
LINE
  5
1B2E
330
1E
100
AcDbEntity
  8
3
100
AcDbLine
 10
39.21259842519684
 20
26.54625984251968
 30
0.0
 11
39.21259842519684
 21
26.54724409448818
 31
0.0
  0
LINE
  5
1B2F
330
1E
100
AcDbEntity
  8
3
100
AcDbLine
 10
39.21062992125984
 20
26.54625984251968
 30
0.0
 11
39.21062992125984
 21
26.55413385826771
 31
0.0
  0
LINE
  5
1B30
330
1E
100
AcDbEntity
  8
3
100
AcDbLine
 10
39.20866141732282
 20
26.54625984251968
 30
0.0
 11
39.20866141732282
 21
26.56200787401575
 31
0.0
  0
LINE
  5
1B31
330
1E
100
AcDbEntity
  8
3
100
AcDbLine
 10
39.20669291338582
 20
26.54625984251968
 30
0.0
 11
39.20669291338582
 21
26.56988188976377
 31
0.0
  0
LINE
  5
1B32
330
1E
100
AcDbEntity
  8
3
100
AcDbLine
 10
39.20472440944881
 20
26.54625984251968
 30
0.0
 11
39.20472440944881
 21
26.5767716535433
 31
0.0
  0
LINE
  5
1B33
330
1E
100
AcDbEntity
  8
3
100
AcDbLine
 10
39.20275590551181
 20
26.54625984251968
 30
0.0
 11
39.20275590551181
 21
26.58464566929133
 31
0.0
  0
LINE
  5
1B34
330
1E
100
AcDbEntity
  8
3
100
AcDbLine
 10
39.2007874015748
 20
26.54625984251968
 30
0.0
 11
39.2007874015748
 21
26.59153543307086
 31
0.0
  0
LINE
  5
1B35
330
1E
100
AcDbEntity
  8
3
100
AcDbLine
 10
39.19881889763779
 20
26.54625984251968
 30
0.0
 11
39.19881889763779
 21
26.59940944881889
 31
0.0
  0
LINE
  5
1B36
330
1E
100
AcDbEntity
  8
3
100
AcDbLine
 10
39.19685039370078
 20
26.54625984251968
 30
0.0
 11
39.19685039370078
 21
26.60728346456692
 31
0.0
  0
LINE
  5
1B37
330
1E
100
AcDbEntity
  8
3
100
AcDbLine
 10
39.19488188976377
 20
26.54625984251968
 30
0.0
 11
39.19488188976377
 21
26.61417322834645
 31
0.0
  0
LINE
  5
1B38
330
1E
100
AcDbEntity
  8
3
100
AcDbLine
 10
39.19291338582677
 20
26.54625984251968
 30
0.0
 11
39.19291338582677
 21
26.62204724409448
 31
0.0
  0
LINE
  5
1B39
330
1E
100
AcDbEntity
  8
3
100
AcDbLine
 10
39.19094488188976
 20
26.54625984251968
 30
0.0
 11
39.19094488188976
 21
26.62893700787401
 31
0.0
  0
LINE
  5
1B3A
330
1E
100
AcDbEntity
  8
3
100
AcDbLine
 10
39.18897637795275
 20
26.54625984251968
 30
0.0
 11
39.18897637795275
 21
26.63681102362204
 31
0.0
  0
LINE
  5
1CC6
330
1E
100
AcDbEntity
  8
7
100
AcDbLine
 10
38.66929133858267
 20
28.06496062992126
 30
0.0
 11
38.69488188976378
 21
28.06496062992126
 31
0.0
  0
LWPOLYLINE
  5
1CC7
330
1E
100
AcDbEntity
  8
7
100
AcDbPolyline
 90
        6
 70
     0
 43
0.0098425196850394
 10
38.69488188976378
 20
28.00885826771653
 10
38.71062992125983
 20
28.01377952755905
 10
38.72145669291338
 20
28.0275590551181
 10
38.72145669291338
 20
28.04527559055117
 10
38.71062992125983
 20
28.05905511811023
 10
38.69488188976378
 20
28.06397637795275
  0
LINE
  5
1CCF
330
1E
100
AcDbEntity
  8
7
100
AcDbLine
 10
38.66929133858267
 20
28.00885826771653
 30
0.0
 11
38.69488188976378
 21
28.00885826771653
 31
0.0
  0
LWPOLYLINE
  5
1CD0
330
1E
100
AcDbEntity
  8
7
100
AcDbPolyline
 90
        6
 70
     0
 43
0.0098425196850394
 10
38.66929133858267
 20
28.06397637795275
 10
38.6535433070866
 20
28.05905511811023
 10
38.64271653543307
 20
28.04527559055117
 10
38.64271653543307
 20
28.0275590551181
 10
38.6535433070866
 20
28.01377952755905
 10
38.66929133858267
 20
28.00885826771653
  0
LINE
  5
1CD8
330
1E
100
AcDbEntity
  8
7
100
AcDbLine
 10
38.66929133858267
 20
26.66437007874015
 30
0.0
 11
38.69488188976378
 21
26.66437007874015
 31
0.0
  0
LWPOLYLINE
  5
1CD9
330
1E
100
AcDbEntity
  8
7
100
AcDbPolyline
 90
        6
 70
     0
 43
0.0098425196850394
 10
38.69488188976378
 20
26.60925196850393
 10
38.71062992125983
 20
26.61417322834645
 10
38.72145669291338
 20
26.62795275590551
 10
38.72145669291338
 20
26.64566929133858
 10
38.71062992125983
 20
26.65944881889763
 10
38.69488188976378
 20
26.66437007874015
  0
LINE
  5
1CE1
330
1E
100
AcDbEntity
  8
7
100
AcDbLine
 10
38.66929133858267
 20
26.60826771653542
 30
0.0
 11
38.69488188976378
 21
26.60826771653542
 31
0.0
  0
LWPOLYLINE
  5
1CE2
330
1E
100
AcDbEntity
  8
7
100
AcDbPolyline
 90
        4
 70
     0
 43
0.0098425196850394
 10
38.66929133858267
 20
26.66437007874015
 10
38.6535433070866
 20
26.65944881889763
 10
38.64271653543307
 20
26.64566929133858
 10
38.64271653543307
 20
26.62795275590551
  0
LWPOLYLINE
  5
1CE8
330
1E
100
AcDbEntity
  8
7
100
AcDbPolyline
 90
        3
 70
     0
 43
0.0098425196850394
 10
38.64271653543307
 20
26.62795275590551
 10
38.6535433070866
 20
26.61417322834645
 10
38.66929133858267
 20
26.60925196850393
  0
LINE
  5
1CED
330
1E
100
AcDbEntity
  8
7
100
AcDbLine
 10
35.00492125984251
 20
28.06496062992126
 30
0.0
 11
35.02952755905511
 21
28.06496062992126
 31
0.0
  0
LWPOLYLINE
  5
1CEE
330
1E
100
AcDbEntity
  8
7
100
AcDbPolyline
 90
        6
 70
     0
 43
0.0098425196850394
 10
35.02952755905511
 20
28.00885826771653
 10
35.04527559055118
 20
28.01377952755905
 10
35.05610236220471
 20
28.0275590551181
 10
35.05610236220471
 20
28.04527559055117
 10
35.04527559055118
 20
28.05905511811023
 10
35.02952755905511
 20
28.06397637795275
  0
LINE
  5
1CF6
330
1E
100
AcDbEntity
  8
7
100
AcDbLine
 10
35.00492125984251
 20
28.00885826771653
 30
0.0
 11
35.02952755905511
 21
28.00885826771653
 31
0.0
  0
LWPOLYLINE
  5
1CF7
330
1E
100
AcDbEntity
  8
7
100
AcDbPolyline
 90
        6
 70
     0
 43
0.0098425196850394
 10
35.00492125984251
 20
28.06397637795275
 10
34.98917322834645
 20
28.05905511811023
 10
34.97834645669291
 20
28.04527559055117
 10
34.97834645669291
 20
28.0275590551181
 10
34.98917322834645
 20
28.01377952755905
 10
35.00492125984251
 20
28.00885826771653
  0
LINE
  5
1CFF
330
1E
100
AcDbEntity
  8
7
100
AcDbLine
 10
35.00492125984251
 20
26.66437007874015
 30
0.0
 11
35.02952755905511
 21
26.66437007874015
 31
0.0
  0
LWPOLYLINE
  5
1D00
330
1E
100
AcDbEntity
  8
7
100
AcDbPolyline
 90
        6
 70
     0
 43
0.0098425196850394
 10
35.02952755905511
 20
26.60925196850393
 10
35.04527559055118
 20
26.61417322834645
 10
35.05610236220471
 20
26.62795275590551
 10
35.05610236220471
 20
26.64566929133858
 10
35.04527559055118
 20
26.65944881889763
 10
35.02952755905511
 20
26.66437007874015
  0
LINE
  5
1D08
330
1E
100
AcDbEntity
  8
7
100
AcDbLine
 10
35.00492125984251
 20
26.60826771653542
 30
0.0
 11
35.02952755905511
 21
26.60826771653542
 31
0.0
  0
LWPOLYLINE
  5
1D09
330
1E
100
AcDbEntity
  8
7
100
AcDbPolyline
 90
        4
 70
     0
 43
0.0098425196850394
 10
35.00492125984251
 20
26.66437007874015
 10
34.98917322834645
 20
26.65944881889763
 10
34.97834645669291
 20
26.64566929133858
 10
34.97834645669291
 20
26.62795275590551
  0
LWPOLYLINE
  5
1D0F
330
1E
100
AcDbEntity
  8
7
100
AcDbPolyline
 90
        3
 70
     0
 43
0.0098425196850394
 10
34.97834645669291
 20
26.62795275590551
 10
34.98917322834645
 20
26.61417322834645
 10
35.00492125984251
 20
26.60925196850393
  0
LINE
  5
1D14
330
1E
100
AcDbEntity
  8
7
100
AcDbLine
 10
38.66929133858267
 20
27.26476377952755
 30
0.0
 11
38.69488188976378
 21
27.26476377952755
 31
0.0
  0
LWPOLYLINE
  5
1D15
330
1E
100
AcDbEntity
  8
7
100
AcDbPolyline
 90
        6
 70
     0
 43
0.0098425196850394
 10
38.69488188976378
 20
27.20866141732283
 10
38.71062992125983
 20
27.21358267716535
 10
38.72145669291338
 20
27.22736220472441
 10
38.72145669291338
 20
27.24507874015747
 10
38.71062992125983
 20
27.25885826771653
 10
38.69488188976378
 20
27.26377952755905
  0
LINE
  5
1D1D
330
1E
100
AcDbEntity
  8
7
100
AcDbLine
 10
38.66929133858267
 20
27.20866141732283
 30
0.0
 11
38.69488188976378
 21
27.20866141732283
 31
0.0
  0
LWPOLYLINE
  5
1D1E
330
1E
100
AcDbEntity
  8
7
100
AcDbPolyline
 90
        6
 70
     0
 43
0.0098425196850394
 10
38.66929133858267
 20
27.26377952755905
 10
38.6535433070866
 20
27.25885826771653
 10
38.64271653543307
 20
27.24507874015747
 10
38.64271653543307
 20
27.22736220472441
 10
38.6535433070866
 20
27.21358267716535
 10
38.66929133858267
 20
27.20866141732283
  0
LINE
  5
1D26
330
1E
100
AcDbEntity
  8
7
100
AcDbLine
 10
38.66929133858267
 20
25.86515748031496
 30
0.0
 11
38.69488188976378
 21
25.86515748031496
 31
0.0
  0
LWPOLYLINE
  5
1D27
330
1E
100
AcDbEntity
  8
7
100
AcDbPolyline
 90
        6
 70
     0
 43
0.0098425196850394
 10
38.69488188976378
 20
25.80905511811023
 10
38.71062992125983
 20
25.81397637795275
 10
38.72145669291338
 20
25.82775590551181
 10
38.72145669291338
 20
25.84547244094488
 10
38.71062992125983
 20
25.85925196850393
 10
38.69488188976378
 20
25.86417322834645
  0
LINE
  5
1D2F
330
1E
100
AcDbEntity
  8
7
100
AcDbLine
 10
38.66929133858267
 20
25.80905511811023
 30
0.0
 11
38.69488188976378
 21
25.80905511811023
 31
0.0
  0
LWPOLYLINE
  5
1D30
330
1E
100
AcDbEntity
  8
7
100
AcDbPolyline
 90
        4
 70
     0
 43
0.0098425196850394
 10
38.66929133858267
 20
25.86417322834645
 10
38.6535433070866
 20
25.85925196850393
 10
38.64271653543307
 20
25.84547244094488
 10
38.64271653543307
 20
25.82775590551181
  0
LWPOLYLINE
  5
1D36
330
1E
100
AcDbEntity
  8
7
100
AcDbPolyline
 90
        3
 70
     0
 43
0.0098425196850394
 10
38.64271653543307
 20
25.82775590551181
 10
38.6535433070866
 20
25.81397637795275
 10
38.66929133858267
 20
25.80905511811023
  0
LINE
  5
1D3B
330
1E
100
AcDbEntity
  8
7
100
AcDbLine
 10
35.00492125984251
 20
27.26476377952755
 30
0.0
 11
35.02952755905511
 21
27.26476377952755
 31
0.0
  0
LWPOLYLINE
  5
1D3C
330
1E
100
AcDbEntity
  8
7
100
AcDbPolyline
 90
        6
 70
     0
 43
0.0098425196850394
 10
35.02952755905511
 20
27.20866141732283
 10
35.04527559055118
 20
27.21358267716535
 10
35.05610236220471
 20
27.22736220472441
 10
35.05610236220471
 20
27.24507874015747
 10
35.04527559055118
 20
27.25885826771653
 10
35.02952755905511
 20
27.26377952755905
  0
LINE
  5
1D44
330
1E
100
AcDbEntity
  8
7
100
AcDbLine
 10
35.00492125984251
 20
27.20866141732283
 30
0.0
 11
35.02952755905511
 21
27.20866141732283
 31
0.0
  0
LWPOLYLINE
  5
1D45
330
1E
100
AcDbEntity
  8
7
100
AcDbPolyline
 90
        6
 70
     0
 43
0.0098425196850394
 10
35.00492125984251
 20
27.26377952755905
 10
34.98917322834645
 20
27.25885826771653
 10
34.97834645669291
 20
27.24507874015747
 10
34.97834645669291
 20
27.22736220472441
 10
34.98917322834645
 20
27.21358267716535
 10
35.00492125984251
 20
27.20866141732283
  0
LINE
  5
1D4D
330
1E
100
AcDbEntity
  8
7
100
AcDbLine
 10
35.00492125984251
 20
25.86515748031496
 30
0.0
 11
35.02952755905511
 21
25.86515748031496
 31
0.0
  0
LWPOLYLINE
  5
1D4E
330
1E
100
AcDbEntity
  8
7
100
AcDbPolyline
 90
        6
 70
     0
 43
0.0098425196850394
 10
35.02952755905511
 20
25.80905511811023
 10
35.04527559055118
 20
25.81397637795275
 10
35.05610236220471
 20
25.82775590551181
 10
35.05610236220471
 20
25.84547244094488
 10
35.04527559055118
 20
25.85925196850393
 10
35.02952755905511
 20
25.86417322834645
  0
LINE
  5
1D56
330
1E
100
AcDbEntity
  8
7
100
AcDbLine
 10
35.00492125984251
 20
25.80905511811023
 30
0.0
 11
35.02952755905511
 21
25.80905511811023
 31
0.0
  0
LWPOLYLINE
  5
1D57
330
1E
100
AcDbEntity
  8
7
100
AcDbPolyline
 90
        4
 70
     0
 43
0.0098425196850394
 10
35.00492125984251
 20
25.86417322834645
 10
34.98917322834645
 20
25.85925196850393
 10
34.97834645669291
 20
25.84547244094488
 10
34.97834645669291
 20
25.82775590551181
  0
LWPOLYLINE
  5
1D5D
330
1E
100
AcDbEntity
  8
7
100
AcDbPolyline
 90
        3
 70
     0
 43
0.0098425196850394
 10
34.97834645669291
 20
25.82775590551181
 10
34.98917322834645
 20
25.81397637795275
 10
35.00492125984251
 20
25.80905511811023
  0
LINE
  5
1D62
330
1E
100
AcDbEntity
  8
7
100
AcDbLine
 10
38.75
 20
28.32086614173228
 30
0.0
 11
38.75
 21
25.5521653543307
 31
0.0
  0
LWPOLYLINE
  5
1D63
330
1E
100
AcDbEntity
  8
7
100
AcDbPolyline
 90
        3
 70
     0
 43
0.0098425196850394
 10
38.74901574803149
 20
28.32086614173228
 10
38.74507874015747
 20
28.32874015748031
 10
38.73720472440944
 20
28.33267716535432
  0
LINE
  5
1D68
330
1E
100
AcDbEntity
  8
7
100
AcDbLine
 10
34.96259842519684
 20
28.33366141732283
 30
0.0
 11
38.73720472440944
 21
28.33366141732283
 31
0.0
  0
LWPOLYLINE
  5
1D69
330
1E
100
AcDbEntity
  8
7
100
AcDbPolyline
 90
        3
 70
     0
 43
0.0098425196850394
 10
34.96259842519684
 20
28.33267716535432
 10
34.95472440944881
 20
28.32874015748031
 10
34.9507874015748
 20
28.32086614173228
  0
LINE
  5
1D6E
330
1E
100
AcDbEntity
  8
7
100
AcDbLine
 10
34.94980314960629
 20
25.5521653543307
 30
0.0
 11
34.94980314960629
 21
28.32086614173228
 31
0.0
  0
LWPOLYLINE
  5
1D6F
330
1E
100
AcDbEntity
  8
7
100
AcDbPolyline
 90
        3
 70
     0
 43
0.0098425196850394
 10
34.9507874015748
 20
25.5521653543307
 10
34.95472440944881
 20
25.54429133858267
 10
34.96259842519684
 20
25.54035433070866
  0
LINE
  5
1D74
330
1E
100
AcDbEntity
  8
7
100
AcDbLine
 10
38.73720472440944
 20
25.53937007874015
 30
0.0
 11
34.96259842519684
 21
25.53937007874015
 31
0.0
  0
LWPOLYLINE
  5
1D75
330
1E
100
AcDbEntity
  8
7
100
AcDbPolyline
 90
        3
 70
     0
 43
0.0098425196850394
 10
38.73720472440944
 20
25.54035433070866
 10
38.74507874015747
 20
25.54429133858267
 10
38.74901574803149
 20
25.5521653543307
  0
LINE
  5
1D7A
330
1E
100
AcDbEntity
  8
3
100
AcDbLine
 10
36.67125984251968
 20
25.59940944881889
 30
0.0
 11
36.67125984251968
 21
25.68405511811023
 31
0.0
  0
LINE
  5
1D7B
330
1E
100
AcDbEntity
  8
3
100
AcDbLine
 10
37.0275590551181
 20
25.68405511811023
 30
0.0
 11
37.0275590551181
 21
25.59940944881889
 31
0.0
  0
LINE
  5
1D7C
330
1E
100
AcDbEntity
  8
3
100
AcDbLine
 10
37.0275590551181
 20
25.68405511811023
 30
0.0
 11
36.67125984251968
 21
25.68405511811023
 31
0.0
  0
LINE
  5
1D7D
330
1E
100
AcDbEntity
  8
3
100
AcDbLine
 10
37.0275590551181
 20
25.59940944881889
 30
0.0
 11
36.67125984251968
 21
25.59940944881889
 31
0.0
  0
LINE
  5
1D7E
330
1E
100
AcDbEntity
  8
3
100
AcDbLine
 10
36.77263779527558
 20
25.68405511811023
 30
0.0
 11
36.77263779527558
 21
25.59940944881889
 31
0.0
  0
LWPOLYLINE
  5
1D7F
330
1E
100
AcDbEntity
  8
3
100
AcDbPolyline
 90
        3
 70
     0
 43
0.0098425196850394
 10
36.86318897637795
 20
25.62795275590551
 10
36.8523622047244
 20
25.65452755905511
 10
36.84055118110235
 20
25.65452755905511
  0
LWPOLYLINE
  5
1D84
330
1E
100
AcDbEntity
  8
3
100
AcDbPolyline
 90
        4
 70
     0
 43
0.0098425196850394
 10
36.74114173228346
 20
25.6525590551181
 10
36.74114173228346
 20
25.65452755905511
 10
36.74114173228346
 20
25.65551181102362
 10
36.74114173228346
 20
25.65649606299212
  0
ARC
  5
1D8A
330
1E
100
AcDbEntity
  8
3
100
AcDbCircle
 10
36.72025713582677
 20
25.65212844488188
 30
0.0
 40
0.0213364115332399
100
AcDbArc
 50
11.81189001257979
 51
81.45970159048932
  0
LWPOLYLINE
  5
1D8B
330
1E
100
AcDbEntity
  8
3
100
AcDbPolyline
 90
       18
 70
     0
 43
0.0098425196850394
 10
36.72342519685039
 20
25.67322834645668
 10
36.72244094488188
 20
25.67322834645668
 10
36.72047244094487
 20
25.67322834645668
 10
36.71948818897637
 20
25.67322834645668
 10
36.71850393700786
 20
25.67322834645668
 10
36.71653543307086
 20
25.67224409448818
 10
36.71555118110235
 20
25.67224409448818
 10
36.71456692913385
 20
25.67224409448818
 10
36.71358267716534
 20
25.67125984251968
 10
36.71259842519684
 20
25.67125984251968
 10
36.71062992125984
 20
25.67027559055118
 10
36.70964566929133
 20
25.66929133858267
 10
36.70866141732282
 20
25.66929133858267
 10
36.70767716535432
 20
25.66830708661417
 10
36.70669291338582
 20
25.66732283464566
 10
36.70570866141732
 20
25.66633858267716
 10
36.70472440944881
 20
25.66535433070866
 10
36.70472440944881
 20
25.66437007874015
  0
LWPOLYLINE
  5
1D9F
330
1E
100
AcDbEntity
  8
3
100
AcDbPolyline
 90
       19
 70
     0
 43
0.0098425196850394
 10
36.70472440944881
 20
25.66437007874015
 10
36.70374015748031
 20
25.66338582677165
 10
36.70275590551181
 20
25.66240157480315
 10
36.70275590551181
 20
25.66141732283464
 10
36.7017716535433
 20
25.65944881889763
 10
36.7017716535433
 20
25.65846456692913
 10
36.7017716535433
 20
25.65748031496063
 10
36.7007874015748
 20
25.65649606299212
 10
36.7007874015748
 20
25.65452755905511
 10
36.7007874015748
 20
25.65354330708661
 10
36.7007874015748
 20
25.6525590551181
 10
36.7007874015748
 20
25.6505905511811
 10
36.7007874015748
 20
25.64960629921259
 10
36.7017716535433
 20
25.64862204724409
 10
36.7017716535433
 20
25.64665354330708
 10
36.7017716535433
 20
25.64566929133858
 10
36.70275590551181
 20
25.64468503937007
 10
36.70275590551181
 20
25.64370078740157
 10
36.70374015748031
 20
25.64271653543307
  0
ARC
  5
1DB4
330
1E
100
AcDbEntity
  8
3
100
AcDbCircle
 10
36.72047244094487
 20
25.65141076115485
 30
0.0
 40
0.0188562687411897
100
AcDbArc
 50
207.4532639804461
 51
291.4262822610627
  0
ARC
  5
1DB5
330
1E
100
AcDbEntity
  8
3
100
AcDbCircle
 10
36.72164926395069
 20
25.65249486477233
 30
0.0
 40
0.0194925740245932
100
AcDbArc
 50
287.0378057059733
 51
0.1886760019946572
  0
LWPOLYLINE
  5
1DB6
330
1E
100
AcDbEntity
  8
3
100
AcDbPolyline
 90
       11
 70
     0
 43
0.0098425196850394
 10
36.98720472440944
 20
25.5777559055118
 10
36.98720472440944
 20
25.59547244094488
 10
36.99507874015747
 20
25.59547244094488
 10
37.0009842519685
 20
25.58464566929133
 10
37.0009842519685
 20
25.59547244094488
 10
37.00787401574803
 20
25.59547244094488
 10
37.00787401574803
 20
25.5777559055118
 10
37.0
 20
25.5777559055118
 10
36.99311023622046
 20
25.58759842519684
 10
36.99311023622046
 20
25.5777559055118
 10
36.98720472440944
 20
25.5777559055118
  0
LWPOLYLINE
  5
1DC3
330
1E
100
AcDbEntity
  8
3
100
AcDbPolyline
 90
        8
 70
     0
 43
0.0098425196850394
 10
37.01574803149606
 20
25.5777559055118
 10
37.01574803149606
 20
25.59055118110236
 10
37.00984251968503
 20
25.59055118110236
 10
37.00984251968503
 20
25.59547244094488
 10
37.0285433070866
 20
25.59547244094488
 10
37.0285433070866
 20
25.59055118110236
 10
37.02263779527558
 20
25.59055118110236
 10
37.02263779527558
 20
25.5777559055118
  0
LINE
  5
1DCD
330
1E
100
AcDbEntity
  8
3
100
AcDbLine
 10
37.02263779527558
 20
25.5777559055118
 30
0.0
 11
37.01574803149606
 21
25.5777559055118
 31
0.0
  0
LWPOLYLINE
  5
1DCE
330
1E
100
AcDbEntity
  8
3
100
AcDbPolyline
 90
        4
 70
     0
 43
0.0098425196850394
 10
36.8759842519685
 20
25.58366141732283
 10
36.88090551181102
 20
25.58366141732283
 10
36.87893700787401
 20
25.58956692913385
 10
36.8759842519685
 20
25.58366141732283
  0
LWPOLYLINE
  5
1DD4
330
1E
100
AcDbEntity
  8
3
100
AcDbPolyline
 90
       13
 70
     0
 43
0.0098425196850394
 10
36.81200787401574
 20
25.65846456692913
 10
36.81200787401574
 20
25.63976377952755
 10
36.81594488188976
 20
25.63976377952755
 10
36.81692913385826
 20
25.63976377952755
 10
36.81692913385826
 20
25.64074803149606
 10
36.81791338582677
 20
25.64074803149606
 10
36.81791338582677
 20
25.64173228346456
 10
36.81889763779527
 20
25.64271653543307
 10
36.81889763779527
 20
25.65649606299212
 10
36.81791338582677
 20
25.65649606299212
 10
36.81791338582677
 20
25.65748031496063
 10
36.81791338582677
 20
25.65846456692913
 10
36.81692913385826
 20
25.65846456692913
  0
LWPOLYLINE
  5
1DE3
330
1E
100
AcDbEntity
  8
3
100
AcDbPolyline
 90
        3
 70
     0
 43
0.0098425196850394
 10
36.81692913385826
 20
25.65846456692913
 10
36.81594488188976
 20
25.65846456692913
 10
36.81200787401574
 20
25.65846456692913
  0
LWPOLYLINE
  5
1DE8
330
1E
100
AcDbEntity
  8
3
100
AcDbPolyline
 90
       13
 70
     0
 43
0.0098425196850394
 10
36.91535433070866
 20
25.5777559055118
 10
36.91535433070866
 20
25.59547244094488
 10
36.93405511811023
 20
25.59547244094488
 10
36.93405511811023
 20
25.59055118110236
 10
36.92224409448818
 20
25.59055118110236
 10
36.92224409448818
 20
25.58858267716535
 10
36.93208661417322
 20
25.58858267716535
 10
36.93208661417322
 20
25.58464566929133
 10
36.92224409448818
 20
25.58464566929133
 10
36.92224409448818
 20
25.58267716535433
 10
36.93405511811023
 20
25.58267716535433
 10
36.93405511811023
 20
25.5777559055118
 10
36.91535433070866
 20
25.5777559055118
  0
LWPOLYLINE
  5
1DF7
330
1E
100
AcDbEntity
  8
3
100
AcDbPolyline
 90
       20
 70
     0
 43
0.0098425196850394
 10
36.89960629921259
 20
25.65452755905511
 10
36.92421259842519
 20
25.65452755905511
 10
36.9251968503937
 20
25.65452755905511
 10
36.9261811023622
 20
25.65452755905511
 10
36.9271653543307
 20
25.65452755905511
 10
36.9281496062992
 20
25.65354330708661
 10
36.92913385826771
 20
25.6525590551181
 10
36.93011811023621
 20
25.6515748031496
 10
36.93011811023621
 20
25.6505905511811
 10
36.93110236220471
 20
25.6505905511811
 10
36.93110236220471
 20
25.64960629921259
 10
36.93110236220471
 20
25.64862204724409
 10
36.93110236220471
 20
25.62007874015748
 10
36.93110236220471
 20
25.61909448818897
 10
36.93011811023621
 20
25.61811023622047
 10
36.93011811023621
 20
25.61712598425196
 10
36.92913385826771
 20
25.61614173228346
 10
36.9281496062992
 20
25.61515748031496
 10
36.9271653543307
 20
25.61515748031496
 10
36.9251968503937
 20
25.61515748031496
  0
LWPOLYLINE
  5
1E0D
330
1E
100
AcDbEntity
  8
3
100
AcDbPolyline
 90
        4
 70
     0
 43
0.0098425196850394
 10
36.9251968503937
 20
25.61515748031496
 10
36.92421259842519
 20
25.61515748031496
 10
36.89960629921259
 20
25.61515748031496
 10
36.89960629921259
 20
25.65452755905511
  0
LWPOLYLINE
  5
1E13
330
1E
100
AcDbEntity
  8
3
100
AcDbPolyline
 90
       14
 70
     0
 43
0.0098425196850394
 10
36.68700787401574
 20
25.58759842519684
 10
36.68700787401574
 20
25.58858267716535
 10
36.68700787401574
 20
25.58956692913385
 10
36.68602362204723
 20
25.58956692913385
 10
36.68602362204723
 20
25.59055118110236
 10
36.68503937007873
 20
25.59055118110236
 10
36.68405511811023
 20
25.59055118110236
 10
36.68307086614172
 20
25.59055118110236
 10
36.68208661417322
 20
25.59055118110236
 10
36.68110236220472
 20
25.59055118110236
 10
36.68011811023621
 20
25.58956692913385
 10
36.67913385826771
 20
25.58858267716535
 10
36.67913385826771
 20
25.58759842519684
 10
36.67913385826771
 20
25.58661417322834
  0
LWPOLYLINE
  5
1E23
330
1E
100
AcDbEntity
  8
3
100
AcDbPolyline
 90
       21
 70
     0
 43
0.0098425196850394
 10
36.67913385826771
 20
25.58661417322834
 10
36.67913385826771
 20
25.58562992125984
 10
36.67913385826771
 20
25.58464566929133
 10
36.68011811023621
 20
25.58366141732283
 10
36.68011811023621
 20
25.58267716535433
 10
36.68110236220472
 20
25.58267716535433
 10
36.68110236220472
 20
25.58169291338582
 10
36.68208661417322
 20
25.58169291338582
 10
36.68307086614172
 20
25.58169291338582
 10
36.68405511811023
 20
25.58169291338582
 10
36.68503937007873
 20
25.58169291338582
 10
36.68602362204723
 20
25.58267716535433
 10
36.68700787401574
 20
25.58366141732283
 10
36.68700787401574
 20
25.58464566929133
 10
36.69488188976377
 20
25.58464566929133
 10
36.69488188976377
 20
25.58366141732283
 10
36.69488188976377
 20
25.58267716535433
 10
36.69389763779527
 20
25.58267716535433
 10
36.69389763779527
 20
25.58169291338582
 10
36.69291338582677
 20
25.57972440944881
 10
36.69192913385826
 20
25.57972440944881
  0
LWPOLYLINE
  5
1E3A
330
1E
100
AcDbEntity
  8
3
100
AcDbPolyline
 90
       20
 70
     0
 43
0.0098425196850394
 10
36.69192913385826
 20
25.57972440944881
 10
36.69192913385826
 20
25.57874015748031
 10
36.69094488188976
 20
25.57874015748031
 10
36.68996062992126
 20
25.57874015748031
 10
36.68799212598425
 20
25.5777559055118
 10
36.68700787401574
 20
25.5777559055118
 10
36.68503937007873
 20
25.5777559055118
 10
36.68307086614172
 20
25.5777559055118
 10
36.68208661417322
 20
25.5777559055118
 10
36.68110236220472
 20
25.5777559055118
 10
36.67913385826771
 20
25.5777559055118
 10
36.6781496062992
 20
25.5777559055118
 10
36.6771653543307
 20
25.57874015748031
 10
36.67519685039369
 20
25.57874015748031
 10
36.67519685039369
 20
25.57972440944881
 10
36.67421259842519
 20
25.57972440944881
 10
36.67322834645668
 20
25.58070866141732
 10
36.67224409448818
 20
25.58267716535433
 10
36.67224409448818
 20
25.58366141732283
 10
36.67224409448818
 20
25.58464566929133
  0
ARC
  5
1E50
330
1E
100
AcDbEntity
  8
3
100
AcDbCircle
 10
36.6843481818986
 20
25.58407613023091
 30
0.0
 40
0.0121174793905534
100
AcDbArc
 50
37.99358900950085
 51
177.3030527937993
  0
LWPOLYLINE
  5
1E51
330
1E
100
AcDbEntity
  8
3
100
AcDbPolyline
 90
        5
 70
     0
 43
0.0098425196850394
 10
36.69389763779527
 20
25.59153543307086
 10
36.69389763779527
 20
25.59055118110236
 10
36.69488188976377
 20
25.58956692913385
 10
36.69488188976377
 20
25.58759842519684
 10
36.68700787401574
 20
25.58759842519684
  0
LWPOLYLINE
  5
1E58
330
1E
100
AcDbEntity
  8
3
100
AcDbPolyline
 90
       13
 70
     0
 43
0.0098425196850394
 10
36.96555118110235
 20
25.5777559055118
 10
36.96555118110235
 20
25.59547244094488
 10
36.98425196850393
 20
25.59547244094488
 10
36.98425196850393
 20
25.59055118110236
 10
36.97244094488189
 20
25.59055118110236
 10
36.97244094488189
 20
25.58858267716535
 10
36.98228346456692
 20
25.58858267716535
 10
36.98228346456692
 20
25.58464566929133
 10
36.97244094488189
 20
25.58464566929133
 10
36.97244094488189
 20
25.58267716535433
 10
36.98425196850393
 20
25.58267716535433
 10
36.98425196850393
 20
25.5777559055118
 10
36.96555118110235
 20
25.5777559055118
  0
LWPOLYLINE
  5
1E67
330
1E
100
AcDbEntity
  8
3
100
AcDbPolyline
 90
       17
 70
     0
 43
0.0098425196850394
 10
36.74015748031495
 20
25.64566929133858
 10
36.73720472440944
 20
25.64370078740157
 10
36.73622047244094
 20
25.64271653543307
 10
36.73326771653543
 20
25.64271653543307
 10
36.72933070866141
 20
25.64074803149606
 10
36.7263779527559
 20
25.64074803149606
 10
36.72342519685039
 20
25.63976377952755
 10
36.71948818897637
 20
25.63976377952755
 10
36.71653543307086
 20
25.63976377952755
 10
36.71259842519684
 20
25.64074803149606
 10
36.70964566929133
 20
25.64173228346456
 10
36.70570866141732
 20
25.64370078740157
 10
36.7017716535433
 20
25.64566929133858
 10
36.70275590551181
 20
25.64665354330708
 10
36.70570866141732
 20
25.64468503937007
 10
36.70964566929133
 20
25.64271653543307
 10
36.71358267716534
 20
25.64173228346456
  0
LWPOLYLINE
  5
1E7A
330
1E
100
AcDbEntity
  8
3
100
AcDbPolyline
 90
       11
 70
     0
 43
0.0098425196850394
 10
36.71358267716534
 20
25.64173228346456
 10
36.71653543307086
 20
25.64074803149606
 10
36.71948818897637
 20
25.64074803149606
 10
36.72342519685039
 20
25.64074803149606
 10
36.7253937007874
 20
25.64074803149606
 10
36.72834645669291
 20
25.64173228346456
 10
36.73326771653543
 20
25.64370078740157
 10
36.73523622047243
 20
25.64370078740157
 10
36.73720472440944
 20
25.64468503937007
 10
36.74015748031495
 20
25.64665354330708
 10
36.74015748031495
 20
25.64566929133858
  0
LWPOLYLINE
  5
1E87
330
1E
100
AcDbEntity
  8
3
100
AcDbPolyline
 90
        9
 70
     0
 43
0.0098425196850394
 10
36.69488188976377
 20
25.5777559055118
 10
36.7017716535433
 20
25.59547244094488
 10
36.71062992125984
 20
25.59547244094488
 10
36.71751968503936
 20
25.5777559055118
 10
36.71062992125984
 20
25.5777559055118
 10
36.70964566929133
 20
25.57972440944881
 10
36.70275590551181
 20
25.57972440944881
 10
36.7017716535433
 20
25.5777559055118
 10
36.69488188976377
 20
25.5777559055118
  0
LWPOLYLINE
  5
1E92
330
1E
100
AcDbEntity
  8
3
100
AcDbPolyline
 90
       20
 70
     0
 43
0.0098425196850394
 10
36.7253937007874
 20
25.63385826771653
 10
36.72933070866141
 20
25.63779527559054
 10
36.73129921259842
 20
25.63877952755905
 10
36.73228346456692
 20
25.64074803149606
 10
36.73425196850393
 20
25.64468503937007
 10
36.73523622047243
 20
25.64665354330708
 10
36.73622047244094
 20
25.64763779527559
 10
36.73622047244094
 20
25.6515748031496
 10
36.73622047244094
 20
25.65452755905511
 10
36.73523622047243
 20
25.65748031496063
 10
36.73425196850393
 20
25.66043307086614
 10
36.73326771653543
 20
25.66240157480315
 10
36.73228346456692
 20
25.66535433070866
 10
36.72933070866141
 20
25.66929133858267
 10
36.7273622047244
 20
25.67027559055118
 10
36.7263779527559
 20
25.67125984251968
 10
36.7253937007874
 20
25.67224409448818
 10
36.7263779527559
 20
25.67322834645668
 10
36.7273622047244
 20
25.67224409448818
 10
36.72834645669291
 20
25.67125984251968
  0
LWPOLYLINE
  5
1EA8
330
1E
100
AcDbEntity
  8
3
100
AcDbPolyline
 90
       17
 70
     0
 43
0.0098425196850394
 10
36.72834645669291
 20
25.67125984251968
 10
36.72933070866141
 20
25.66929133858267
 10
36.73228346456692
 20
25.66633858267716
 10
36.73425196850393
 20
25.66338582677165
 10
36.73523622047243
 20
25.66043307086614
 10
36.73622047244094
 20
25.65748031496063
 10
36.73720472440944
 20
25.65452755905511
 10
36.73720472440944
 20
25.6515748031496
 10
36.73720472440944
 20
25.64763779527559
 10
36.73622047244094
 20
25.64566929133858
 10
36.73523622047243
 20
25.64370078740157
 10
36.73425196850393
 20
25.64271653543307
 10
36.73326771653543
 20
25.64074803149606
 10
36.73228346456692
 20
25.63877952755905
 10
36.73031496062991
 20
25.63681102362204
 10
36.7263779527559
 20
25.63287401574803
 10
36.7253937007874
 20
25.63385826771653
  0
LWPOLYLINE
  5
1EBB
330
1E
100
AcDbEntity
  8
3
100
AcDbPolyline
 90
        5
 70
     0
 43
0.0098425196850394
 10
36.96850393700787
 20
25.65452755905511
 10
36.98129921259842
 20
25.65452755905511
 10
36.98129921259842
 20
25.61417322834645
 10
36.96850393700787
 20
25.61417322834645
 10
36.96850393700787
 20
25.65452755905511
  0
LWPOLYLINE
  5
1EC2
330
1E
100
AcDbEntity
  8
3
100
AcDbPolyline
 90
       13
 70
     0
 43
0.0098425196850394
 10
36.73228346456692
 20
25.59448818897637
 10
36.73425196850393
 20
25.59448818897637
 10
36.73523622047243
 20
25.59448818897637
 10
36.73720472440944
 20
25.59448818897637
 10
36.73818897637795
 20
25.59350393700787
 10
36.73917322834645
 20
25.59251968503936
 10
36.73917322834645
 20
25.59153543307086
 10
36.73917322834645
 20
25.59055118110236
 10
36.73917322834645
 20
25.58956692913385
 10
36.73917322834645
 20
25.58858267716535
 10
36.73818897637795
 20
25.58759842519684
 10
36.73720472440944
 20
25.58759842519684
 10
36.73720472440944
 20
25.58661417322834
  0
LWPOLYLINE
  5
1ED1
330
1E
100
AcDbEntity
  8
3
100
AcDbPolyline
 90
       18
 70
     0
 43
0.0098425196850394
 10
36.73720472440944
 20
25.58661417322834
 10
36.73818897637795
 20
25.58661417322834
 10
36.73917322834645
 20
25.58562992125984
 10
36.73917322834645
 20
25.58464566929133
 10
36.74015748031495
 20
25.58464566929133
 10
36.74015748031495
 20
25.58366141732283
 10
36.74015748031495
 20
25.58267716535433
 10
36.74015748031495
 20
25.58169291338582
 10
36.74015748031495
 20
25.58070866141732
 10
36.73917322834645
 20
25.58070866141732
 10
36.73917322834645
 20
25.57972440944881
 10
36.73818897637795
 20
25.57874015748031
 10
36.73720472440944
 20
25.57874015748031
 10
36.73523622047243
 20
25.5777559055118
 10
36.73326771653543
 20
25.5777559055118
 10
36.71850393700786
 20
25.5777559055118
 10
36.71850393700786
 20
25.59448818897637
 10
36.73228346456692
 20
25.59448818897637
  0
LWPOLYLINE
  5
1EE5
330
1E
100
AcDbEntity
  8
3
100
AcDbPolyline
 90
       11
 70
     0
 43
0.0098425196850394
 10
36.84448818897637
 20
25.5777559055118
 10
36.84448818897637
 20
25.59547244094488
 10
36.8523622047244
 20
25.59547244094488
 10
36.85925196850393
 20
25.58464566929133
 10
36.85925196850393
 20
25.59547244094488
 10
36.86614173228345
 20
25.59547244094488
 10
36.86614173228345
 20
25.5777559055118
 10
36.85826771653543
 20
25.5777559055118
 10
36.8513779527559
 20
25.58759842519684
 10
36.8513779527559
 20
25.5777559055118
 10
36.84448818897637
 20
25.5777559055118
  0
LWPOLYLINE
  5
1EF2
330
1E
100
AcDbEntity
  8
3
100
AcDbPolyline
 90
        7
 70
     0
 43
0.0098425196850394
 10
36.74311023622046
 20
25.5777559055118
 10
36.74311023622046
 20
25.59547244094488
 10
36.74901574803149
 20
25.59547244094488
 10
36.74901574803149
 20
25.58267716535433
 10
36.75984251968503
 20
25.58267716535433
 10
36.75984251968503
 20
25.5777559055118
 10
36.74311023622046
 20
25.5777559055118
  0
LWPOLYLINE
  5
1EFB
330
1E
100
AcDbEntity
  8
3
100
AcDbPolyline
 90
        9
 70
     0
 43
0.0098425196850394
 10
36.87401574803149
 20
25.61417322834645
 10
36.87401574803149
 20
25.62992125984251
 10
36.87992125984251
 20
25.61417322834645
 10
36.89468503937007
 20
25.61417322834645
 10
36.89468503937007
 20
25.65452755905511
 10
36.88385826771653
 20
25.65452755905511
 10
36.88385826771653
 20
25.63976377952755
 10
36.87795275590551
 20
25.65452755905511
 10
36.86318897637795
 20
25.65452755905511
  0
LWPOLYLINE
  5
1F06
330
1E
100
AcDbEntity
  8
3
100
AcDbPolyline
 90
        6
 70
     0
 43
0.0098425196850394
 10
36.72047244094487
 20
25.67224409448818
 10
36.71850393700786
 20
25.66830708661417
 10
36.71653543307086
 20
25.66437007874015
 10
36.71555118110235
 20
25.66141732283464
 10
36.71555118110235
 20
25.65944881889763
 10
36.71456692913385
 20
25.65551181102362
  0
LWPOLYLINE
  5
1F0E
330
1E
100
AcDbEntity
  8
3
100
AcDbPolyline
 90
       21
 70
     0
 43
0.0098425196850394
 10
36.71456692913385
 20
25.65551181102362
 10
36.71456692913385
 20
25.6525590551181
 10
36.71456692913385
 20
25.64960629921259
 10
36.71456692913385
 20
25.64566929133858
 10
36.71555118110235
 20
25.64271653543307
 10
36.71653543307086
 20
25.63976377952755
 10
36.71850393700786
 20
25.63681102362204
 10
36.72047244094487
 20
25.63287401574803
 10
36.71948818897637
 20
25.63287401574803
 10
36.71751968503936
 20
25.63582677165354
 10
36.71555118110235
 20
25.63877952755905
 10
36.71456692913385
 20
25.64271653543307
 10
36.71358267716534
 20
25.64566929133858
 10
36.71358267716534
 20
25.64960629921259
 10
36.71358267716534
 20
25.6525590551181
 10
36.71358267716534
 20
25.65649606299212
 10
36.71456692913385
 20
25.65944881889763
 10
36.71456692913385
 20
25.66240157480315
 10
36.71555118110235
 20
25.66437007874015
 10
36.71751968503936
 20
25.66929133858267
 10
36.71948818897637
 20
25.67322834645668
  0
LINE
  5
1F25
330
1E
100
AcDbEntity
  8
3
100
AcDbLine
 10
36.71948818897637
 20
25.67322834645668
 30
0.0
 11
36.72047244094487
 21
25.67224409448818
 31
0.0
  0
LWPOLYLINE
  5
1F26
330
1E
100
AcDbEntity
  8
3
100
AcDbPolyline
 90
       17
 70
     0
 43
0.0098425196850394
 10
36.72244094488188
 20
25.67322834645668
 10
36.72440944881889
 20
25.66929133858267
 10
36.7263779527559
 20
25.66633858267716
 10
36.72834645669291
 20
25.66043307086614
 10
36.72834645669291
 20
25.65748031496063
 10
36.72933070866141
 20
25.65452755905511
 10
36.72933070866141
 20
25.6515748031496
 10
36.72834645669291
 20
25.64763779527559
 10
36.72834645669291
 20
25.64468503937007
 10
36.7263779527559
 20
25.64074803149606
 10
36.7253937007874
 20
25.63681102362204
 10
36.72244094488188
 20
25.63287401574803
 10
36.72145669291338
 20
25.63287401574803
 10
36.72440944881889
 20
25.63681102362204
 10
36.7263779527559
 20
25.64074803149606
 10
36.7273622047244
 20
25.64468503937007
 10
36.7273622047244
 20
25.64763779527559
  0
LWPOLYLINE
  5
1F39
330
1E
100
AcDbEntity
  8
3
100
AcDbPolyline
 90
        9
 70
     0
 43
0.0098425196850394
 10
36.7273622047244
 20
25.64763779527559
 10
36.72834645669291
 20
25.6515748031496
 10
36.72834645669291
 20
25.65452755905511
 10
36.7273622047244
 20
25.65748031496063
 10
36.7273622047244
 20
25.66043307086614
 10
36.7253937007874
 20
25.66535433070866
 10
36.72342519685039
 20
25.66929133858267
 10
36.72145669291338
 20
25.67224409448818
 10
36.72244094488188
 20
25.67322834645668
  0
LWPOLYLINE
  5
1F44
330
1E
100
AcDbEntity
  8
3
100
AcDbPolyline
 90
       10
 70
     0
 43
0.0098425196850394
 10
36.79429133858267
 20
25.5777559055118
 10
36.79429133858267
 20
25.59547244094488
 10
36.80413385826771
 20
25.59547244094488
 10
36.80708661417322
 20
25.58464566929133
 10
36.81003937007873
 20
25.59547244094488
 10
36.81988188976378
 20
25.59547244094488
 10
36.81988188976378
 20
25.5777559055118
 10
36.81397637795275
 20
25.5777559055118
 10
36.81397637795275
 20
25.59153543307086
 10
36.80905511811022
 20
25.5777559055118
  0
LWPOLYLINE
  5
1F50
330
1E
100
AcDbEntity
  8
3
100
AcDbPolyline
 90
        5
 70
     0
 43
0.0098425196850394
 10
36.80905511811022
 20
25.5777559055118
 10
36.80413385826771
 20
25.5777559055118
 10
36.80019685039369
 20
25.59153543307086
 10
36.80019685039369
 20
25.5777559055118
 10
36.79429133858267
 20
25.5777559055118
  0
LWPOLYLINE
  5
1F57
330
1E
100
AcDbEntity
  8
3
100
AcDbPolyline
 90
        9
 70
     0
 43
0.0098425196850394
 10
37.03740157480314
 20
25.68405511811023
 10
37.03543307086614
 20
25.68405511811023
 10
37.03543307086614
 20
25.67913385826771
 10
37.03444881889764
 20
25.67913385826771
 10
37.03444881889764
 20
25.68405511811023
 10
37.03248031496062
 20
25.68405511811023
 10
37.03248031496062
 20
25.68503937007873
 10
37.03740157480314
 20
25.68503937007873
 10
37.03740157480314
 20
25.68405511811023
  0
LWPOLYLINE
  5
1F62
330
1E
100
AcDbEntity
  8
3
100
AcDbPolyline
 90
        3
 70
     0
 43
0.0098425196850394
 10
36.99212598425196
 20
25.61417322834645
 10
36.99212598425196
 20
25.64665354330708
 10
36.98326771653543
 20
25.64665354330708
  0
LWPOLYLINE
  5
1F67
330
1E
100
AcDbEntity
  8
3
100
AcDbPolyline
 90
        7
 70
     0
 43
0.0098425196850394
 10
36.98326771653543
 20
25.64665354330708
 10
36.98326771653543
 20
25.65452755905511
 10
37.01279527559055
 20
25.65452755905511
 10
37.01279527559055
 20
25.64665354330708
 10
37.00393700787401
 20
25.64665354330708
 10
37.00393700787401
 20
25.61417322834645
 10
36.99212598425196
 20
25.61417322834645
  0
LWPOLYLINE
  5
1F70
330
1E
100
AcDbEntity
  8
3
100
AcDbPolyline
 90
       13
 70
     0
 43
0.0098425196850394
 10
36.91338582677165
 20
25.64566929133858
 10
36.91338582677165
 20
25.62401574803149
 10
36.91732283464566
 20
25.62401574803149
 10
36.91830708661417
 20
25.625
 10
36.91929133858267
 20
25.625
 10
36.91929133858267
 20
25.6259842519685
 10
36.91929133858267
 20
25.62696850393701
 10
36.91929133858267
 20
25.64370078740157
 10
36.91929133858267
 20
25.64468503937007
 10
36.91830708661417
 20
25.64468503937007
 10
36.91830708661417
 20
25.64566929133858
 10
36.91732283464566
 20
25.64566929133858
 10
36.91338582677165
 20
25.64566929133858
  0
LWPOLYLINE
  5
1F7F
330
1E
100
AcDbEntity
  8
3
100
AcDbPolyline
 90
       10
 70
     0
 43
0.0098425196850394
 10
36.7253937007874
 20
25.58169291338582
 10
36.73031496062991
 20
25.58169291338582
 10
36.73129921259842
 20
25.58169291338582
 10
36.73228346456692
 20
25.58267716535433
 10
36.73228346456692
 20
25.58366141732283
 10
36.73228346456692
 20
25.58464566929133
 10
36.73129921259842
 20
25.58464566929133
 10
36.73031496062991
 20
25.58464566929133
 10
36.7253937007874
 20
25.58464566929133
 10
36.7253937007874
 20
25.58169291338582
  0
LWPOLYLINE
  5
1F8B
330
1E
100
AcDbEntity
  8
3
100
AcDbPolyline
 90
        9
 70
     0
 43
0.0098425196850394
 10
36.74114173228346
 20
25.6525590551181
 10
36.74114173228346
 20
25.65452755905511
 10
36.74114173228346
 20
25.65551181102362
 10
36.74114173228346
 20
25.65649606299212
 10
36.74015748031495
 20
25.65748031496063
 10
36.74015748031495
 20
25.65944881889763
 10
36.73917322834645
 20
25.66043307086614
 10
36.73917322834645
 20
25.66141732283464
 10
36.73818897637795
 20
25.66240157480315
  0
LWPOLYLINE
  5
1F96
330
1E
100
AcDbEntity
  8
3
100
AcDbPolyline
 90
       20
 70
     0
 43
0.0098425196850394
 10
36.73818897637795
 20
25.66240157480315
 10
36.73818897637795
 20
25.66338582677165
 10
36.73720472440944
 20
25.66437007874015
 10
36.73622047244094
 20
25.66535433070866
 10
36.73523622047243
 20
25.66633858267716
 10
36.73425196850393
 20
25.66732283464566
 10
36.73326771653543
 20
25.66830708661417
 10
36.73228346456692
 20
25.66929133858267
 10
36.73129921259842
 20
25.66929133858267
 10
36.73031496062991
 20
25.67027559055118
 10
36.72933070866141
 20
25.67125984251968
 10
36.72834645669291
 20
25.67125984251968
 10
36.7273622047244
 20
25.67224409448818
 10
36.7253937007874
 20
25.67224409448818
 10
36.72440944881889
 20
25.67224409448818
 10
36.72342519685039
 20
25.67224409448818
 10
36.72244094488188
 20
25.67224409448818
 10
36.72047244094487
 20
25.67224409448818
 10
36.71948818897637
 20
25.67224409448818
 10
36.71850393700786
 20
25.67224409448818
  0
LWPOLYLINE
  5
1FAC
330
1E
100
AcDbEntity
  8
3
100
AcDbPolyline
 90
       18
 70
     0
 43
0.0098425196850394
 10
36.71850393700786
 20
25.67224409448818
 10
36.71751968503936
 20
25.67224409448818
 10
36.71555118110235
 20
25.67224409448818
 10
36.71456692913385
 20
25.67125984251968
 10
36.71358267716534
 20
25.67125984251968
 10
36.71259842519684
 20
25.67027559055118
 10
36.71161417322834
 20
25.67027559055118
 10
36.71062992125984
 20
25.66929133858267
 10
36.70866141732282
 20
25.66830708661417
 10
36.70767716535432
 20
25.66830708661417
 10
36.70767716535432
 20
25.66732283464566
 10
36.70669291338582
 20
25.66633858267716
 10
36.70570866141732
 20
25.66535433070866
 10
36.70472440944881
 20
25.66437007874015
 10
36.70374015748031
 20
25.66338582677165
 10
36.70374015748031
 20
25.66141732283464
 10
36.70275590551181
 20
25.66043307086614
 10
36.70275590551181
 20
25.65944881889763
  0
LWPOLYLINE
  5
1FC0
330
1E
100
AcDbEntity
  8
3
100
AcDbPolyline
 90
       20
 70
     0
 43
0.0098425196850394
 10
36.70275590551181
 20
25.65944881889763
 10
36.7017716535433
 20
25.65846456692913
 10
36.7017716535433
 20
25.65748031496063
 10
36.7017716535433
 20
25.65551181102362
 10
36.7017716535433
 20
25.65452755905511
 10
36.7017716535433
 20
25.65354330708661
 10
36.7017716535433
 20
25.6525590551181
 10
36.7017716535433
 20
25.6505905511811
 10
36.7017716535433
 20
25.64960629921259
 10
36.7017716535433
 20
25.64862204724409
 10
36.7017716535433
 20
25.64763779527559
 10
36.70275590551181
 20
25.64566929133858
 10
36.70275590551181
 20
25.64468503937007
 10
36.70374015748031
 20
25.64370078740157
 10
36.70374015748031
 20
25.64271653543307
 10
36.70472440944881
 20
25.64173228346456
 10
36.70570866141732
 20
25.64074803149606
 10
36.70669291338582
 20
25.63976377952755
 10
36.70767716535432
 20
25.63877952755905
 10
36.70767716535432
 20
25.63779527559054
  0
ARC
  5
1FD6
330
1E
100
AcDbEntity
  8
3
100
AcDbCircle
 10
36.72047244094487
 20
25.651968503937
 30
0.0
 40
0.0190944881889765
100
AcDbArc
 50
227.9211567680777
 51
312.0697912168368
  0
LWPOLYLINE
  5
1FD7
330
1E
100
AcDbEntity
  8
3
100
AcDbPolyline
 90
       15
 70
     0
 43
0.0098425196850394
 10
36.73326771653543
 20
25.63779527559054
 10
36.73425196850393
 20
25.63779527559054
 10
36.73523622047243
 20
25.63877952755905
 10
36.73622047244094
 20
25.63976377952755
 10
36.73720472440944
 20
25.64074803149606
 10
36.73818897637795
 20
25.64173228346456
 10
36.73818897637795
 20
25.64271653543307
 10
36.73917322834645
 20
25.64468503937007
 10
36.73917322834645
 20
25.64566929133858
 10
36.74015748031495
 20
25.64665354330708
 10
36.74015748031495
 20
25.64763779527559
 10
36.74114173228346
 20
25.64862204724409
 10
36.74114173228346
 20
25.6505905511811
 10
36.74114173228346
 20
25.6515748031496
 10
36.74114173228346
 20
25.6525590551181
  0
LWPOLYLINE
  5
1FE8
330
1E
100
AcDbEntity
  8
3
100
AcDbPolyline
 90
        6
 70
     0
 43
0.0098425196850394
 10
36.86712598425196
 20
25.5777559055118
 10
36.875
 20
25.59547244094488
 10
36.88287401574803
 20
25.59547244094488
 10
36.88976377952755
 20
25.5777559055118
 10
36.88287401574803
 20
25.5777559055118
 10
36.88188976377952
 20
25.57972440944881
  0
LWPOLYLINE
  5
1FF0
330
1E
100
AcDbEntity
  8
3
100
AcDbPolyline
 90
        4
 70
     0
 43
0.0098425196850394
 10
36.88188976377952
 20
25.57972440944881
 10
36.875
 20
25.57972440944881
 10
36.87401574803149
 20
25.5777559055118
 10
36.86712598425196
 20
25.5777559055118
  0
LWPOLYLINE
  5
1FF6
330
1E
100
AcDbEntity
  8
3
100
AcDbPolyline
 90
       14
 70
     0
 43
0.0098425196850394
 10
37.04133858267716
 20
25.68110236220472
 10
37.04330708661417
 20
25.68503937007873
 10
37.04527559055117
 20
25.68503937007873
 10
37.04527559055117
 20
25.67913385826771
 10
37.04429133858267
 20
25.67913385826771
 10
37.04429133858267
 20
25.68405511811023
 10
37.04232283464566
 20
25.67913385826771
 10
37.04133858267716
 20
25.67913385826771
 10
37.03937007874015
 20
25.68405511811023
 10
37.03937007874015
 20
25.67913385826771
 10
37.03838582677165
 20
25.67913385826771
 10
37.03838582677165
 20
25.68503937007873
 10
37.04035433070866
 20
25.68503937007873
 10
37.04133858267716
 20
25.68110236220472
  0
LWPOLYLINE
  5
2006
330
1E
100
AcDbEntity
  8
3
100
AcDbPolyline
 90
        4
 70
     0
 43
0.0098425196850394
 10
36.83070866141731
 20
25.58366141732283
 10
36.83464566929133
 20
25.58366141732283
 10
36.83267716535432
 20
25.58956692913385
 10
36.83070866141731
 20
25.58366141732283
  0
LWPOLYLINE
  5
200C
330
1E
100
AcDbEntity
  8
3
100
AcDbPolyline
 90
       11
 70
     0
 43
0.0098425196850394
 10
36.90846456692913
 20
25.57972440944881
 10
36.90846456692913
 20
25.57874015748031
 10
36.90748031496062
 20
25.57874015748031
 10
36.90649606299212
 20
25.5777559055118
 10
36.90551181102361
 20
25.5777559055118
 10
36.90354330708661
 20
25.5777559055118
 10
36.9025590551181
 20
25.5777559055118
 10
36.89960629921259
 20
25.5777559055118
 10
36.89862204724409
 20
25.5777559055118
 10
36.89763779527558
 20
25.5777559055118
 10
36.89566929133857
 20
25.57874015748031
  0
LWPOLYLINE
  5
2019
330
1E
100
AcDbEntity
  8
3
100
AcDbPolyline
 90
       23
 70
     0
 43
0.0098425196850394
 10
36.89566929133857
 20
25.57874015748031
 10
36.89468503937007
 20
25.57874015748031
 10
36.89370078740157
 20
25.57874015748031
 10
36.89271653543306
 20
25.57972440944881
 10
36.89173228346456
 20
25.57972440944881
 10
36.89074803149606
 20
25.58169291338582
 10
36.89074803149606
 20
25.58267716535433
 10
36.88976377952755
 20
25.58366141732283
 10
36.88976377952755
 20
25.58464566929133
 10
36.88976377952755
 20
25.58562992125984
 10
36.88976377952755
 20
25.58661417322834
 10
36.88976377952755
 20
25.58759842519684
 10
36.88976377952755
 20
25.58858267716535
 10
36.88976377952755
 20
25.58956692913385
 10
36.89074803149606
 20
25.59055118110236
 10
36.89074803149606
 20
25.59153543307086
 10
36.89173228346456
 20
25.59153543307086
 10
36.89271653543306
 20
25.59350393700787
 10
36.89370078740157
 20
25.59350393700787
 10
36.89468503937007
 20
25.59448818897637
 10
36.89566929133857
 20
25.59448818897637
 10
36.89665354330708
 20
25.59448818897637
 10
36.89763779527558
 20
25.59547244094488
  0
LWPOLYLINE
  5
2032
330
1E
100
AcDbEntity
  8
3
100
AcDbPolyline
 90
       21
 70
     0
 43
0.0098425196850394
 10
36.89763779527558
 20
25.59547244094488
 10
36.89862204724409
 20
25.59547244094488
 10
36.9015748031496
 20
25.59547244094488
 10
36.90354330708661
 20
25.59547244094488
 10
36.90551181102361
 20
25.59547244094488
 10
36.90748031496062
 20
25.59448818897637
 10
36.90846456692913
 20
25.59350393700787
 10
36.90944881889763
 20
25.59350393700787
 10
36.91043307086614
 20
25.59251968503936
 10
36.91141732283464
 20
25.59153543307086
 10
36.91240157480315
 20
25.58956692913385
 10
36.90452755905511
 20
25.58956692913385
 10
36.90452755905511
 20
25.59055118110236
 10
36.90354330708661
 20
25.59055118110236
 10
36.9025590551181
 20
25.59153543307086
 10
36.9015748031496
 20
25.59153543307086
 10
36.90059055118109
 20
25.59153543307086
 10
36.89960629921259
 20
25.59153543307086
 10
36.89960629921259
 20
25.59055118110236
 10
36.89862204724409
 20
25.59055118110236
 10
36.89763779527558
 20
25.58956692913385
  0
ARC
  5
2049
330
1E
100
AcDbEntity
  8
3
100
AcDbCircle
 10
36.904916079569
 20
25.58780563613758
 30
0.0
 40
0.0074883626564437
100
AcDbArc
 50
166.3935632588234
 51
358.4083554940181
  0
LWPOLYLINE
  5
204A
330
1E
100
AcDbEntity
  8
3
100
AcDbPolyline
 90
        4
 70
     0
 43
0.0098425196850394
 10
36.91240157480315
 20
25.58759842519684
 10
36.91240157480315
 20
25.5777559055118
 10
36.90944881889763
 20
25.5777559055118
 10
36.90846456692913
 20
25.57972440944881
  0
LWPOLYLINE
  5
2050
330
1E
100
AcDbEntity
  8
3
100
AcDbPolyline
 90
       17
 70
     0
 43
0.0098425196850394
 10
36.71161417322834
 20
25.62893700787401
 10
36.74015748031495
 20
25.62893700787401
 10
36.74311023622046
 20
25.62893700787401
 10
36.74507874015747
 20
25.62893700787401
 10
36.74704724409448
 20
25.62992125984251
 10
36.74901574803149
 20
25.62992125984251
 10
36.75
 20
25.63090551181102
 10
36.751968503937
 20
25.63188976377952
 10
36.75295275590551
 20
25.63188976377952
 10
36.75393700787401
 20
25.63287401574803
 10
36.75590551181102
 20
25.63385826771653
 10
36.75688976377952
 20
25.63484251968503
 10
36.75787401574803
 20
25.63582677165354
 10
36.75885826771653
 20
25.63681102362204
 10
36.75984251968503
 20
25.63779527559054
 10
36.76082677165354
 20
25.63877952755905
 10
36.76181102362204
 20
25.64074803149606
  0
ARC
  5
2063
330
1E
100
AcDbEntity
  8
3
100
AcDbCircle
 10
36.74273059617547
 20
25.6527418447694
 30
0.0
 40
0.0225369533961348
100
AcDbArc
 50
327.8413451221938
 51
51.07694861770569
  0
LWPOLYLINE
  5
2064
330
1E
100
AcDbEntity
  8
3
100
AcDbPolyline
 90
       18
 70
     0
 43
0.0098425196850394
 10
36.75688976377952
 20
25.67027559055118
 10
36.75590551181102
 20
25.67125984251968
 10
36.75492125984252
 20
25.67224409448818
 10
36.75393700787401
 20
25.67224409448818
 10
36.75295275590551
 20
25.67322834645668
 10
36.751968503937
 20
25.67322834645668
 10
36.7509842519685
 20
25.67421259842519
 10
36.75
 20
25.67421259842519
 10
36.74803149606298
 20
25.6751968503937
 10
36.74704724409448
 20
25.6761811023622
 10
36.74606299212598
 20
25.6761811023622
 10
36.74409448818897
 20
25.6761811023622
 10
36.74311023622046
 20
25.6761811023622
 10
36.74015748031495
 20
25.67716535433071
 10
36.67913385826771
 20
25.67716535433071
 10
36.67913385826771
 20
25.60728346456692
 10
36.71161417322834
 20
25.60728346456692
 10
36.71161417322834
 20
25.62893700787401
  0
LWPOLYLINE
  5
2078
330
1E
100
AcDbEntity
  8
3
100
AcDbPolyline
 90
        4
 70
     0
 43
0.0098425196850394
 10
36.70374015748031
 20
25.58366141732283
 10
36.70866141732282
 20
25.58366141732283
 10
36.70669291338582
 20
25.58956692913385
 10
36.70374015748031
 20
25.58366141732283
  0
LWPOLYLINE
  5
207E
330
1E
100
AcDbEntity
  8
3
100
AcDbPolyline
 90
       10
 70
     0
 43
0.0098425196850394
 10
36.7253937007874
 20
25.59055118110236
 10
36.7253937007874
 20
25.58858267716535
 10
36.73031496062991
 20
25.58858267716535
 10
36.73129921259842
 20
25.58858267716535
 10
36.73228346456692
 20
25.58858267716535
 10
36.73228346456692
 20
25.58956692913385
 10
36.73228346456692
 20
25.59055118110236
 10
36.73129921259842
 20
25.59055118110236
 10
36.73031496062991
 20
25.59055118110236
 10
36.7253937007874
 20
25.59055118110236
  0
LWPOLYLINE
  5
208A
330
1E
100
AcDbEntity
  8
3
100
AcDbPolyline
 90
        4
 70
     0
 43
0.0098425196850394
 10
36.93700787401574
 20
25.5777559055118
 10
36.93700787401574
 20
25.59547244094488
 10
36.94685039370078
 20
25.59547244094488
 10
36.94980314960629
 20
25.58464566929133
  0
LWPOLYLINE
  5
2090
330
1E
100
AcDbEntity
  8
3
100
AcDbPolyline
 90
       11
 70
     0
 43
0.0098425196850394
 10
36.94980314960629
 20
25.58464566929133
 10
36.9527559055118
 20
25.59547244094488
 10
36.96259842519684
 20
25.59547244094488
 10
36.96259842519684
 20
25.5777559055118
 10
36.95570866141732
 20
25.5777559055118
 10
36.95570866141732
 20
25.59153543307086
 10
36.9517716535433
 20
25.5777559055118
 10
36.94685039370078
 20
25.5777559055118
 10
36.94291338582677
 20
25.59153543307086
 10
36.94291338582677
 20
25.5777559055118
 10
36.93700787401574
 20
25.5777559055118
  0
LWPOLYLINE
  5
209D
330
1E
100
AcDbEntity
  8
3
100
AcDbPolyline
 90
        7
 70
     0
 43
0.0098425196850394
 10
36.76181102362204
 20
25.5777559055118
 10
36.76181102362204
 20
25.59547244094488
 10
36.78051181102361
 20
25.59547244094488
 10
36.78051181102361
 20
25.59055118110236
 10
36.76870078740157
 20
25.59055118110236
 10
36.76870078740157
 20
25.58858267716535
 10
36.7775590551181
 20
25.58858267716535
  0
LWPOLYLINE
  5
20A6
330
1E
100
AcDbEntity
  8
3
100
AcDbPolyline
 90
        7
 70
     0
 43
0.0098425196850394
 10
36.7775590551181
 20
25.58858267716535
 10
36.7775590551181
 20
25.58464566929133
 10
36.76870078740157
 20
25.58464566929133
 10
36.76870078740157
 20
25.58267716535433
 10
36.78051181102361
 20
25.58267716535433
 10
36.78051181102361
 20
25.5777559055118
 10
36.76181102362204
 20
25.5777559055118
  0
LWPOLYLINE
  5
20AF
330
1E
100
AcDbEntity
  8
3
100
AcDbPolyline
 90
        4
 70
     0
 43
0.0098425196850394
 10
36.84645669291338
 20
25.64074803149606
 10
36.84350393700786
 20
25.62992125984251
 10
36.8513779527559
 20
25.62992125984251
 10
36.84645669291338
 20
25.64074803149606
  0
LWPOLYLINE
  5
20B5
330
1E
100
AcDbEntity
  8
3
100
AcDbPolyline
 90
        5
 70
     0
 43
0.0098425196850394
 10
36.74114173228346
 20
25.65452755905511
 10
36.74015748031495
 20
25.65452755905511
 10
36.73818897637795
 20
25.6525590551181
 10
36.73425196850393
 20
25.6515748031496
 10
36.72933070866141
 20
25.6505905511811
  0
LWPOLYLINE
  5
20BD
330
1E
100
AcDbEntity
  8
3
100
AcDbPolyline
 90
        9
 70
     0
 43
0.0098425196850394
 10
36.82086614173228
 20
25.5777559055118
 10
36.82874015748031
 20
25.59547244094488
 10
36.83661417322834
 20
25.59547244094488
 10
36.84350393700786
 20
25.5777559055118
 10
36.83661417322834
 20
25.5777559055118
 10
36.83562992125983
 20
25.57972440944881
 10
36.82874015748031
 20
25.57972440944881
 10
36.8277559055118
 20
25.5777559055118
 10
36.82086614173228
 20
25.5777559055118
  0
LINE
  5
20C8
330
1E
100
AcDbEntity
  8
3
100
AcDbLine
 10
36.86318897637795
 20
25.65452755905511
 30
0.0
 11
36.86318897637795
 21
25.62795275590551
 31
0.0
  0
LWPOLYLINE
  5
20C9
330
1E
100
AcDbEntity
  8
3
100
AcDbPolyline
 90
        5
 70
     0
 43
0.0098425196850394
 10
36.84055118110235
 20
25.65452755905511
 10
36.83956692913385
 20
25.65551181102362
 10
36.83956692913385
 20
25.65748031496063
 10
36.83858267716535
 20
25.65846456692913
 10
36.83759842519684
 20
25.66043307086614
  0
LWPOLYLINE
  5
20D0
330
1E
100
AcDbEntity
  8
3
100
AcDbPolyline
 90
       20
 70
     0
 43
0.0098425196850394
 10
36.83759842519684
 20
25.66043307086614
 10
36.83661417322834
 20
25.66141732283464
 10
36.83562992125983
 20
25.66240157480315
 10
36.83464566929133
 20
25.66338582677165
 10
36.83267716535432
 20
25.66437007874015
 10
36.83169291338582
 20
25.66535433070866
 10
36.82972440944881
 20
25.66535433070866
 10
36.82874015748031
 20
25.66633858267716
 10
36.8277559055118
 20
25.66633858267716
 10
36.8257874015748
 20
25.66633858267716
 10
36.82480314960629
 20
25.66633858267716
 10
36.82381889763779
 20
25.66633858267716
 10
36.78740157480314
 20
25.66633858267716
 10
36.78740157480314
 20
25.61417322834645
 10
36.81102362204724
 20
25.61417322834645
 10
36.81102362204724
 20
25.63188976377952
 10
36.82381889763779
 20
25.63188976377952
 10
36.8257874015748
 20
25.63188976377952
 10
36.8267716535433
 20
25.63188976377952
 10
36.8277559055118
 20
25.63188976377952
  0
LWPOLYLINE
  5
20E6
330
1E
100
AcDbEntity
  8
3
100
AcDbPolyline
 90
        3
 70
     0
 43
0.0098425196850394
 10
36.8277559055118
 20
25.63188976377952
 10
36.83070866141731
 20
25.63287401574803
 10
36.83169291338582
 20
25.63287401574803
  0
LWPOLYLINE
  5
20EB
330
1E
100
AcDbEntity
  8
3
100
AcDbPolyline
 90
       16
 70
     0
 43
0.0098425196850394
 10
36.73720472440944
 20
25.66338582677165
 10
36.73523622047243
 20
25.66240157480315
 10
36.73228346456692
 20
25.66141732283464
 10
36.72834645669291
 20
25.66043307086614
 10
36.72342519685039
 20
25.66043307086614
 10
36.72047244094487
 20
25.66043307086614
 10
36.71751968503936
 20
25.66043307086614
 10
36.71456692913385
 20
25.66043307086614
 10
36.71161417322834
 20
25.66141732283464
 10
36.70767716535432
 20
25.66240157480315
 10
36.70472440944881
 20
25.66338582677165
 10
36.70570866141732
 20
25.66437007874015
 10
36.70866141732282
 20
25.66338582677165
 10
36.71161417322834
 20
25.66240157480315
 10
36.71456692913385
 20
25.66141732283464
 10
36.71751968503936
 20
25.66141732283464
  0
LWPOLYLINE
  5
20FD
330
1E
100
AcDbEntity
  8
3
100
AcDbPolyline
 90
        8
 70
     0
 43
0.0098425196850394
 10
36.71751968503936
 20
25.66141732283464
 10
36.72047244094487
 20
25.66141732283464
 10
36.72244094488188
 20
25.66141732283464
 10
36.7273622047244
 20
25.66141732283464
 10
36.73129921259842
 20
25.66240157480315
 10
36.73425196850393
 20
25.66338582677165
 10
36.73720472440944
 20
25.66437007874015
 10
36.73720472440944
 20
25.66338582677165
  0
LWPOLYLINE
  5
2107
330
1E
100
AcDbEntity
  8
3
100
AcDbPolyline
 90
       11
 70
     0
 43
0.0098425196850394
 10
36.71653543307086
 20
25.67224409448818
 10
36.71555118110235
 20
25.67125984251968
 10
36.71358267716534
 20
25.66830708661417
 10
36.71062992125984
 20
25.66535433070866
 10
36.70767716535432
 20
25.66043307086614
 10
36.70767716535432
 20
25.65944881889763
 10
36.70669291338582
 20
25.65748031496063
 10
36.70669291338582
 20
25.65452755905511
 10
36.70669291338582
 20
25.6515748031496
 10
36.70669291338582
 20
25.64763779527559
 10
36.70767716535432
 20
25.64665354330708
  0
LWPOLYLINE
  5
2114
330
1E
100
AcDbEntity
  8
3
100
AcDbPolyline
 90
       21
 70
     0
 43
0.0098425196850394
 10
36.70767716535432
 20
25.64665354330708
 10
36.70767716535432
 20
25.64468503937007
 10
36.70964566929133
 20
25.64074803149606
 10
36.71259842519684
 20
25.63779527559054
 10
36.71653543307086
 20
25.63385826771653
 10
36.71555118110235
 20
25.63287401574803
 10
36.71161417322834
 20
25.63681102362204
 10
36.70866141732282
 20
25.64074803149606
 10
36.70669291338582
 20
25.64370078740157
 10
36.70570866141732
 20
25.64566929133858
 10
36.70570866141732
 20
25.64763779527559
 10
36.70570866141732
 20
25.6515748031496
 10
36.70570866141732
 20
25.65452755905511
 10
36.70570866141732
 20
25.65748031496063
 10
36.70669291338582
 20
25.65944881889763
 10
36.70669291338582
 20
25.66043307086614
 10
36.70964566929133
 20
25.66535433070866
 10
36.71259842519684
 20
25.66929133858267
 10
36.71456692913385
 20
25.67224409448818
 10
36.71555118110235
 20
25.67224409448818
 10
36.71653543307086
 20
25.67224409448818
  0
LWPOLYLINE
  5
212B
330
1E
100
AcDbEntity
  8
3
100
AcDbPolyline
 90
        7
 70
     0
 43
0.0098425196850394
 10
36.83169291338582
 20
25.63287401574803
 10
36.82381889763779
 20
25.61417322834645
 10
36.83661417322834
 20
25.61417322834645
 10
36.83858267716535
 20
25.62204724409448
 10
36.8523622047244
 20
25.62204724409448
 10
36.85531496062992
 20
25.61417322834645
 10
36.87401574803149
 20
25.61417322834645
  0
LWPOLYLINE
  5
2134
330
1E
100
AcDbEntity
  8
3
100
AcDbPolyline
 90
       10
 70
     0
 43
0.0098425196850394
 10
36.93503937007873
 20
25.65452755905511
 10
36.93503937007873
 20
25.62303149606298
 10
36.93503937007873
 20
25.62106299212598
 10
36.93503937007873
 20
25.62007874015748
 10
36.93602362204723
 20
25.61909448818897
 10
36.93602362204723
 20
25.61811023622047
 10
36.93700787401574
 20
25.61811023622047
 10
36.93700787401574
 20
25.61712598425196
 10
36.93799212598425
 20
25.61712598425196
 10
36.93799212598425
 20
25.61614173228346
  0
LWPOLYLINE
  5
2140
330
1E
100
AcDbEntity
  8
3
100
AcDbPolyline
 90
       22
 70
     0
 43
0.0098425196850394
 10
36.93799212598425
 20
25.61614173228346
 10
36.93897637795275
 20
25.61614173228346
 10
36.94094488188976
 20
25.61515748031496
 10
36.94192913385826
 20
25.61515748031496
 10
36.94291338582677
 20
25.61417322834645
 10
36.95767716535432
 20
25.61417322834645
 10
36.95866141732283
 20
25.61515748031496
 10
36.95964566929133
 20
25.61515748031496
 10
36.96062992125983
 20
25.61515748031496
 10
36.96161417322834
 20
25.61614173228346
 10
36.96259842519684
 20
25.61712598425196
 10
36.96259842519684
 20
25.61811023622047
 10
36.96358267716535
 20
25.61909448818897
 10
36.96358267716535
 20
25.62007874015748
 10
36.96358267716535
 20
25.62106299212598
 10
36.96358267716535
 20
25.62204724409448
 10
36.96358267716535
 20
25.62303149606298
 10
36.96358267716535
 20
25.65452755905511
 10
36.95374015748031
 20
25.65452755905511
 10
36.95374015748031
 20
25.63385826771653
 10
36.95374015748031
 20
25.6259842519685
 10
36.95374015748031
 20
25.625
  0
LWPOLYLINE
  5
2158
330
1E
100
AcDbEntity
  8
3
100
AcDbPolyline
 90
       12
 70
     0
 43
0.0098425196850394
 10
36.95374015748031
 20
25.625
 10
36.95374015748031
 20
25.62401574803149
 10
36.9527559055118
 20
25.62401574803149
 10
36.9527559055118
 20
25.62303149606298
 10
36.94980314960629
 20
25.62303149606298
 10
36.94881889763779
 20
25.62303149606298
 10
36.94881889763779
 20
25.62401574803149
 10
36.94783464566929
 20
25.62401574803149
 10
36.94783464566929
 20
25.625
 10
36.94783464566929
 20
25.6259842519685
 10
36.94783464566929
 20
25.65452755905511
 10
36.93503937007873
 20
25.65452755905511
  0
ENDSEC
  0
SECTION
  2
OBJECTS
  0
DICTIONARY
  5
C
330
0
100
AcDbDictionary
  3
ACAD_GROUP
350
D
  3
ACAD_LAYOUT
350
19
  3
ACAD_MLINESTYLE
350
16
  3
ACAD_PLOTSETTINGS
350
18
  3
ACAD_PLOTSTYLENAME
350
E
  3
ACDBHEADERROUNDTRIPXREC
350
219E
  0
DICTIONARY
  5
21C1
330
1E
100
AcDbDictionary
280
     1
  3
ACAD_LAYOUTSELFREF
360
21C2
  0
DICTIONARY
  5
21BF
330
1A
100
AcDbDictionary
280
     1
  3
ACAD_LAYOUTSELFREF
360
21C0
  0
DICTIONARY
  5
D
102
{ACAD_REACTORS
330
C
102
}
330
C
100
AcDbDictionary
  0
DICTIONARY
  5
19
102
{ACAD_REACTORS
330
C
102
}
330
C
100
AcDbDictionary
  0
DICTIONARY
  5
16
102
{ACAD_REACTORS
330
C
102
}
330
C
100
AcDbDictionary
  3
STANDARD
350
17
  0
DICTIONARY
  5
18
102
{ACAD_REACTORS
330
C
102
}
330
C
100
AcDbDictionary
  0
ACDBDICTIONARYWDFLT
  5
E
102
{ACAD_REACTORS
330
C
102
}
330
C
100
AcDbDictionary
281
     1
  3
Normal
350
F
100
AcDbDictionaryWithDefault
340
F
  0
DICTIONARY
  5
219E
102
{ACAD_REACTORS
330
C
102
}
330
C
100
AcDbDictionary
  3
CEPSNTYPE
350
21A8
  3
DIMSTYLEDATA
350
21AC
  3
FINGERPRINTGUID
350
21A9
  3
HYPERLINKBASE
350
21A1
  3
INSUNITS
350
21A7
  3
LAYOUTDICT
350
21A3
  3
LWETCUNION
350
21A6
  3
PLOTSETDICT
350
21A4
  3
PLOTSTYLNAMDICT
350
21A5
  3
PSVPSCALE
350
21AB
  3
PUCSBASE
350
21AF
  3
PUCSORGBACK
350
21B5
  3
PUCSORGBOTTOM
350
21B1
  3
PUCSORGFRONT
350
21B4
  3
PUCSORGLEFT
350
21B2
  3
PUCSORGRIGHT
350
21B3
  3
PUCSORGTOP
350
21B0
  3
PUCSORTHOREF
350
21AD
  3
PUCSORTHOVIEW
350
21AE
  3
STYLESHEET
350
21A2
  3
TSTACKALIGN
350
219F
  3
TSTACKSIZE
350
21A0
  3
UCSBASE
350
21B8
  3
UCSORGBACK
350
21BE
  3
UCSORGBOTTOM
350
21BA
  3
UCSORGFRONT
350
21BD
  3
UCSORGLEFT
350
21BB
  3
UCSORGRIGHT
350
21BC
  3
UCSORGTOP
350
21B9
  3
UCSORTHOREF
350
21B6
  3
UCSORTHOVIEW
350
21B7
  3
VERSIONGUID
350
21AA
  0
XRECORD
  5
21C2
102
{ACAD_REACTORS
330
21C1
102
}
330
21C1
100
AcDbXrecord
340
1E
  0
XRECORD
  5
21C0
102
{ACAD_REACTORS
330
21BF
102
}
330
21BF
100
AcDbXrecord
340
1A
  0
MLINESTYLE
  5
17
102
{ACAD_REACTORS
330
16
102
}
330
16
100
AcDbMlineStyle
  2
STANDARD
 70
     0
  3

 62
   256
 51
90.0
 52
90.0
 71
     2
 49
0.5
 62
   256
  6
BYLAYER
 49
-0.5
 62
   256
  6
BYLAYER
  0
ACDBPLACEHOLDER
  5
F
102
{ACAD_REACTORS
330
E
102
}
330
E
100
AcDbPlaceHolder
280
     0
  0
XRECORD
  5
21A8
102
{ACAD_REACTORS
330
219E
102
}
330
219E
100
AcDbXrecord
 90
        0
  0
XRECORD
  5
21AC
102
{ACAD_REACTORS
330
219E
102
}
330
219E
100
AcDbXrecord
1000
DSTYLE
1002
{
1070
   279
 70
     2
1002
}
  0
XRECORD
  5
21A9
102
{ACAD_REACTORS
330
219E
102
}
330
219E
100
AcDbXrecord
  1
{3E8D43C3-27EC-11D6-B7A3-00B0D0207C23}
  0
XRECORD
  5
21A1
102
{ACAD_REACTORS
330
219E
102
}
330
219E
100
AcDbXrecord
  1

  0
XRECORD
  5
21A7
102
{ACAD_REACTORS
330
219E
102
}
330
219E
100
AcDbXrecord
 90
        0
  0
XRECORD
  5
21A3
102
{ACAD_REACTORS
330
219E
102
}
330
219E
100
AcDbXrecord
340
19
  0
XRECORD
  5
21A6
102
{ACAD_REACTORS
330
219E
102
}
330
219E
100
AcDbXrecord
 90
    14877
  0
XRECORD
  5
21A4
102
{ACAD_REACTORS
330
219E
102
}
330
219E
100
AcDbXrecord
340
18
  0
XRECORD
  5
21A5
102
{ACAD_REACTORS
330
219E
102
}
330
219E
100
AcDbXrecord
340
E
  0
XRECORD
  5
21AB
102
{ACAD_REACTORS
330
219E
102
}
330
219E
100
AcDbXrecord
 40
0.0
  0
XRECORD
  5
21AF
102
{ACAD_REACTORS
330
219E
102
}
330
219E
100
AcDbXrecord
340
0
  0
XRECORD
  5
21B5
102
{ACAD_REACTORS
330
219E
102
}
330
219E
100
AcDbXrecord
 10
0.0
 20
0.0
 30
0.0
  0
XRECORD
  5
21B1
102
{ACAD_REACTORS
330
219E
102
}
330
219E
100
AcDbXrecord
 10
0.0
 20
0.0
 30
0.0
  0
XRECORD
  5
21B4
102
{ACAD_REACTORS
330
219E
102
}
330
219E
100
AcDbXrecord
 10
0.0
 20
0.0
 30
0.0
  0
XRECORD
  5
21B2
102
{ACAD_REACTORS
330
219E
102
}
330
219E
100
AcDbXrecord
 10
0.0
 20
0.0
 30
0.0
  0
XRECORD
  5
21B3
102
{ACAD_REACTORS
330
219E
102
}
330
219E
100
AcDbXrecord
 10
0.0
 20
0.0
 30
0.0
  0
XRECORD
  5
21B0
102
{ACAD_REACTORS
330
219E
102
}
330
219E
100
AcDbXrecord
 10
0.0
 20
0.0
 30
0.0
  0
XRECORD
  5
21AD
102
{ACAD_REACTORS
330
219E
102
}
330
219E
100
AcDbXrecord
340
0
  0
XRECORD
  5
21AE
102
{ACAD_REACTORS
330
219E
102
}
330
219E
100
AcDbXrecord
 70
     0
  0
XRECORD
  5
21A2
102
{ACAD_REACTORS
330
219E
102
}
330
219E
100
AcDbXrecord
  1

  0
XRECORD
  5
219F
102
{ACAD_REACTORS
330
219E
102
}
330
219E
100
AcDbXrecord
 90
        1
  0
XRECORD
  5
21A0
102
{ACAD_REACTORS
330
219E
102
}
330
219E
100
AcDbXrecord
 90
       70
  0
XRECORD
  5
21B8
102
{ACAD_REACTORS
330
219E
102
}
330
219E
100
AcDbXrecord
340
0
  0
XRECORD
  5
21BE
102
{ACAD_REACTORS
330
219E
102
}
330
219E
100
AcDbXrecord
 10
0.0
 20
0.0
 30
0.0
  0
XRECORD
  5
21BA
102
{ACAD_REACTORS
330
219E
102
}
330
219E
100
AcDbXrecord
 10
0.0
 20
0.0
 30
0.0
  0
XRECORD
  5
21BD
102
{ACAD_REACTORS
330
219E
102
}
330
219E
100
AcDbXrecord
 10
0.0
 20
0.0
 30
0.0
  0
XRECORD
  5
21BB
102
{ACAD_REACTORS
330
219E
102
}
330
219E
100
AcDbXrecord
 10
0.0
 20
0.0
 30
0.0
  0
XRECORD
  5
21BC
102
{ACAD_REACTORS
330
219E
102
}
330
219E
100
AcDbXrecord
 10
0.0
 20
0.0
 30
0.0
  0
XRECORD
  5
21B9
102
{ACAD_REACTORS
330
219E
102
}
330
219E
100
AcDbXrecord
 10
0.0
 20
0.0
 30
0.0
  0
XRECORD
  5
21B6
102
{ACAD_REACTORS
330
219E
102
}
330
219E
100
AcDbXrecord
340
0
  0
XRECORD
  5
21B7
102
{ACAD_REACTORS
330
219E
102
}
330
219E
100
AcDbXrecord
 70
     0
  0
XRECORD
  5
21AA
102
{ACAD_REACTORS
330
219E
102
}
330
219E
100
AcDbXrecord
  1
{3E8D43C5-27EC-11D6-B7A3-00B0D0207C23}
  0
ENDSEC
  0
EOF
