  0
SECTION
  2
HEADER
  9
$ACADVER
  1
AC1014
  9
$ACADMAINTVER
 70
     9
  9
$DWGCODEPAGE
  3
ANSI_1252
  9
$INSBASE
 10
0.0
 20
0.0
 30
0.0
  9
$EXTMIN
 10
1.313993777646359
 20
-3.969822195685821
 30
-0.0000000349181948
  9
$EXTMAX
 10
34.50893600147551
 20
88.34820670767024
 30
0.0000000814935746
  9
$LIMMIN
 10
0.0
 20
0.0
  9
$LIMMAX
 10
12.0
 20
9.0
  9
$ORTHOMODE
 70
     0
  9
$REGENMODE
 70
     1
  9
$FILLMODE
 70
     1
  9
$QTEXTMODE
 70
     0
  9
$MIRRTEXT
 70
     1
  9
$DRAGMODE
 70
     2
  9
$LTSCALE
 40
1.0
  9
$OSMODE
 70
    37
  9
$ATTMODE
 70
     1
  9
$TEXTSIZE
 40
0.2
  9
$TRACEWID
 40
0.05
  9
$TEXTSTYLE
  7
STANDARD
  9
$CLAYER
  8
0
  9
$CELTYPE
  6
BYLAYER
  9
$CECOLOR
 62
   256
  9
$CELTSCALE
 40
1.0
  9
$DELOBJ
 70
     1
  9
$DISPSILH
 70
     0
  9
$DIMSCALE
 40
1.0
  9
$DIMASZ
 40
0.18
  9
$DIMEXO
 40
0.0625
  9
$DIMDLI
 40
0.38
  9
$DIMRND
 40
0.0
  9
$DIMDLE
 40
0.0
  9
$DIMEXE
 40
0.18
  9
$DIMTP
 40
0.0
  9
$DIMTM
 40
0.0
  9
$DIMTXT
 40
0.18
  9
$DIMCEN
 40
0.09
  9
$DIMTSZ
 40
0.0
  9
$DIMTOL
 70
     0
  9
$DIMLIM
 70
     0
  9
$DIMTIH
 70
     1
  9
$DIMTOH
 70
     1
  9
$DIMSE1
 70
     0
  9
$DIMSE2
 70
     0
  9
$DIMTAD
 70
     0
  9
$DIMZIN
 70
     0
  9
$DIMBLK
  1

  9
$DIMASO
 70
     1
  9
$DIMSHO
 70
     1
  9
$DIMPOST
  1

  9
$DIMAPOST
  1

  9
$DIMALT
 70
     0
  9
$DIMALTD
 70
     2
  9
$DIMALTF
 40
25.4
  9
$DIMLFAC
 40
1.0
  9
$DIMTOFL
 70
     0
  9
$DIMTVP
 40
0.0
  9
$DIMTIX
 70
     0
  9
$DIMSOXD
 70
     0
  9
$DIMSAH
 70
     0
  9
$DIMBLK1
  1

  9
$DIMBLK2
  1

  9
$DIMSTYLE
  2
STANDARD
  9
$DIMCLRD
 70
     0
  9
$DIMCLRE
 70
     0
  9
$DIMCLRT
 70
     0
  9
$DIMTFAC
 40
1.0
  9
$DIMGAP
 40
0.09
  9
$DIMJUST
 70
     0
  9
$DIMSD1
 70
     0
  9
$DIMSD2
 70
     0
  9
$DIMTOLJ
 70
     1
  9
$DIMTZIN
 70
     0
  9
$DIMALTZ
 70
     0
  9
$DIMALTTZ
 70
     0
  9
$DIMFIT
 70
     5
  9
$DIMUPT
 70
     0
  9
$DIMUNIT
 70
     2
  9
$DIMDEC
 70
     4
  9
$DIMTDEC
 70
     4
  9
$DIMALTU
 70
     2
  9
$DIMALTTD
 70
     2
  9
$DIMTXSTY
  7
STANDARD
  9
$DIMAUNIT
 70
     0
  9
$LUNITS
 70
     2
  9
$LUPREC
 70
     4
  9
$SKETCHINC
 40
0.1
  9
$FILLETRAD
 40
0.0
  9
$AUNITS
 70
     0
  9
$AUPREC
 70
     0
  9
$MENU
  1
acad
  9
$ELEVATION
 40
0.0
  9
$PELEVATION
 40
0.0
  9
$THICKNESS
 40
0.0
  9
$LIMCHECK
 70
     0
  9
$BLIPMODE
 70
     0
  9
$CHAMFERA
 40
0.0
  9
$CHAMFERB
 40
0.0
  9
$CHAMFERC
 40
0.0
  9
$CHAMFERD
 40
0.0
  9
$SKPOLY
 70
     0
  9
$TDCREATE
 40
2454039.546377314
  9
$TDUPDATE
 40
2454040.513462164
  9
$TDINDWG
 40
0.0562657292
  9
$TDUSRTIMER
 40
0.0562657292
  9
$USRTIMER
 70
     1
  9
$ANGBASE
 50
0.0
  9
$ANGDIR
 70
     0
  9
$PDMODE
 70
     0
  9
$PDSIZE
 40
0.0
  9
$PLINEWID
 40
0.0
  9
$COORDS
 70
     0
  9
$SPLFRAME
 70
     0
  9
$SPLINETYPE
 70
     6
  9
$SPLINESEGS
 70
     8
  9
$ATTDIA
 70
     0
  9
$ATTREQ
 70
     1
  9
$HANDLING
 70
-16383
  9
$HANDSEED
  5
BB1
  9
$SURFTAB1
 70
     6
  9
$SURFTAB2
 70
     6
  9
$SURFTYPE
 70
     6
  9
$SURFU
 70
     6
  9
$SURFV
 70
     6
  9
$UCSNAME
  2

  9
$UCSORG
 10
0.0
 20
0.0
 30
0.0
  9
$UCSXDIR
 10
1.0
 20
0.0
 30
0.0
  9
$UCSYDIR
 10
0.0
 20
1.0
 30
0.0
  9
$PUCSNAME
  2

  9
$PUCSORG
 10
0.0
 20
0.0
 30
0.0
  9
$PUCSXDIR
 10
1.0
 20
0.0
 30
0.0
  9
$PUCSYDIR
 10
0.0
 20
1.0
 30
0.0
  9
$USERI1
 70
     0
  9
$USERI2
 70
     0
  9
$USERI3
 70
     0
  9
$USERI4
 70
     0
  9
$USERI5
 70
     0
  9
$USERR1
 40
0.0
  9
$USERR2
 40
0.0
  9
$USERR3
 40
0.0
  9
$USERR4
 40
0.0
  9
$USERR5
 40
0.0
  9
$WORLDVIEW
 70
     1
  9
$SHADEDGE
 70
     3
  9
$SHADEDIF
 70
    70
  9
$TILEMODE
 70
     1
  9
$MAXACTVP
 70
    16
  9
$PINSBASE
 10
0.0
 20
0.0
 30
0.0
  9
$PLIMCHECK
 70
     0
  9
$PEXTMIN
 10
1.000000000000000E+20
 20
1.000000000000000E+20
 30
1.000000000000000E+20
  9
$PEXTMAX
 10
-1.000000000000000E+20
 20
-1.000000000000000E+20
 30
-1.000000000000000E+20
  9
$PLIMMIN
 10
0.0
 20
0.0
  9
$PLIMMAX
 10
12.0
 20
9.0
  9
$UNITMODE
 70
     0
  9
$VISRETAIN
 70
     0
  9
$PLINEGEN
 70
     0
  9
$PSLTSCALE
 70
     1
  9
$TREEDEPTH
 70
  3020
  9
$PICKSTYLE
 70
     1
  9
$CMLSTYLE
  2
STANDARD
  9
$CMLJUST
 70
     0
  9
$CMLSCALE
 40
1.0
  9
$PROXYGRAPHICS
 70
     1
  9
$MEASUREMENT
 70
     0
  0
ENDSEC
  0
SECTION
  2
CLASSES
  0
CLASS
  1
ACDBDICTIONARYWDFLT
  2
AcDbDictionaryWithDefault
  3
AutoCAD 2000
 90
        0
280
     0
281
     0
  0
CLASS
  1
ACDBPLACEHOLDER
  2
AcDbPlaceHolder
  3
AutoCAD 2000
 90
        0
280
     0
281
     0
  0
CLASS
  1
LAYOUT
  2
AcDbLayout
  3
AutoCAD 2000
 90
        0
280
     0
281
     0
  0
CLASS
  1
LONG_TRANSACTION
  2
AcDbLongTransaction
  3
AutoCAD 2000
 90
        0
280
     0
281
     0
  0
CLASS
  1
LWPOLYLINE
  2
AcDbPolyline
  3
AutoCAD 2000
 90
        0
280
     0
281
     1
  0
CLASS
  1
HATCH
  2
AcDbHatch
  3
AutoCAD 2000
 90
        0
280
     0
281
     1
  0
CLASS
  1
XRECORD
  2
AcDbXrecord
  3
AutoCAD 2000
 90
        0
280
     0
281
     0
  0
ENDSEC
  0
SECTION
  2
TABLES
  0
TABLE
  2
VPORT
  5
8
330
0
100
AcDbSymbolTable
 70
     3
  0
VPORT
  5
B8B
330
8
100
AcDbSymbolTableRecord
100
AcDbViewportTableRecord
  2
*ACTIVE
 70
     0
 10
0.0
 20
0.0
 11
1.0
 21
1.0
 12
17.91146488956094
 22
42.18919225599221
 13
0.0
 23
0.0
 14
1.0
 24
1.0
 15
0.0
 25
0.0
 16
0.0
 26
0.0
 36
1.0
 17
0.0
 27
0.0
 37
0.0
 40
93.36117047288551
 41
2.018867924528302
 42
50.0
 43
0.0
 44
0.0
 50
0.0
 51
0.0
 71
     0
 72
   100
 73
     1
 74
     1
 75
     0
 76
     0
 77
     0
 78
     0
  0
ENDTAB
  0
TABLE
  2
LTYPE
  5
5
330
0
100
AcDbSymbolTable
 70
    25
  0
LTYPE
  5
13
330
5
100
AcDbSymbolTableRecord
100
AcDbLinetypeTableRecord
  2
BYBLOCK
 70
     0
  3

 72
    65
 73
     0
 40
0.0
  0
LTYPE
  5
14
330
5
100
AcDbSymbolTableRecord
100
AcDbLinetypeTableRecord
  2
BYLAYER
 70
     0
  3

 72
    65
 73
     0
 40
0.0
  0
LTYPE
  5
15
330
5
100
AcDbSymbolTableRecord
100
AcDbLinetypeTableRecord
  2
CONTINUOUS
 70
     0
  3
Solid line
 72
    65
 73
     0
 40
0.0
  0
LTYPE
  5
22
330
5
100
AcDbSymbolTableRecord
100
AcDbLinetypeTableRecord
  2
BORDER
 70
     0
  3
__ __ . __ __ . __ __ . __ __ . __ __ . __ __ .
 72
    65
 73
     6
 40
1.75
 49
0.5
 74
     0
 49
-0.25
 74
     0
 49
0.5
 74
     0
 49
-0.25
 74
     0
 49
0.5
 74
     0
 49
-0.25
 74
     0
  0
LTYPE
  5
23
330
5
100
AcDbSymbolTableRecord
100
AcDbLinetypeTableRecord
  2
BORDER2
 70
     0
  3
__.__.__.__.__.__.__.__.
 72
    65
 73
     6
 40
0.875
 49
0.25
 74
     0
 49
-0.125
 74
     0
 49
0.25
 74
     0
 49
-0.125
 74
     0
 49
0.25
 74
     0
 49
-0.125
 74
     0
  0
LTYPE
  5
24
330
5
100
AcDbSymbolTableRecord
100
AcDbLinetypeTableRecord
  2
BORDERX2
 70
     0
  3
____  ____  .  
 72
    65
 73
     6
 40
3.5
 49
1.0
 74
     0
 49
-0.5
 74
     0
 49
1.0
 74
     0
 49
-0.5
 74
     0
 49
1.0
 74
     0
 49
-0.5
 74
     0
  0
LTYPE
  5
25
330
5
100
AcDbSymbolTableRecord
100
AcDbLinetypeTableRecord
  2
CENTER
 70
     0
  3
____ _ ____ _ ____ _ 
 72
    65
 73
     4
 40
2.0
 49
1.25
 74
     0
 49
-0.25
 74
     0
 49
0.25
 74
     0
 49
-0.25
 74
     0
  0
LTYPE
  5
26
330
5
100
AcDbSymbolTableRecord
100
AcDbLinetypeTableRecord
  2
CENTER2
 70
     0
  3
____ _ ____ _ ____ _ 
 72
    65
 73
     4
 40
1.125
 49
0.75
 74
     0
 49
-0.125
 74
     0
 49
0.125
 74
     0
 49
-0.125
 74
     0
  0
LTYPE
  5
27
330
5
100
AcDbSymbolTableRecord
100
AcDbLinetypeTableRecord
  2
CENTERX2
 70
     0
  3
________  __  
 72
    65
 73
     4
 40
4.0
 49
2.5
 74
     0
 49
-0.5
 74
     0
 49
0.5
 74
     0
 49
-0.5
 74
     0
  0
LTYPE
  5
28
330
5
100
AcDbSymbolTableRecord
100
AcDbLinetypeTableRecord
  2
DASHDOT
 70
     0
  3
__ . __ . __ . __ . 
 72
    65
 73
     4
 40
1.0
 49
0.5
 74
     0
 49
-0.25
 74
     0
 49
0.0
 74
     0
 49
-0.25
 74
     0
  0
LTYPE
  5
29
330
5
100
AcDbSymbolTableRecord
100
AcDbLinetypeTableRecord
  2
DASHDOT2
 70
     0
  3
_._._._._._._._._.
 72
    65
 73
     4
 40
0.5
 49
0.25
 74
     0
 49
-0.125
 74
     0
 49
0.0
 74
     0
 49
-0.125
 74
     0
  0
LTYPE
  5
2A
330
5
100
AcDbSymbolTableRecord
100
AcDbLinetypeTableRecord
  2
DASHDOTX2
 70
     0
  3
____  .  ____  .  
 72
    65
 73
     4
 40
2.0
 49
1.0
 74
     0
 49
-0.5
 74
     0
 49
0.0
 74
     0
 49
-0.5
 74
     0
  0
LTYPE
  5
2B
330
5
100
AcDbSymbolTableRecord
100
AcDbLinetypeTableRecord
  2
DASHED
 70
     0
  3
__ __ __ __ __ __ __ 
 72
    65
 73
     2
 40
0.75
 49
0.5
 74
     0
 49
-0.25
 74
     0
  0
LTYPE
  5
2C
330
5
100
AcDbSymbolTableRecord
100
AcDbLinetypeTableRecord
  2
DASHED2
 70
     0
  3
_ _ _ _ _ _ _ _ _ _ 
 72
    65
 73
     2
 40
0.375
 49
0.25
 74
     0
 49
-0.125
 74
     0
  0
LTYPE
  5
2D
330
5
100
AcDbSymbolTableRecord
100
AcDbLinetypeTableRecord
  2
DASHEDX2
 70
     0
  3
____  ____  ____  
 72
    65
 73
     2
 40
1.5
 49
1.0
 74
     0
 49
-0.5
 74
     0
  0
LTYPE
  5
2E
330
5
100
AcDbSymbolTableRecord
100
AcDbLinetypeTableRecord
  2
DIVIDE
 70
     0
  3
____ . . ____ . . 
 72
    65
 73
     6
 40
1.25
 49
0.5
 74
     0
 49
-0.25
 74
     0
 49
0.0
 74
     0
 49
-0.25
 74
     0
 49
0.0
 74
     0
 49
-0.25
 74
     0
  0
LTYPE
  5
2F
330
5
100
AcDbSymbolTableRecord
100
AcDbLinetypeTableRecord
  2
DIVIDE2
 70
     0
  3
__..__..__..__..__..
 72
    65
 73
     6
 40
0.625
 49
0.25
 74
     0
 49
-0.125
 74
     0
 49
0.0
 74
     0
 49
-0.125
 74
     0
 49
0.0
 74
     0
 49
-0.125
 74
     0
  0
LTYPE
  5
30
330
5
100
AcDbSymbolTableRecord
100
AcDbLinetypeTableRecord
  2
DIVIDEX2
 70
     0
  3
________  .  .  
 72
    65
 73
     6
 40
2.5
 49
1.0
 74
     0
 49
-0.5
 74
     0
 49
0.0
 74
     0
 49
-0.5
 74
     0
 49
0.0
 74
     0
 49
-0.5
 74
     0
  0
LTYPE
  5
31
330
5
100
AcDbSymbolTableRecord
100
AcDbLinetypeTableRecord
  2
DOT
 70
     0
  3
. . . . . . . . . 
 72
    65
 73
     2
 40
0.25
 49
0.0
 74
     0
 49
-0.25
 74
     0
  0
LTYPE
  5
32
330
5
100
AcDbSymbolTableRecord
100
AcDbLinetypeTableRecord
  2
DOT2
 70
     0
  3
..................
 72
    65
 73
     2
 40
0.125
 49
0.0
 74
     0
 49
-0.125
 74
     0
  0
LTYPE
  5
33
330
5
100
AcDbSymbolTableRecord
100
AcDbLinetypeTableRecord
  2
DOTX2
 70
     0
  3
.  .  .  .  .  .  
 72
    65
 73
     2
 40
0.5
 49
0.0
 74
     0
 49
-0.5
 74
     0
  0
LTYPE
  5
34
330
5
100
AcDbSymbolTableRecord
100
AcDbLinetypeTableRecord
  2
HIDDEN
 70
     0
  3
__ __ __ __ __ __ 
 72
    65
 73
     2
 40
0.375
 49
0.25
 74
     0
 49
-0.125
 74
     0
  0
LTYPE
  5
35
330
5
100
AcDbSymbolTableRecord
100
AcDbLinetypeTableRecord
  2
HIDDEN2
 70
     0
  3
_ _ _ _ _ _ _ _ _ 
 72
    65
 73
     2
 40
0.1875
 49
0.125
 74
     0
 49
-0.0625
 74
     0
  0
LTYPE
  5
36
330
5
100
AcDbSymbolTableRecord
100
AcDbLinetypeTableRecord
  2
HIDDENX2
 70
     0
  3
____ ____ ____ ____ 
 72
    65
 73
     2
 40
0.75
 49
0.5
 74
     0
 49
-0.25
 74
     0
  0
LTYPE
  5
37
330
5
100
AcDbSymbolTableRecord
100
AcDbLinetypeTableRecord
  2
PHANTOM
 70
     0
  3
______  __  __  
 72
    65
 73
     6
 40
2.5
 49
1.25
 74
     0
 49
-0.25
 74
     0
 49
0.25
 74
     0
 49
-0.25
 74
     0
 49
0.25
 74
     0
 49
-0.25
 74
     0
  0
LTYPE
  5
38
330
5
100
AcDbSymbolTableRecord
100
AcDbLinetypeTableRecord
  2
PHANTOM2
 70
     0
  3
___ _ _ ___ _ _ 
 72
    65
 73
     6
 40
1.25
 49
0.625
 74
     0
 49
-0.125
 74
     0
 49
0.125
 74
     0
 49
-0.125
 74
     0
 49
0.125
 74
     0
 49
-0.125
 74
     0
  0
LTYPE
  5
39
330
5
100
AcDbSymbolTableRecord
100
AcDbLinetypeTableRecord
  2
PHANTOMX2
 70
     0
  3
___ _ _ ___ _ _ 
 72
    65
 73
     6
 40
5.0
 49
2.5
 74
     0
 49
-0.5
 74
     0
 49
0.5
 74
     0
 49
-0.5
 74
     0
 49
0.5
 74
     0
 49
-0.5
 74
     0
  0
ENDTAB
  0
TABLE
  2
LAYER
  5
2
330
0
100
AcDbSymbolTable
 70
   256
  0
LAYER
  5
10
330
2
100
AcDbSymbolTableRecord
100
AcDbLayerTableRecord
  2
0
 70
     0
 62
     7
  6
CONTINUOUS
  0
LAYER
  5
3A
330
2
100
AcDbSymbolTableRecord
100
AcDbLayerTableRecord
  2
1
 70
     0
 62
     1
  6
CONTINUOUS
  0
LAYER
  5
3B
330
2
100
AcDbSymbolTableRecord
100
AcDbLayerTableRecord
  2
2
 70
     0
 62
     2
  6
CONTINUOUS
  0
LAYER
  5
3C
330
2
100
AcDbSymbolTableRecord
100
AcDbLayerTableRecord
  2
3
 70
     0
 62
     3
  6
CONTINUOUS
  0
LAYER
  5
3D
330
2
100
AcDbSymbolTableRecord
100
AcDbLayerTableRecord
  2
4
 70
     0
 62
     4
  6
CONTINUOUS
  0
LAYER
  5
3E
330
2
100
AcDbSymbolTableRecord
100
AcDbLayerTableRecord
  2
5
 70
     0
 62
     5
  6
CONTINUOUS
  0
LAYER
  5
3F
330
2
100
AcDbSymbolTableRecord
100
AcDbLayerTableRecord
  2
6
 70
     0
 62
     6
  6
CONTINUOUS
  0
LAYER
  5
40
330
2
100
AcDbSymbolTableRecord
100
AcDbLayerTableRecord
  2
7
 70
     0
 62
     7
  6
CONTINUOUS
  0
LAYER
  5
41
330
2
100
AcDbSymbolTableRecord
100
AcDbLayerTableRecord
  2
8
 70
     0
 62
     8
  6
CONTINUOUS
  0
LAYER
  5
42
330
2
100
AcDbSymbolTableRecord
100
AcDbLayerTableRecord
  2
9
 70
     0
 62
     9
  6
CONTINUOUS
  0
LAYER
  5
43
330
2
100
AcDbSymbolTableRecord
100
AcDbLayerTableRecord
  2
10
 70
     0
 62
    10
  6
CONTINUOUS
  0
LAYER
  5
44
330
2
100
AcDbSymbolTableRecord
100
AcDbLayerTableRecord
  2
11
 70
     0
 62
    11
  6
CONTINUOUS
  0
LAYER
  5
45
330
2
100
AcDbSymbolTableRecord
100
AcDbLayerTableRecord
  2
12
 70
     0
 62
    12
  6
CONTINUOUS
  0
LAYER
  5
46
330
2
100
AcDbSymbolTableRecord
100
AcDbLayerTableRecord
  2
13
 70
     0
 62
    13
  6
CONTINUOUS
  0
LAYER
  5
47
330
2
100
AcDbSymbolTableRecord
100
AcDbLayerTableRecord
  2
14
 70
     0
 62
    14
  6
CONTINUOUS
  0
LAYER
  5
48
330
2
100
AcDbSymbolTableRecord
100
AcDbLayerTableRecord
  2
15
 70
     0
 62
    15
  6
CONTINUOUS
  0
LAYER
  5
49
330
2
100
AcDbSymbolTableRecord
100
AcDbLayerTableRecord
  2
16
 70
     0
 62
    16
  6
CONTINUOUS
  0
LAYER
  5
4A
330
2
100
AcDbSymbolTableRecord
100
AcDbLayerTableRecord
  2
17
 70
     0
 62
    17
  6
CONTINUOUS
  0
LAYER
  5
4B
330
2
100
AcDbSymbolTableRecord
100
AcDbLayerTableRecord
  2
18
 70
     0
 62
    18
  6
CONTINUOUS
  0
LAYER
  5
4C
330
2
100
AcDbSymbolTableRecord
100
AcDbLayerTableRecord
  2
19
 70
     0
 62
    19
  6
CONTINUOUS
  0
LAYER
  5
4D
330
2
100
AcDbSymbolTableRecord
100
AcDbLayerTableRecord
  2
20
 70
     0
 62
    20
  6
CONTINUOUS
  0
LAYER
  5
4E
330
2
100
AcDbSymbolTableRecord
100
AcDbLayerTableRecord
  2
21
 70
     0
 62
    21
  6
CONTINUOUS
  0
LAYER
  5
4F
330
2
100
AcDbSymbolTableRecord
100
AcDbLayerTableRecord
  2
22
 70
     0
 62
    22
  6
CONTINUOUS
  0
LAYER
  5
50
330
2
100
AcDbSymbolTableRecord
100
AcDbLayerTableRecord
  2
23
 70
     0
 62
    23
  6
CONTINUOUS
  0
LAYER
  5
51
330
2
100
AcDbSymbolTableRecord
100
AcDbLayerTableRecord
  2
24
 70
     0
 62
    24
  6
CONTINUOUS
  0
LAYER
  5
52
330
2
100
AcDbSymbolTableRecord
100
AcDbLayerTableRecord
  2
25
 70
     0
 62
    25
  6
CONTINUOUS
  0
LAYER
  5
53
330
2
100
AcDbSymbolTableRecord
100
AcDbLayerTableRecord
  2
26
 70
     0
 62
    26
  6
CONTINUOUS
  0
LAYER
  5
54
330
2
100
AcDbSymbolTableRecord
100
AcDbLayerTableRecord
  2
27
 70
     0
 62
    27
  6
CONTINUOUS
  0
LAYER
  5
55
330
2
100
AcDbSymbolTableRecord
100
AcDbLayerTableRecord
  2
28
 70
     0
 62
    28
  6
CONTINUOUS
  0
LAYER
  5
56
330
2
100
AcDbSymbolTableRecord
100
AcDbLayerTableRecord
  2
29
 70
     0
 62
    29
  6
CONTINUOUS
  0
LAYER
  5
57
330
2
100
AcDbSymbolTableRecord
100
AcDbLayerTableRecord
  2
30
 70
     0
 62
    30
  6
CONTINUOUS
  0
LAYER
  5
58
330
2
100
AcDbSymbolTableRecord
100
AcDbLayerTableRecord
  2
31
 70
     0
 62
    31
  6
CONTINUOUS
  0
LAYER
  5
59
330
2
100
AcDbSymbolTableRecord
100
AcDbLayerTableRecord
  2
32
 70
     0
 62
    32
  6
CONTINUOUS
  0
LAYER
  5
5A
330
2
100
AcDbSymbolTableRecord
100
AcDbLayerTableRecord
  2
33
 70
     0
 62
    33
  6
CONTINUOUS
  0
LAYER
  5
5B
330
2
100
AcDbSymbolTableRecord
100
AcDbLayerTableRecord
  2
34
 70
     0
 62
    34
  6
CONTINUOUS
  0
LAYER
  5
5C
330
2
100
AcDbSymbolTableRecord
100
AcDbLayerTableRecord
  2
35
 70
     0
 62
    35
  6
CONTINUOUS
  0
LAYER
  5
5D
330
2
100
AcDbSymbolTableRecord
100
AcDbLayerTableRecord
  2
36
 70
     0
 62
    36
  6
CONTINUOUS
  0
LAYER
  5
5E
330
2
100
AcDbSymbolTableRecord
100
AcDbLayerTableRecord
  2
37
 70
     0
 62
    37
  6
CONTINUOUS
  0
LAYER
  5
5F
330
2
100
AcDbSymbolTableRecord
100
AcDbLayerTableRecord
  2
38
 70
     0
 62
    38
  6
CONTINUOUS
  0
LAYER
  5
60
330
2
100
AcDbSymbolTableRecord
100
AcDbLayerTableRecord
  2
39
 70
     0
 62
    39
  6
CONTINUOUS
  0
LAYER
  5
61
330
2
100
AcDbSymbolTableRecord
100
AcDbLayerTableRecord
  2
40
 70
     0
 62
    40
  6
CONTINUOUS
  0
LAYER
  5
62
330
2
100
AcDbSymbolTableRecord
100
AcDbLayerTableRecord
  2
41
 70
     0
 62
    41
  6
CONTINUOUS
  0
LAYER
  5
63
330
2
100
AcDbSymbolTableRecord
100
AcDbLayerTableRecord
  2
42
 70
     0
 62
    42
  6
CONTINUOUS
  0
LAYER
  5
64
330
2
100
AcDbSymbolTableRecord
100
AcDbLayerTableRecord
  2
43
 70
     0
 62
    43
  6
CONTINUOUS
  0
LAYER
  5
65
330
2
100
AcDbSymbolTableRecord
100
AcDbLayerTableRecord
  2
44
 70
     0
 62
    44
  6
CONTINUOUS
  0
LAYER
  5
66
330
2
100
AcDbSymbolTableRecord
100
AcDbLayerTableRecord
  2
45
 70
     0
 62
    45
  6
CONTINUOUS
  0
LAYER
  5
67
330
2
100
AcDbSymbolTableRecord
100
AcDbLayerTableRecord
  2
46
 70
     0
 62
    46
  6
CONTINUOUS
  0
LAYER
  5
68
330
2
100
AcDbSymbolTableRecord
100
AcDbLayerTableRecord
  2
47
 70
     0
 62
    47
  6
CONTINUOUS
  0
LAYER
  5
69
330
2
100
AcDbSymbolTableRecord
100
AcDbLayerTableRecord
  2
48
 70
     0
 62
    48
  6
CONTINUOUS
  0
LAYER
  5
6A
330
2
100
AcDbSymbolTableRecord
100
AcDbLayerTableRecord
  2
49
 70
     0
 62
    49
  6
CONTINUOUS
  0
LAYER
  5
6B
330
2
100
AcDbSymbolTableRecord
100
AcDbLayerTableRecord
  2
50
 70
     0
 62
    50
  6
CONTINUOUS
  0
LAYER
  5
6C
330
2
100
AcDbSymbolTableRecord
100
AcDbLayerTableRecord
  2
51
 70
     0
 62
    51
  6
CONTINUOUS
  0
LAYER
  5
6D
330
2
100
AcDbSymbolTableRecord
100
AcDbLayerTableRecord
  2
52
 70
     0
 62
    52
  6
CONTINUOUS
  0
LAYER
  5
6E
330
2
100
AcDbSymbolTableRecord
100
AcDbLayerTableRecord
  2
53
 70
     0
 62
    53
  6
CONTINUOUS
  0
LAYER
  5
6F
330
2
100
AcDbSymbolTableRecord
100
AcDbLayerTableRecord
  2
54
 70
     0
 62
    54
  6
CONTINUOUS
  0
LAYER
  5
70
330
2
100
AcDbSymbolTableRecord
100
AcDbLayerTableRecord
  2
55
 70
     0
 62
    55
  6
CONTINUOUS
  0
LAYER
  5
71
330
2
100
AcDbSymbolTableRecord
100
AcDbLayerTableRecord
  2
56
 70
     0
 62
    56
  6
CONTINUOUS
  0
LAYER
  5
72
330
2
100
AcDbSymbolTableRecord
100
AcDbLayerTableRecord
  2
57
 70
     0
 62
    57
  6
CONTINUOUS
  0
LAYER
  5
73
330
2
100
AcDbSymbolTableRecord
100
AcDbLayerTableRecord
  2
58
 70
     0
 62
    58
  6
CONTINUOUS
  0
LAYER
  5
74
330
2
100
AcDbSymbolTableRecord
100
AcDbLayerTableRecord
  2
59
 70
     0
 62
    59
  6
CONTINUOUS
  0
LAYER
  5
75
330
2
100
AcDbSymbolTableRecord
100
AcDbLayerTableRecord
  2
60
 70
     0
 62
    60
  6
CONTINUOUS
  0
LAYER
  5
76
330
2
100
AcDbSymbolTableRecord
100
AcDbLayerTableRecord
  2
61
 70
     0
 62
    61
  6
CONTINUOUS
  0
LAYER
  5
77
330
2
100
AcDbSymbolTableRecord
100
AcDbLayerTableRecord
  2
62
 70
     0
 62
    62
  6
CONTINUOUS
  0
LAYER
  5
78
330
2
100
AcDbSymbolTableRecord
100
AcDbLayerTableRecord
  2
63
 70
     0
 62
    63
  6
CONTINUOUS
  0
LAYER
  5
79
330
2
100
AcDbSymbolTableRecord
100
AcDbLayerTableRecord
  2
64
 70
     0
 62
    64
  6
CONTINUOUS
  0
LAYER
  5
7A
330
2
100
AcDbSymbolTableRecord
100
AcDbLayerTableRecord
  2
65
 70
     0
 62
    65
  6
CONTINUOUS
  0
LAYER
  5
7B
330
2
100
AcDbSymbolTableRecord
100
AcDbLayerTableRecord
  2
66
 70
     0
 62
    66
  6
CONTINUOUS
  0
LAYER
  5
7C
330
2
100
AcDbSymbolTableRecord
100
AcDbLayerTableRecord
  2
67
 70
     0
 62
    67
  6
CONTINUOUS
  0
LAYER
  5
7D
330
2
100
AcDbSymbolTableRecord
100
AcDbLayerTableRecord
  2
68
 70
     0
 62
    68
  6
CONTINUOUS
  0
LAYER
  5
7E
330
2
100
AcDbSymbolTableRecord
100
AcDbLayerTableRecord
  2
69
 70
     0
 62
    69
  6
CONTINUOUS
  0
LAYER
  5
7F
330
2
100
AcDbSymbolTableRecord
100
AcDbLayerTableRecord
  2
70
 70
     0
 62
    70
  6
CONTINUOUS
  0
LAYER
  5
80
330
2
100
AcDbSymbolTableRecord
100
AcDbLayerTableRecord
  2
71
 70
     0
 62
    71
  6
CONTINUOUS
  0
LAYER
  5
81
330
2
100
AcDbSymbolTableRecord
100
AcDbLayerTableRecord
  2
72
 70
     0
 62
    72
  6
CONTINUOUS
  0
LAYER
  5
82
330
2
100
AcDbSymbolTableRecord
100
AcDbLayerTableRecord
  2
73
 70
     0
 62
    73
  6
CONTINUOUS
  0
LAYER
  5
83
330
2
100
AcDbSymbolTableRecord
100
AcDbLayerTableRecord
  2
74
 70
     0
 62
    74
  6
CONTINUOUS
  0
LAYER
  5
84
330
2
100
AcDbSymbolTableRecord
100
AcDbLayerTableRecord
  2
75
 70
     0
 62
    75
  6
CONTINUOUS
  0
LAYER
  5
85
330
2
100
AcDbSymbolTableRecord
100
AcDbLayerTableRecord
  2
76
 70
     0
 62
    76
  6
CONTINUOUS
  0
LAYER
  5
86
330
2
100
AcDbSymbolTableRecord
100
AcDbLayerTableRecord
  2
77
 70
     0
 62
    77
  6
CONTINUOUS
  0
LAYER
  5
87
330
2
100
AcDbSymbolTableRecord
100
AcDbLayerTableRecord
  2
78
 70
     0
 62
    78
  6
CONTINUOUS
  0
LAYER
  5
88
330
2
100
AcDbSymbolTableRecord
100
AcDbLayerTableRecord
  2
79
 70
     0
 62
    79
  6
CONTINUOUS
  0
LAYER
  5
89
330
2
100
AcDbSymbolTableRecord
100
AcDbLayerTableRecord
  2
80
 70
     0
 62
    80
  6
CONTINUOUS
  0
LAYER
  5
8A
330
2
100
AcDbSymbolTableRecord
100
AcDbLayerTableRecord
  2
81
 70
     0
 62
    81
  6
CONTINUOUS
  0
LAYER
  5
8B
330
2
100
AcDbSymbolTableRecord
100
AcDbLayerTableRecord
  2
82
 70
     0
 62
    82
  6
CONTINUOUS
  0
LAYER
  5
8C
330
2
100
AcDbSymbolTableRecord
100
AcDbLayerTableRecord
  2
83
 70
     0
 62
    83
  6
CONTINUOUS
  0
LAYER
  5
8D
330
2
100
AcDbSymbolTableRecord
100
AcDbLayerTableRecord
  2
84
 70
     0
 62
    84
  6
CONTINUOUS
  0
LAYER
  5
8E
330
2
100
AcDbSymbolTableRecord
100
AcDbLayerTableRecord
  2
85
 70
     0
 62
    85
  6
CONTINUOUS
  0
LAYER
  5
8F
330
2
100
AcDbSymbolTableRecord
100
AcDbLayerTableRecord
  2
86
 70
     0
 62
    86
  6
CONTINUOUS
  0
LAYER
  5
90
330
2
100
AcDbSymbolTableRecord
100
AcDbLayerTableRecord
  2
87
 70
     0
 62
    87
  6
CONTINUOUS
  0
LAYER
  5
91
330
2
100
AcDbSymbolTableRecord
100
AcDbLayerTableRecord
  2
88
 70
     0
 62
    88
  6
CONTINUOUS
  0
LAYER
  5
92
330
2
100
AcDbSymbolTableRecord
100
AcDbLayerTableRecord
  2
89
 70
     0
 62
    89
  6
CONTINUOUS
  0
LAYER
  5
93
330
2
100
AcDbSymbolTableRecord
100
AcDbLayerTableRecord
  2
90
 70
     0
 62
    90
  6
CONTINUOUS
  0
LAYER
  5
94
330
2
100
AcDbSymbolTableRecord
100
AcDbLayerTableRecord
  2
91
 70
     0
 62
    91
  6
CONTINUOUS
  0
LAYER
  5
95
330
2
100
AcDbSymbolTableRecord
100
AcDbLayerTableRecord
  2
92
 70
     0
 62
    92
  6
CONTINUOUS
  0
LAYER
  5
96
330
2
100
AcDbSymbolTableRecord
100
AcDbLayerTableRecord
  2
93
 70
     0
 62
    93
  6
CONTINUOUS
  0
LAYER
  5
97
330
2
100
AcDbSymbolTableRecord
100
AcDbLayerTableRecord
  2
94
 70
     0
 62
    94
  6
CONTINUOUS
  0
LAYER
  5
98
330
2
100
AcDbSymbolTableRecord
100
AcDbLayerTableRecord
  2
95
 70
     0
 62
    95
  6
CONTINUOUS
  0
LAYER
  5
99
330
2
100
AcDbSymbolTableRecord
100
AcDbLayerTableRecord
  2
96
 70
     0
 62
    96
  6
CONTINUOUS
  0
LAYER
  5
9A
330
2
100
AcDbSymbolTableRecord
100
AcDbLayerTableRecord
  2
97
 70
     0
 62
    97
  6
CONTINUOUS
  0
LAYER
  5
9B
330
2
100
AcDbSymbolTableRecord
100
AcDbLayerTableRecord
  2
98
 70
     0
 62
    98
  6
CONTINUOUS
  0
LAYER
  5
9C
330
2
100
AcDbSymbolTableRecord
100
AcDbLayerTableRecord
  2
99
 70
     0
 62
    99
  6
CONTINUOUS
  0
LAYER
  5
9D
330
2
100
AcDbSymbolTableRecord
100
AcDbLayerTableRecord
  2
100
 70
     0
 62
   100
  6
CONTINUOUS
  0
LAYER
  5
9E
330
2
100
AcDbSymbolTableRecord
100
AcDbLayerTableRecord
  2
101
 70
     0
 62
   101
  6
CONTINUOUS
  0
LAYER
  5
9F
330
2
100
AcDbSymbolTableRecord
100
AcDbLayerTableRecord
  2
102
 70
     0
 62
   102
  6
CONTINUOUS
  0
LAYER
  5
A0
330
2
100
AcDbSymbolTableRecord
100
AcDbLayerTableRecord
  2
103
 70
     0
 62
   103
  6
CONTINUOUS
  0
LAYER
  5
A1
330
2
100
AcDbSymbolTableRecord
100
AcDbLayerTableRecord
  2
104
 70
     0
 62
   104
  6
CONTINUOUS
  0
LAYER
  5
A2
330
2
100
AcDbSymbolTableRecord
100
AcDbLayerTableRecord
  2
105
 70
     0
 62
   105
  6
CONTINUOUS
  0
LAYER
  5
A3
330
2
100
AcDbSymbolTableRecord
100
AcDbLayerTableRecord
  2
106
 70
     0
 62
   106
  6
CONTINUOUS
  0
LAYER
  5
A4
330
2
100
AcDbSymbolTableRecord
100
AcDbLayerTableRecord
  2
107
 70
     0
 62
   107
  6
CONTINUOUS
  0
LAYER
  5
A5
330
2
100
AcDbSymbolTableRecord
100
AcDbLayerTableRecord
  2
108
 70
     0
 62
   108
  6
CONTINUOUS
  0
LAYER
  5
A6
330
2
100
AcDbSymbolTableRecord
100
AcDbLayerTableRecord
  2
109
 70
     0
 62
   109
  6
CONTINUOUS
  0
LAYER
  5
A7
330
2
100
AcDbSymbolTableRecord
100
AcDbLayerTableRecord
  2
110
 70
     0
 62
   110
  6
CONTINUOUS
  0
LAYER
  5
A8
330
2
100
AcDbSymbolTableRecord
100
AcDbLayerTableRecord
  2
111
 70
     0
 62
   111
  6
CONTINUOUS
  0
LAYER
  5
A9
330
2
100
AcDbSymbolTableRecord
100
AcDbLayerTableRecord
  2
112
 70
     0
 62
   112
  6
CONTINUOUS
  0
LAYER
  5
AA
330
2
100
AcDbSymbolTableRecord
100
AcDbLayerTableRecord
  2
113
 70
     0
 62
   113
  6
CONTINUOUS
  0
LAYER
  5
AB
330
2
100
AcDbSymbolTableRecord
100
AcDbLayerTableRecord
  2
114
 70
     0
 62
   114
  6
CONTINUOUS
  0
LAYER
  5
AC
330
2
100
AcDbSymbolTableRecord
100
AcDbLayerTableRecord
  2
115
 70
     0
 62
   115
  6
CONTINUOUS
  0
LAYER
  5
AD
330
2
100
AcDbSymbolTableRecord
100
AcDbLayerTableRecord
  2
116
 70
     0
 62
   116
  6
CONTINUOUS
  0
LAYER
  5
AE
330
2
100
AcDbSymbolTableRecord
100
AcDbLayerTableRecord
  2
117
 70
     0
 62
   117
  6
CONTINUOUS
  0
LAYER
  5
AF
330
2
100
AcDbSymbolTableRecord
100
AcDbLayerTableRecord
  2
118
 70
     0
 62
   118
  6
CONTINUOUS
  0
LAYER
  5
B0
330
2
100
AcDbSymbolTableRecord
100
AcDbLayerTableRecord
  2
119
 70
     0
 62
   119
  6
CONTINUOUS
  0
LAYER
  5
B1
330
2
100
AcDbSymbolTableRecord
100
AcDbLayerTableRecord
  2
120
 70
     0
 62
   120
  6
CONTINUOUS
  0
LAYER
  5
B2
330
2
100
AcDbSymbolTableRecord
100
AcDbLayerTableRecord
  2
121
 70
     0
 62
   121
  6
CONTINUOUS
  0
LAYER
  5
B3
330
2
100
AcDbSymbolTableRecord
100
AcDbLayerTableRecord
  2
122
 70
     0
 62
   122
  6
CONTINUOUS
  0
LAYER
  5
B4
330
2
100
AcDbSymbolTableRecord
100
AcDbLayerTableRecord
  2
123
 70
     0
 62
   123
  6
CONTINUOUS
  0
LAYER
  5
B5
330
2
100
AcDbSymbolTableRecord
100
AcDbLayerTableRecord
  2
124
 70
     0
 62
   124
  6
CONTINUOUS
  0
LAYER
  5
B6
330
2
100
AcDbSymbolTableRecord
100
AcDbLayerTableRecord
  2
125
 70
     0
 62
   125
  6
CONTINUOUS
  0
LAYER
  5
B7
330
2
100
AcDbSymbolTableRecord
100
AcDbLayerTableRecord
  2
126
 70
     0
 62
   126
  6
CONTINUOUS
  0
LAYER
  5
B8
330
2
100
AcDbSymbolTableRecord
100
AcDbLayerTableRecord
  2
127
 70
     0
 62
   127
  6
CONTINUOUS
  0
LAYER
  5
B9
330
2
100
AcDbSymbolTableRecord
100
AcDbLayerTableRecord
  2
128
 70
     0
 62
   128
  6
CONTINUOUS
  0
LAYER
  5
BA
330
2
100
AcDbSymbolTableRecord
100
AcDbLayerTableRecord
  2
129
 70
     0
 62
   129
  6
CONTINUOUS
  0
LAYER
  5
BB
330
2
100
AcDbSymbolTableRecord
100
AcDbLayerTableRecord
  2
130
 70
     0
 62
   130
  6
CONTINUOUS
  0
LAYER
  5
BC
330
2
100
AcDbSymbolTableRecord
100
AcDbLayerTableRecord
  2
131
 70
     0
 62
   131
  6
CONTINUOUS
  0
LAYER
  5
BD
330
2
100
AcDbSymbolTableRecord
100
AcDbLayerTableRecord
  2
132
 70
     0
 62
   132
  6
CONTINUOUS
  0
LAYER
  5
BE
330
2
100
AcDbSymbolTableRecord
100
AcDbLayerTableRecord
  2
133
 70
     0
 62
   133
  6
CONTINUOUS
  0
LAYER
  5
BF
330
2
100
AcDbSymbolTableRecord
100
AcDbLayerTableRecord
  2
134
 70
     0
 62
   134
  6
CONTINUOUS
  0
LAYER
  5
C0
330
2
100
AcDbSymbolTableRecord
100
AcDbLayerTableRecord
  2
135
 70
     0
 62
   135
  6
CONTINUOUS
  0
LAYER
  5
C1
330
2
100
AcDbSymbolTableRecord
100
AcDbLayerTableRecord
  2
136
 70
     0
 62
   136
  6
CONTINUOUS
  0
LAYER
  5
C2
330
2
100
AcDbSymbolTableRecord
100
AcDbLayerTableRecord
  2
137
 70
     0
 62
   137
  6
CONTINUOUS
  0
LAYER
  5
C3
330
2
100
AcDbSymbolTableRecord
100
AcDbLayerTableRecord
  2
138
 70
     0
 62
   138
  6
CONTINUOUS
  0
LAYER
  5
C4
330
2
100
AcDbSymbolTableRecord
100
AcDbLayerTableRecord
  2
139
 70
     0
 62
   139
  6
CONTINUOUS
  0
LAYER
  5
C5
330
2
100
AcDbSymbolTableRecord
100
AcDbLayerTableRecord
  2
140
 70
     0
 62
   140
  6
CONTINUOUS
  0
LAYER
  5
C6
330
2
100
AcDbSymbolTableRecord
100
AcDbLayerTableRecord
  2
141
 70
     0
 62
   141
  6
CONTINUOUS
  0
LAYER
  5
C7
330
2
100
AcDbSymbolTableRecord
100
AcDbLayerTableRecord
  2
142
 70
     0
 62
   142
  6
CONTINUOUS
  0
LAYER
  5
C8
330
2
100
AcDbSymbolTableRecord
100
AcDbLayerTableRecord
  2
143
 70
     0
 62
   143
  6
CONTINUOUS
  0
LAYER
  5
C9
330
2
100
AcDbSymbolTableRecord
100
AcDbLayerTableRecord
  2
144
 70
     0
 62
   144
  6
CONTINUOUS
  0
LAYER
  5
CA
330
2
100
AcDbSymbolTableRecord
100
AcDbLayerTableRecord
  2
145
 70
     0
 62
   145
  6
CONTINUOUS
  0
LAYER
  5
CB
330
2
100
AcDbSymbolTableRecord
100
AcDbLayerTableRecord
  2
146
 70
     0
 62
   146
  6
CONTINUOUS
  0
LAYER
  5
CC
330
2
100
AcDbSymbolTableRecord
100
AcDbLayerTableRecord
  2
147
 70
     0
 62
   147
  6
CONTINUOUS
  0
LAYER
  5
CD
330
2
100
AcDbSymbolTableRecord
100
AcDbLayerTableRecord
  2
148
 70
     0
 62
   148
  6
CONTINUOUS
  0
LAYER
  5
CE
330
2
100
AcDbSymbolTableRecord
100
AcDbLayerTableRecord
  2
149
 70
     0
 62
   149
  6
CONTINUOUS
  0
LAYER
  5
CF
330
2
100
AcDbSymbolTableRecord
100
AcDbLayerTableRecord
  2
150
 70
     0
 62
   150
  6
CONTINUOUS
  0
LAYER
  5
D0
330
2
100
AcDbSymbolTableRecord
100
AcDbLayerTableRecord
  2
151
 70
     0
 62
   151
  6
CONTINUOUS
  0
LAYER
  5
D1
330
2
100
AcDbSymbolTableRecord
100
AcDbLayerTableRecord
  2
152
 70
     0
 62
   152
  6
CONTINUOUS
  0
LAYER
  5
D2
330
2
100
AcDbSymbolTableRecord
100
AcDbLayerTableRecord
  2
153
 70
     0
 62
   153
  6
CONTINUOUS
  0
LAYER
  5
D3
330
2
100
AcDbSymbolTableRecord
100
AcDbLayerTableRecord
  2
154
 70
     0
 62
   154
  6
CONTINUOUS
  0
LAYER
  5
D4
330
2
100
AcDbSymbolTableRecord
100
AcDbLayerTableRecord
  2
155
 70
     0
 62
   155
  6
CONTINUOUS
  0
LAYER
  5
D5
330
2
100
AcDbSymbolTableRecord
100
AcDbLayerTableRecord
  2
156
 70
     0
 62
   156
  6
CONTINUOUS
  0
LAYER
  5
D6
330
2
100
AcDbSymbolTableRecord
100
AcDbLayerTableRecord
  2
157
 70
     0
 62
   157
  6
CONTINUOUS
  0
LAYER
  5
D7
330
2
100
AcDbSymbolTableRecord
100
AcDbLayerTableRecord
  2
158
 70
     0
 62
   158
  6
CONTINUOUS
  0
LAYER
  5
D8
330
2
100
AcDbSymbolTableRecord
100
AcDbLayerTableRecord
  2
159
 70
     0
 62
   159
  6
CONTINUOUS
  0
LAYER
  5
D9
330
2
100
AcDbSymbolTableRecord
100
AcDbLayerTableRecord
  2
160
 70
     0
 62
   160
  6
CONTINUOUS
  0
LAYER
  5
DA
330
2
100
AcDbSymbolTableRecord
100
AcDbLayerTableRecord
  2
161
 70
     0
 62
   161
  6
CONTINUOUS
  0
LAYER
  5
DB
330
2
100
AcDbSymbolTableRecord
100
AcDbLayerTableRecord
  2
162
 70
     0
 62
   162
  6
CONTINUOUS
  0
LAYER
  5
DC
330
2
100
AcDbSymbolTableRecord
100
AcDbLayerTableRecord
  2
163
 70
     0
 62
   163
  6
CONTINUOUS
  0
LAYER
  5
DD
330
2
100
AcDbSymbolTableRecord
100
AcDbLayerTableRecord
  2
164
 70
     0
 62
   164
  6
CONTINUOUS
  0
LAYER
  5
DE
330
2
100
AcDbSymbolTableRecord
100
AcDbLayerTableRecord
  2
165
 70
     0
 62
   165
  6
CONTINUOUS
  0
LAYER
  5
DF
330
2
100
AcDbSymbolTableRecord
100
AcDbLayerTableRecord
  2
166
 70
     0
 62
   166
  6
CONTINUOUS
  0
LAYER
  5
E0
330
2
100
AcDbSymbolTableRecord
100
AcDbLayerTableRecord
  2
167
 70
     0
 62
   167
  6
CONTINUOUS
  0
LAYER
  5
E1
330
2
100
AcDbSymbolTableRecord
100
AcDbLayerTableRecord
  2
168
 70
     0
 62
   168
  6
CONTINUOUS
  0
LAYER
  5
E2
330
2
100
AcDbSymbolTableRecord
100
AcDbLayerTableRecord
  2
169
 70
     0
 62
   169
  6
CONTINUOUS
  0
LAYER
  5
E3
330
2
100
AcDbSymbolTableRecord
100
AcDbLayerTableRecord
  2
170
 70
     0
 62
   170
  6
CONTINUOUS
  0
LAYER
  5
E4
330
2
100
AcDbSymbolTableRecord
100
AcDbLayerTableRecord
  2
171
 70
     0
 62
   171
  6
CONTINUOUS
  0
LAYER
  5
E5
330
2
100
AcDbSymbolTableRecord
100
AcDbLayerTableRecord
  2
172
 70
     0
 62
   172
  6
CONTINUOUS
  0
LAYER
  5
E6
330
2
100
AcDbSymbolTableRecord
100
AcDbLayerTableRecord
  2
173
 70
     0
 62
   173
  6
CONTINUOUS
  0
LAYER
  5
E7
330
2
100
AcDbSymbolTableRecord
100
AcDbLayerTableRecord
  2
174
 70
     0
 62
   174
  6
CONTINUOUS
  0
LAYER
  5
E8
330
2
100
AcDbSymbolTableRecord
100
AcDbLayerTableRecord
  2
175
 70
     0
 62
   175
  6
CONTINUOUS
  0
LAYER
  5
E9
330
2
100
AcDbSymbolTableRecord
100
AcDbLayerTableRecord
  2
176
 70
     0
 62
   176
  6
CONTINUOUS
  0
LAYER
  5
EA
330
2
100
AcDbSymbolTableRecord
100
AcDbLayerTableRecord
  2
177
 70
     0
 62
   177
  6
CONTINUOUS
  0
LAYER
  5
EB
330
2
100
AcDbSymbolTableRecord
100
AcDbLayerTableRecord
  2
178
 70
     0
 62
   178
  6
CONTINUOUS
  0
LAYER
  5
EC
330
2
100
AcDbSymbolTableRecord
100
AcDbLayerTableRecord
  2
179
 70
     0
 62
   179
  6
CONTINUOUS
  0
LAYER
  5
ED
330
2
100
AcDbSymbolTableRecord
100
AcDbLayerTableRecord
  2
180
 70
     0
 62
   180
  6
CONTINUOUS
  0
LAYER
  5
EE
330
2
100
AcDbSymbolTableRecord
100
AcDbLayerTableRecord
  2
181
 70
     0
 62
   181
  6
CONTINUOUS
  0
LAYER
  5
EF
330
2
100
AcDbSymbolTableRecord
100
AcDbLayerTableRecord
  2
182
 70
     0
 62
   182
  6
CONTINUOUS
  0
LAYER
  5
F0
330
2
100
AcDbSymbolTableRecord
100
AcDbLayerTableRecord
  2
183
 70
     0
 62
   183
  6
CONTINUOUS
  0
LAYER
  5
F1
330
2
100
AcDbSymbolTableRecord
100
AcDbLayerTableRecord
  2
184
 70
     0
 62
   184
  6
CONTINUOUS
  0
LAYER
  5
F2
330
2
100
AcDbSymbolTableRecord
100
AcDbLayerTableRecord
  2
185
 70
     0
 62
   185
  6
CONTINUOUS
  0
LAYER
  5
F3
330
2
100
AcDbSymbolTableRecord
100
AcDbLayerTableRecord
  2
186
 70
     0
 62
   186
  6
CONTINUOUS
  0
LAYER
  5
F4
330
2
100
AcDbSymbolTableRecord
100
AcDbLayerTableRecord
  2
187
 70
     0
 62
   187
  6
CONTINUOUS
  0
LAYER
  5
F5
330
2
100
AcDbSymbolTableRecord
100
AcDbLayerTableRecord
  2
188
 70
     0
 62
   188
  6
CONTINUOUS
  0
LAYER
  5
F6
330
2
100
AcDbSymbolTableRecord
100
AcDbLayerTableRecord
  2
189
 70
     0
 62
   189
  6
CONTINUOUS
  0
LAYER
  5
F7
330
2
100
AcDbSymbolTableRecord
100
AcDbLayerTableRecord
  2
190
 70
     0
 62
   190
  6
CONTINUOUS
  0
LAYER
  5
F8
330
2
100
AcDbSymbolTableRecord
100
AcDbLayerTableRecord
  2
191
 70
     0
 62
   191
  6
CONTINUOUS
  0
LAYER
  5
F9
330
2
100
AcDbSymbolTableRecord
100
AcDbLayerTableRecord
  2
192
 70
     0
 62
   192
  6
CONTINUOUS
  0
LAYER
  5
FA
330
2
100
AcDbSymbolTableRecord
100
AcDbLayerTableRecord
  2
193
 70
     0
 62
   193
  6
CONTINUOUS
  0
LAYER
  5
FB
330
2
100
AcDbSymbolTableRecord
100
AcDbLayerTableRecord
  2
194
 70
     0
 62
   194
  6
CONTINUOUS
  0
LAYER
  5
FC
330
2
100
AcDbSymbolTableRecord
100
AcDbLayerTableRecord
  2
195
 70
     0
 62
   195
  6
CONTINUOUS
  0
LAYER
  5
FD
330
2
100
AcDbSymbolTableRecord
100
AcDbLayerTableRecord
  2
196
 70
     0
 62
   196
  6
CONTINUOUS
  0
LAYER
  5
FE
330
2
100
AcDbSymbolTableRecord
100
AcDbLayerTableRecord
  2
197
 70
     0
 62
   197
  6
CONTINUOUS
  0
LAYER
  5
FF
330
2
100
AcDbSymbolTableRecord
100
AcDbLayerTableRecord
  2
198
 70
     0
 62
   198
  6
CONTINUOUS
  0
LAYER
  5
100
330
2
100
AcDbSymbolTableRecord
100
AcDbLayerTableRecord
  2
199
 70
     0
 62
   199
  6
CONTINUOUS
  0
LAYER
  5
101
330
2
100
AcDbSymbolTableRecord
100
AcDbLayerTableRecord
  2
200
 70
     0
 62
   200
  6
CONTINUOUS
  0
LAYER
  5
102
330
2
100
AcDbSymbolTableRecord
100
AcDbLayerTableRecord
  2
201
 70
     0
 62
   201
  6
CONTINUOUS
  0
LAYER
  5
103
330
2
100
AcDbSymbolTableRecord
100
AcDbLayerTableRecord
  2
202
 70
     0
 62
   202
  6
CONTINUOUS
  0
LAYER
  5
104
330
2
100
AcDbSymbolTableRecord
100
AcDbLayerTableRecord
  2
203
 70
     0
 62
   203
  6
CONTINUOUS
  0
LAYER
  5
105
330
2
100
AcDbSymbolTableRecord
100
AcDbLayerTableRecord
  2
204
 70
     0
 62
   204
  6
CONTINUOUS
  0
LAYER
  5
106
330
2
100
AcDbSymbolTableRecord
100
AcDbLayerTableRecord
  2
205
 70
     0
 62
   205
  6
CONTINUOUS
  0
LAYER
  5
107
330
2
100
AcDbSymbolTableRecord
100
AcDbLayerTableRecord
  2
206
 70
     0
 62
   206
  6
CONTINUOUS
  0
LAYER
  5
108
330
2
100
AcDbSymbolTableRecord
100
AcDbLayerTableRecord
  2
207
 70
     0
 62
   207
  6
CONTINUOUS
  0
LAYER
  5
109
330
2
100
AcDbSymbolTableRecord
100
AcDbLayerTableRecord
  2
208
 70
     0
 62
   208
  6
CONTINUOUS
  0
LAYER
  5
10A
330
2
100
AcDbSymbolTableRecord
100
AcDbLayerTableRecord
  2
209
 70
     0
 62
   209
  6
CONTINUOUS
  0
LAYER
  5
10B
330
2
100
AcDbSymbolTableRecord
100
AcDbLayerTableRecord
  2
210
 70
     0
 62
   210
  6
CONTINUOUS
  0
LAYER
  5
10C
330
2
100
AcDbSymbolTableRecord
100
AcDbLayerTableRecord
  2
211
 70
     0
 62
   211
  6
CONTINUOUS
  0
LAYER
  5
10D
330
2
100
AcDbSymbolTableRecord
100
AcDbLayerTableRecord
  2
212
 70
     0
 62
   212
  6
CONTINUOUS
  0
LAYER
  5
10E
330
2
100
AcDbSymbolTableRecord
100
AcDbLayerTableRecord
  2
213
 70
     0
 62
   213
  6
CONTINUOUS
  0
LAYER
  5
10F
330
2
100
AcDbSymbolTableRecord
100
AcDbLayerTableRecord
  2
214
 70
     0
 62
   214
  6
CONTINUOUS
  0
LAYER
  5
110
330
2
100
AcDbSymbolTableRecord
100
AcDbLayerTableRecord
  2
215
 70
     0
 62
   215
  6
CONTINUOUS
  0
LAYER
  5
111
330
2
100
AcDbSymbolTableRecord
100
AcDbLayerTableRecord
  2
216
 70
     0
 62
   216
  6
CONTINUOUS
  0
LAYER
  5
112
330
2
100
AcDbSymbolTableRecord
100
AcDbLayerTableRecord
  2
217
 70
     0
 62
   217
  6
CONTINUOUS
  0
LAYER
  5
113
330
2
100
AcDbSymbolTableRecord
100
AcDbLayerTableRecord
  2
218
 70
     0
 62
   218
  6
CONTINUOUS
  0
LAYER
  5
114
330
2
100
AcDbSymbolTableRecord
100
AcDbLayerTableRecord
  2
219
 70
     0
 62
   219
  6
CONTINUOUS
  0
LAYER
  5
115
330
2
100
AcDbSymbolTableRecord
100
AcDbLayerTableRecord
  2
220
 70
     0
 62
   220
  6
CONTINUOUS
  0
LAYER
  5
116
330
2
100
AcDbSymbolTableRecord
100
AcDbLayerTableRecord
  2
221
 70
     0
 62
   221
  6
CONTINUOUS
  0
LAYER
  5
117
330
2
100
AcDbSymbolTableRecord
100
AcDbLayerTableRecord
  2
222
 70
     0
 62
   222
  6
CONTINUOUS
  0
LAYER
  5
118
330
2
100
AcDbSymbolTableRecord
100
AcDbLayerTableRecord
  2
223
 70
     0
 62
   223
  6
CONTINUOUS
  0
LAYER
  5
119
330
2
100
AcDbSymbolTableRecord
100
AcDbLayerTableRecord
  2
224
 70
     0
 62
   224
  6
CONTINUOUS
  0
LAYER
  5
11A
330
2
100
AcDbSymbolTableRecord
100
AcDbLayerTableRecord
  2
225
 70
     0
 62
   225
  6
CONTINUOUS
  0
LAYER
  5
11B
330
2
100
AcDbSymbolTableRecord
100
AcDbLayerTableRecord
  2
226
 70
     0
 62
   226
  6
CONTINUOUS
  0
LAYER
  5
11C
330
2
100
AcDbSymbolTableRecord
100
AcDbLayerTableRecord
  2
227
 70
     0
 62
   227
  6
CONTINUOUS
  0
LAYER
  5
11D
330
2
100
AcDbSymbolTableRecord
100
AcDbLayerTableRecord
  2
228
 70
     0
 62
   228
  6
CONTINUOUS
  0
LAYER
  5
11E
330
2
100
AcDbSymbolTableRecord
100
AcDbLayerTableRecord
  2
229
 70
     0
 62
   229
  6
CONTINUOUS
  0
LAYER
  5
11F
330
2
100
AcDbSymbolTableRecord
100
AcDbLayerTableRecord
  2
230
 70
     0
 62
   230
  6
CONTINUOUS
  0
LAYER
  5
120
330
2
100
AcDbSymbolTableRecord
100
AcDbLayerTableRecord
  2
231
 70
     0
 62
   231
  6
CONTINUOUS
  0
LAYER
  5
121
330
2
100
AcDbSymbolTableRecord
100
AcDbLayerTableRecord
  2
232
 70
     0
 62
   232
  6
CONTINUOUS
  0
LAYER
  5
122
330
2
100
AcDbSymbolTableRecord
100
AcDbLayerTableRecord
  2
233
 70
     0
 62
   233
  6
CONTINUOUS
  0
LAYER
  5
123
330
2
100
AcDbSymbolTableRecord
100
AcDbLayerTableRecord
  2
234
 70
     0
 62
   234
  6
CONTINUOUS
  0
LAYER
  5
124
330
2
100
AcDbSymbolTableRecord
100
AcDbLayerTableRecord
  2
235
 70
     0
 62
   235
  6
CONTINUOUS
  0
LAYER
  5
125
330
2
100
AcDbSymbolTableRecord
100
AcDbLayerTableRecord
  2
236
 70
     0
 62
   236
  6
CONTINUOUS
  0
LAYER
  5
126
330
2
100
AcDbSymbolTableRecord
100
AcDbLayerTableRecord
  2
237
 70
     0
 62
   237
  6
CONTINUOUS
  0
LAYER
  5
127
330
2
100
AcDbSymbolTableRecord
100
AcDbLayerTableRecord
  2
238
 70
     0
 62
   238
  6
CONTINUOUS
  0
LAYER
  5
128
330
2
100
AcDbSymbolTableRecord
100
AcDbLayerTableRecord
  2
239
 70
     0
 62
   239
  6
CONTINUOUS
  0
LAYER
  5
129
330
2
100
AcDbSymbolTableRecord
100
AcDbLayerTableRecord
  2
240
 70
     0
 62
   240
  6
CONTINUOUS
  0
LAYER
  5
12A
330
2
100
AcDbSymbolTableRecord
100
AcDbLayerTableRecord
  2
241
 70
     0
 62
   241
  6
CONTINUOUS
  0
LAYER
  5
12B
330
2
100
AcDbSymbolTableRecord
100
AcDbLayerTableRecord
  2
242
 70
     0
 62
   242
  6
CONTINUOUS
  0
LAYER
  5
12C
330
2
100
AcDbSymbolTableRecord
100
AcDbLayerTableRecord
  2
243
 70
     0
 62
   243
  6
CONTINUOUS
  0
LAYER
  5
12D
330
2
100
AcDbSymbolTableRecord
100
AcDbLayerTableRecord
  2
244
 70
     0
 62
   244
  6
CONTINUOUS
  0
LAYER
  5
12E
330
2
100
AcDbSymbolTableRecord
100
AcDbLayerTableRecord
  2
245
 70
     0
 62
   245
  6
CONTINUOUS
  0
LAYER
  5
12F
330
2
100
AcDbSymbolTableRecord
100
AcDbLayerTableRecord
  2
246
 70
     0
 62
   246
  6
CONTINUOUS
  0
LAYER
  5
130
330
2
100
AcDbSymbolTableRecord
100
AcDbLayerTableRecord
  2
247
 70
     0
 62
   247
  6
CONTINUOUS
  0
LAYER
  5
131
330
2
100
AcDbSymbolTableRecord
100
AcDbLayerTableRecord
  2
248
 70
     0
 62
   248
  6
CONTINUOUS
  0
LAYER
  5
132
330
2
100
AcDbSymbolTableRecord
100
AcDbLayerTableRecord
  2
249
 70
     0
 62
   249
  6
CONTINUOUS
  0
LAYER
  5
133
330
2
100
AcDbSymbolTableRecord
100
AcDbLayerTableRecord
  2
250
 70
     0
 62
   250
  6
CONTINUOUS
  0
LAYER
  5
134
330
2
100
AcDbSymbolTableRecord
100
AcDbLayerTableRecord
  2
251
 70
     0
 62
   251
  6
CONTINUOUS
  0
LAYER
  5
135
330
2
100
AcDbSymbolTableRecord
100
AcDbLayerTableRecord
  2
252
 70
     0
 62
   252
  6
CONTINUOUS
  0
LAYER
  5
136
330
2
100
AcDbSymbolTableRecord
100
AcDbLayerTableRecord
  2
253
 70
     0
 62
   253
  6
CONTINUOUS
  0
LAYER
  5
137
330
2
100
AcDbSymbolTableRecord
100
AcDbLayerTableRecord
  2
254
 70
     0
 62
   254
  6
CONTINUOUS
  0
LAYER
  5
138
330
2
100
AcDbSymbolTableRecord
100
AcDbLayerTableRecord
  2
255
 70
     0
 62
   255
  6
CONTINUOUS
  0
ENDTAB
  0
TABLE
  2
STYLE
  5
3
330
0
100
AcDbSymbolTable
 70
     1
  0
STYLE
  5
11
330
3
100
AcDbSymbolTableRecord
100
AcDbTextStyleTableRecord
  2
STANDARD
 70
     0
 40
0.0
 41
1.0
 50
0.0
 71
     0
 42
0.2
  3
txt
  4

  0
ENDTAB
  0
TABLE
  2
VIEW
  5
6
330
0
100
AcDbSymbolTable
 70
     0
  0
ENDTAB
  0
TABLE
  2
UCS
  5
7
330
0
100
AcDbSymbolTable
 70
     0
  0
ENDTAB
  0
TABLE
  2
APPID
  5
9
330
0
100
AcDbSymbolTable
 70
     1
  0
APPID
  5
12
330
9
100
AcDbSymbolTableRecord
100
AcDbRegAppTableRecord
  2
ACAD
 70
     0
  0
ENDTAB
  0
TABLE
  2
DIMSTYLE
  5
A
330
0
100
AcDbSymbolTable
 70
     1
  0
DIMSTYLE
105
B87
330
A
100
AcDbSymbolTableRecord
100
AcDbDimStyleTableRecord
  2
STANDARD
 70
     0
  3

  4

  5

  6

  7

 40
1.0
 41
0.18
 42
0.0625
 43
0.38
 44
0.18
 45
0.0
 46
0.0
 47
0.0
 48
0.0
140
0.18
141
0.09
142
0.0
143
25.4
144
1.0
145
0.0
146
1.0
147
0.09
 71
     0
 72
     0
 73
     1
 74
     1
 75
     0
 76
     0
 77
     0
 78
     0
170
     0
171
     2
172
     0
173
     0
174
     0
175
     0
176
     0
177
     0
178
     0
270
     2
271
     4
272
     4
273
     2
274
     2
340
11
275
     0
280
     0
281
     0
282
     0
283
     1
284
     0
285
     0
286
     0
287
     3
288
     0
  0
ENDTAB
  0
TABLE
  2
BLOCK_RECORD
  5
1
330
0
100
AcDbSymbolTable
 70
     0
  0
BLOCK_RECORD
  5
1E
102
{ACAD_XDICTIONARY
360
BAF
102
}
330
1
100
AcDbSymbolTableRecord
100
AcDbBlockTableRecord
  2
*MODEL_SPACE
  0
BLOCK_RECORD
  5
1A
102
{ACAD_XDICTIONARY
360
BAD
102
}
330
1
100
AcDbSymbolTableRecord
100
AcDbBlockTableRecord
  2
*PAPER_SPACE
  0
ENDTAB
  0
ENDSEC
  0
SECTION
  2
BLOCKS
  0
BLOCK
  5
13B
330
1E
100
AcDbEntity
  8
0
100
AcDbBlockBegin
  2
*MODEL_SPACE
 70
     0
 10
0.0
 20
0.0
 30
0.0
  3
*MODEL_SPACE
  1

  0
ENDBLK
  5
13C
330
1E
100
AcDbEntity
  8
0
100
AcDbBlockEnd
  0
BLOCK
  5
139
330
1A
100
AcDbEntity
 67
     1
  8
0
100
AcDbBlockBegin
  2
*PAPER_SPACE
 70
     0
 10
0.0
 20
0.0
 30
0.0
  3
*PAPER_SPACE
  1

  0
ENDBLK
  5
13A
330
1A
100
AcDbEntity
 67
     1
  8
0
100
AcDbBlockEnd
  0
ENDSEC
  0
SECTION
  2
ENTITIES
  0
LINE
  5
148
330
1E
100
AcDbEntity
  8
0
100
AcDbLine
 10
11.39526996753265
 20
39.30405268905412
 30
0.0
 11
10.84405293847465
 21
39.30405268905412
 31
0.0
  0
LINE
  5
149
330
1E
100
AcDbEntity
  8
0
100
AcDbLine
 10
10.84405293847465
 20
35.60302406537895
 30
0.0
 11
11.39526996753265
 21
35.60302406537895
 31
0.0
  0
LINE
  5
14A
330
1E
100
AcDbEntity
  8
0
100
AcDbLine
 10
1.532422411887632
 20
35.60302406537895
 30
0.0
 11
2.083639440945637
 21
35.60302406537895
 31
0.0
  0
LINE
  5
14B
330
1E
100
AcDbEntity
  8
0
100
AcDbLine
 10
2.083639440945637
 20
39.30405268905412
 30
0.0
 11
1.532422411887632
 21
39.30405268905412
 31
0.0
  0
LWPOLYLINE
  5
14C
330
1E
100
AcDbEntity
  8
0
100
AcDbPolyline
 90
        7
 70
     0
 43
0.0
 10
10.84405293847464
 20
39.30405268905412
 10
10.82436661600829
 20
39.30405268905412
 10
10.80468029354192
 20
39.30405268905412
 10
10.78499397107557
 20
39.28436636658776
 10
10.76530764860921
 20
39.28436636658776
 10
10.74562132614286
 20
39.28436636658776
 10
10.74562132614286
 20
39.26468004412141
  0
LWPOLYLINE
  5
155
330
1E
100
AcDbEntity
  8
0
100
AcDbPolyline
 90
        6
 70
     0
 43
0.0
 10
11.49370157986443
 20
39.26468004412141
 10
11.47401525739808
 20
39.28436636658776
 10
11.45432893493173
 20
39.28436636658776
 10
11.43464261246535
 20
39.30405268905412
 10
11.414956289999
 20
39.30405268905412
 10
11.39526996753265
 20
39.30405268905412
  0
LWPOLYLINE
  5
15D
330
1E
100
AcDbEntity
  8
0
100
AcDbPolyline
 90
        7
 70
     0
 43
0.0
 10
10.74562132614286
 20
35.64239671031167
 10
10.74562132614286
 20
35.6227103878453
 10
10.76530764860921
 20
35.6227103878453
 10
10.78499397107557
 20
35.60302406537894
 10
10.80468029354192
 20
35.60302406537894
 10
10.82436661600829
 20
35.60302406537894
 10
10.84405293847464
 20
35.60302406537894
  0
LINE
  5
166
330
1E
100
AcDbEntity
  8
0
100
AcDbLine
 10
11.47401525739808
 20
35.62271038784531
 30
0.0
 11
11.49370157986443
 21
35.64239671031168
 31
0.0
  0
LWPOLYLINE
  5
167
330
1E
100
AcDbEntity
  8
0
100
AcDbPolyline
 90
        7
 70
     0
 43
0.0
 10
2.083639440945637
 20
35.60302406537894
 10
2.10332576341199
 20
35.60302406537894
 10
2.123012085878343
 20
35.60302406537894
 10
2.142698408344696
 20
35.60302406537894
 10
2.162384730811067
 20
35.6227103878453
 10
2.182071053277419
 20
35.6227103878453
 10
2.182071053277419
 20
35.64239671031167
  0
LWPOLYLINE
  5
170
330
1E
100
AcDbEntity
  8
0
100
AcDbPolyline
 90
        7
 70
     0
 43
0.0
 10
1.433990799555834
 20
35.64239671031167
 10
1.453677122022204
 20
35.6227103878453
 10
1.473363444488557
 20
35.6227103878453
 10
1.473363444488557
 20
35.60302406537894
 10
1.49304976695491
 20
35.60302406537894
 10
1.512736089421262
 20
35.60302406537894
 10
1.532422411887633
 20
35.60302406537894
  0
LWPOLYLINE
  5
179
330
1E
100
AcDbEntity
  8
0
100
AcDbPolyline
 90
        8
 70
     0
 43
0.0
 10
2.182071053277419
 20
39.26468004412141
 10
2.182071053277419
 20
39.28436636658776
 10
2.162384730811067
 20
39.28436636658776
 10
2.142698408344696
 20
39.28436636658776
 10
2.142698408344696
 20
39.30405268905412
 10
2.123012085878343
 20
39.30405268905412
 10
2.10332576341199
 20
39.30405268905412
 10
2.083639440945637
 20
39.30405268905412
  0
LWPOLYLINE
  5
183
330
1E
100
AcDbEntity
  8
0
100
AcDbPolyline
 90
        3
 70
     0
 43
0.0
 10
1.453677122022204
 20
39.28436636658776
 10
1.433990799555834
 20
39.26468004412141
 10
1.433990799555834
 20
39.24499372165506
  0
LINE
  5
188
330
1E
100
AcDbEntity
  8
0
100
AcDbLine
 10
1.41430447708948
 20
-3.966484091999284
 30
0.0
 11
1.41430447708948
 21
34.83525748919101
 31
0.0
  0
LINE
  5
189
330
1E
100
AcDbEntity
  8
0
100
AcDbLine
 10
1.41430447708948
 20
36.58734018869682
 30
0.0
 11
1.41430447708948
 21
38.30005024326991
 31
0.0
  0
LINE
  5
18A
330
1E
100
AcDbEntity
  8
0
100
AcDbLine
 10
1.41430447708948
 20
40.05213294277571
 30
0.0
 11
1.41430447708948
 21
78.87356084643238
 31
0.0
  0
LINE
  5
18B
330
1E
100
AcDbEntity
  8
0
100
AcDbLine
 10
1.453677122022203
 20
36.58734018869682
 30
0.0
 11
1.453677122022203
 21
38.30005024326991
 31
0.0
  0
LINE
  5
18C
330
1E
100
AcDbEntity
  8
0
100
AcDbLine
 10
1.453677122022203
 20
-3.966484091999284
 30
0.0
 11
1.453677122022203
 21
34.83525748919101
 31
0.0
  0
LINE
  5
18D
330
1E
100
AcDbEntity
  8
0
100
AcDbLine
 10
3.40262304619158
 20
-3.966484091999284
 30
0.0
 11
1.453677122022203
 21
-3.966484091999284
 31
0.0
  0
LINE
  5
18E
330
1E
100
AcDbEntity
  8
0
100
AcDbLine
 10
3.40262304619158
 20
-3.966484091999284
 30
0.0
 11
3.40262304619158
 21
78.87356084643238
 31
0.0
  0
LINE
  5
18F
330
1E
100
AcDbEntity
  8
0
100
AcDbLine
 10
3.40262304619158
 20
78.87356084643238
 30
0.0
 11
1.453677122022203
 21
78.87356084643238
 31
0.0
  0
LINE
  5
190
330
1E
100
AcDbEntity
  8
0
100
AcDbLine
 10
1.453677122022203
 20
40.05213294277571
 30
0.0
 11
1.453677122022203
 21
78.87356084643238
 31
0.0
  0
LINE
  5
191
330
1E
100
AcDbEntity
  8
0
100
AcDbLine
 10
1.453677122022203
 20
78.87356084643238
 30
0.0
 11
1.41430447708948
 21
78.87356084643238
 31
0.0
  0
LINE
  5
192
330
1E
100
AcDbEntity
  8
0
100
AcDbLine
 10
1.453677122022203
 20
-3.966484091999284
 30
0.0
 11
1.41430447708948
 21
-3.966484091999284
 31
0.0
  0
LINE
  5
193
330
1E
100
AcDbEntity
  8
0
100
AcDbLine
 10
11.53307422479715
 20
40.05213294277571
 30
0.0
 11
11.53307422479715
 21
78.87356084643238
 31
0.0
  0
LINE
  5
194
330
1E
100
AcDbEntity
  8
0
100
AcDbLine
 10
11.53307422479715
 20
36.58734018869682
 30
0.0
 11
11.53307422479715
 21
38.30005024326991
 31
0.0
  0
LINE
  5
195
330
1E
100
AcDbEntity
  8
0
100
AcDbLine
 10
11.53307422479715
 20
-3.966484091999284
 30
0.0
 11
11.53307422479715
 21
34.83525748919101
 31
0.0
  0
LINE
  5
196
330
1E
100
AcDbEntity
  8
0
100
AcDbLine
 10
11.47401525739808
 20
36.58734018869682
 30
0.0
 11
11.47401525739808
 21
38.30005024326991
 31
0.0
  0
LINE
  5
197
330
1E
100
AcDbEntity
  8
0
100
AcDbLine
 10
11.47401525739808
 20
40.05213294277571
 30
0.0
 11
11.47401525739808
 21
78.87356084643238
 31
0.0
  0
LINE
  5
198
330
1E
100
AcDbEntity
  8
0
100
AcDbLine
 10
9.544755655695057
 20
78.87356084643238
 30
0.0
 11
11.47401525739808
 21
78.87356084643238
 31
0.0
  0
LINE
  5
199
330
1E
100
AcDbEntity
  8
0
100
AcDbLine
 10
9.544755655695057
 20
-3.966484091999284
 30
0.0
 11
9.544755655695057
 21
78.87356084643238
 31
0.0
  0
LINE
  5
19A
330
1E
100
AcDbEntity
  8
0
100
AcDbLine
 10
9.544755655695057
 20
-3.966484091999284
 30
0.0
 11
11.47401525739808
 21
-3.966484091999284
 31
0.0
  0
LINE
  5
19B
330
1E
100
AcDbEntity
  8
0
100
AcDbLine
 10
11.47401525739808
 20
-3.966484091999284
 30
0.0
 11
11.47401525739808
 21
34.83525748919101
 31
0.0
  0
LWPOLYLINE
  5
19C
330
1E
100
AcDbEntity
  8
0
100
AcDbPolyline
 90
        3
 70
     0
 43
0.0
 10
11.47401525739808
 20
78.87356084643238
 10
11.51338790233078
 20
78.87356084643238
 10
11.53307422479715
 20
78.87356084643238
  0
LWPOLYLINE
  5
1A1
330
1E
100
AcDbEntity
  8
0
100
AcDbPolyline
 90
        3
 70
     0
 43
0.0
 10
11.47401525739808
 20
-3.966484091999282
 10
11.51338790233078
 20
-3.966484091999282
 10
11.53307422479715
 20
-3.966484091999282
  0
LINE
  5
1A6
330
1E
100
AcDbEntity
  8
0
100
AcDbLine
 10
9.505383010762352
 20
78.87356084643238
 30
0.0
 11
3.422309368657933
 21
78.87356084643238
 31
0.0
  0
LINE
  5
1A7
330
1E
100
AcDbEntity
  8
0
100
AcDbLine
 10
9.505383010762352
 20
-3.966484091999284
 30
0.0
 11
9.505383010762352
 21
78.87356084643238
 31
0.0
  0
LINE
  5
1A8
330
1E
100
AcDbEntity
  8
0
100
AcDbLine
 10
3.422309368657933
 20
-3.966484091999284
 30
0.0
 11
3.422309368657933
 21
78.87356084643238
 31
0.0
  0
LINE
  5
1A9
330
1E
100
AcDbEntity
  8
0
100
AcDbLine
 10
3.422309368657933
 20
-3.966484091999284
 30
0.0
 11
9.505383010762352
 21
-3.966484091999284
 31
0.0
  0
LWPOLYLINE
  5
1AA
330
1E
100
AcDbEntity
  8
0
100
AcDbPolyline
 90
        3
 70
     0
 43
0.0
 10
9.505383010762354
 20
-3.966484091999282
 10
9.525069333228707
 20
-3.966484091999282
 10
9.544755655695059
 20
-3.966484091999282
  0
LWPOLYLINE
  5
1AF
330
1E
100
AcDbEntity
  8
0
100
AcDbPolyline
 90
        3
 70
     0
 43
0.0
 10
9.505383010762354
 20
78.87356084643238
 10
9.525069333228707
 20
78.87356084643238
 10
9.544755655695059
 20
78.87356084643238
  0
LINE
  5
1B4
330
1E
100
AcDbEntity
  8
0
100
AcDbLine
 10
3.422309368657933
 20
-3.966484091999284
 30
0.0
 11
3.40262304619158
 21
-3.966484091999284
 31
0.0
  0
LINE
  5
1B5
330
1E
100
AcDbEntity
  8
0
100
AcDbLine
 10
3.422309368657933
 20
78.87356084643238
 30
0.0
 11
3.40262304619158
 21
78.87356084643238
 31
0.0
  0
LINE
  5
1B6
330
1E
100
AcDbEntity
  8
0
100
AcDbLine
 10
1.335559187224051
 20
40.05213294277571
 30
0.0
 11
1.315872864757698
 21
39.18593475425598
 31
0.0
  0
LINE
  5
1B7
330
1E
100
AcDbEntity
  8
0
100
AcDbLine
 10
1.433990799555833
 20
40.05213294277571
 30
0.0
 11
1.433990799555833
 21
39.2253073991887
 31
0.0
  0
LWPOLYLINE
  5
1B8
330
1E
100
AcDbEntity
  8
0
100
AcDbPolyline
 90
        3
 70
     0
 43
0.0
 10
1.433990799555834
 20
40.0521329427757
 10
1.355245509690404
 20
40.0521329427757
 10
1.335559187224051
 20
40.0521329427757
  0
LWPOLYLINE
  5
1BD
330
1E
100
AcDbEntity
  8
0
100
AcDbPolyline
 90
        3
 70
     0
 43
0.0
 10
1.315872864757698
 20
39.18593475425598
 10
1.355245509690404
 20
39.18593475425598
 10
1.433990799555834
 20
39.18593475425598
  0
LINE
  5
1C2
330
1E
100
AcDbEntity
  8
0
100
AcDbLine
 10
1.433990799555833
 20
39.18593475425598
 30
0.0
 11
1.433990799555833
 21
39.26468004412141
 31
0.0
  0
LINE
  5
1C3
330
1E
100
AcDbEntity
  8
0
100
AcDbLine
 10
1.532422411887632
 20
39.28436636658776
 30
0.0
 11
1.532422411887632
 21
39.18593475425598
 31
0.0
  0
LWPOLYLINE
  5
1C4
330
1E
100
AcDbEntity
  8
0
100
AcDbPolyline
 90
        6
 70
     0
 43
0.0
 10
1.532422411887633
 20
39.28436636658776
 10
1.512736089421262
 20
39.28436636658776
 10
1.49304976695491
 20
39.28436636658776
 10
1.473363444488557
 20
39.28436636658776
 10
1.453677122022204
 20
39.26468004412141
 10
1.433990799555834
 20
39.26468004412141
  0
LWPOLYLINE
  5
1CC
330
1E
100
AcDbEntity
  8
0
100
AcDbPolyline
 90
        5
 70
     0
 43
0.0
 10
1.433990799555834
 20
39.18593475425598
 10
1.453677122022204
 20
39.18593475425598
 10
1.473363444488557
 20
39.18593475425598
 10
1.49304976695491
 20
39.18593475425598
 10
1.532422411887633
 20
39.18593475425598
  0
LINE
  5
1D3
330
1E
100
AcDbEntity
  8
0
100
AcDbLine
 10
2.182071053277419
 20
39.26468004412141
 30
0.0
 11
2.182071053277419
 21
39.18593475425598
 31
0.0
  0
LWPOLYLINE
  5
1D4
330
1E
100
AcDbEntity
  8
0
100
AcDbPolyline
 90
        5
 70
     0
 43
0.0
 10
2.182071053277419
 20
39.26468004412141
 10
2.162384730811067
 20
39.26468004412141
 10
2.142698408344696
 20
39.28436636658776
 10
2.123012085878343
 20
39.28436636658776
 10
2.083639440945637
 20
39.28436636658776
  0
LINE
  5
1DB
330
1E
100
AcDbEntity
  8
0
100
AcDbLine
 10
2.083639440945637
 20
39.18593475425598
 30
0.0
 11
2.083639440945637
 21
39.28436636658776
 31
0.0
  0
LWPOLYLINE
  5
1DC
330
1E
100
AcDbEntity
  8
0
100
AcDbPolyline
 90
        4
 70
     0
 43
0.0
 10
2.083639440945637
 20
39.18593475425598
 10
2.123012085878343
 20
39.18593475425598
 10
2.162384730811067
 20
39.18593475425598
 10
2.182071053277419
 20
39.18593475425598
  0
LINE
  5
1E2
330
1E
100
AcDbEntity
  8
0
100
AcDbLine
 10
2.182071053277419
 20
39.18593475425598
 30
0.0
 11
2.241130020676496
 21
39.18593475425598
 31
0.0
  0
LINE
  5
1E3
330
1E
100
AcDbEntity
  8
0
100
AcDbLine
 10
2.241130020676496
 20
39.18593475425598
 30
0.0
 11
2.221443698210125
 21
40.01276029784301
 31
0.0
  0
LINE
  5
1E4
330
1E
100
AcDbEntity
  8
0
100
AcDbLine
 10
2.221443698210125
 20
40.01276029784301
 30
0.0
 11
2.201757375743772
 21
40.05213294277571
 31
0.0
  0
LINE
  5
1E5
330
1E
100
AcDbEntity
  8
0
100
AcDbLine
 10
2.201757375743772
 20
40.05213294277571
 30
0.0
 11
2.182071053277419
 21
39.2253073991887
 31
0.0
  0
LINE
  5
1E6
330
1E
100
AcDbEntity
  8
0
100
AcDbLine
 10
2.182071053277419
 20
39.2253073991887
 30
0.0
 11
2.182071053277419
 21
39.2253073991887
 31
0.0
  0
LINE
  5
1E7
330
1E
100
AcDbEntity
  8
0
100
AcDbLine
 10
2.241130020676496
 20
40.01276029784301
 30
0.0
 11
2.260816343142848
 21
39.18593475425598
 31
0.0
  0
LINE
  5
1E8
330
1E
100
AcDbEntity
  8
0
100
AcDbLine
 10
2.162384730811066
 20
39.28436636658776
 30
0.0
 11
2.182071053277419
 21
40.05213294277571
 31
0.0
  0
LINE
  5
1E9
330
1E
100
AcDbEntity
  8
0
100
AcDbLine
 10
2.182071053277419
 20
40.05213294277571
 30
0.0
 11
1.433990799555833
 21
40.05213294277571
 31
0.0
  0
LINE
  5
1EA
330
1E
100
AcDbEntity
  8
0
100
AcDbLine
 10
1.433990799555833
 20
39.10718946439056
 30
0.0
 11
2.182071053277419
 21
39.10718946439056
 31
0.0
  0
LINE
  5
1EB
330
1E
100
AcDbEntity
  8
0
100
AcDbLine
 10
2.182071053277419
 20
39.10718946439056
 30
0.0
 11
2.182071053277419
 21
39.10718946439056
 31
0.0
  0
LINE
  5
1EC
330
1E
100
AcDbEntity
  8
0
100
AcDbLine
 10
2.182071053277419
 20
39.10718946439056
 30
0.0
 11
2.182071053277419
 21
39.12687578685691
 31
0.0
  0
LINE
  5
1ED
330
1E
100
AcDbEntity
  8
0
100
AcDbLine
 10
2.182071053277419
 20
39.12687578685691
 30
0.0
 11
1.433990799555833
 21
39.12687578685691
 31
0.0
  0
LINE
  5
1EE
330
1E
100
AcDbEntity
  8
0
100
AcDbLine
 10
1.433990799555833
 20
39.10718946439056
 30
0.0
 11
1.433990799555833
 21
39.12687578685691
 31
0.0
  0
LINE
  5
1EF
330
1E
100
AcDbEntity
  8
0
100
AcDbLine
 10
2.182071053277419
 20
39.18593475425598
 30
0.0
 11
2.182071053277419
 21
39.14656210932326
 31
0.0
  0
LINE
  5
1F0
330
1E
100
AcDbEntity
  8
0
100
AcDbLine
 10
2.182071053277419
 20
39.12687578685691
 30
0.0
 11
2.182071053277419
 21
39.14656210932326
 31
0.0
  0
LWPOLYLINE
  5
1F1
330
1E
100
AcDbEntity
  8
0
100
AcDbPolyline
 90
        5
 70
     0
 43
0.0
 10
2.182071053277419
 20
39.14656210932326
 10
2.162384730811067
 20
39.16624843178963
 10
2.142698408344696
 20
39.16624843178963
 10
2.10332576341199
 20
39.18593475425598
 10
2.083639440945637
 20
39.18593475425598
  0
LINE
  5
1F8
330
1E
100
AcDbEntity
  8
0
100
AcDbLine
 10
2.083639440945637
 20
39.18593475425598
 30
0.0
 11
1.532422411887632
 21
39.18593475425598
 31
0.0
  0
LWPOLYLINE
  5
1F9
330
1E
100
AcDbEntity
  8
0
100
AcDbPolyline
 90
        5
 70
     0
 43
0.0
 10
1.532422411887633
 20
39.18593475425598
 10
1.49304976695491
 20
39.18593475425598
 10
1.473363444488557
 20
39.16624843178963
 10
1.453677122022204
 20
39.16624843178963
 10
1.433990799555834
 20
39.14656210932326
  0
LINE
  5
200
330
1E
100
AcDbEntity
  8
0
100
AcDbLine
 10
1.433990799555833
 20
39.12687578685691
 30
0.0
 11
1.433990799555833
 21
39.14656210932326
 31
0.0
  0
LWPOLYLINE
  5
201
330
1E
100
AcDbEntity
  8
0
100
AcDbPolyline
 90
        4
 70
     0
 43
0.0
 10
1.453677122022204
 20
39.28436636658776
 10
1.473363444488557
 20
39.28436636658776
 10
1.49304976695491
 20
39.30405268905412
 10
1.532422411887633
 20
39.30405268905412
  0
LINE
  5
207
330
1E
100
AcDbEntity
  8
0
100
AcDbLine
 10
2.083639440945637
 20
39.28436636658776
 30
0.0
 11
1.532422411887632
 21
39.28436636658776
 31
0.0
  0
LINE
  5
208
330
1E
100
AcDbEntity
  8
0
100
AcDbLine
 10
2.182071053277419
 20
38.30005024326991
 30
0.0
 11
2.182071053277419
 21
38.30005024326991
 31
0.0
  0
LINE
  5
209
330
1E
100
AcDbEntity
  8
0
100
AcDbLine
 10
2.182071053277419
 20
38.30005024326991
 30
0.0
 11
1.453677122022203
 21
38.30005024326991
 31
0.0
  0
LWPOLYLINE
  5
20A
330
1E
100
AcDbEntity
  8
0
100
AcDbPolyline
 90
        3
 70
     0
 43
0.0
 10
1.453677122022204
 20
38.30005024326991
 10
1.374931832156774
 20
38.30005024326991
 10
1.355245509690404
 20
38.30005024326991
  0
LWPOLYLINE
  5
20F
330
1E
100
AcDbEntity
  8
0
100
AcDbPolyline
 90
        3
 70
     0
 43
0.0
 10
1.355245509690404
 20
40.0521329427757
 10
1.374931832156774
 20
40.0521329427757
 10
1.453677122022204
 20
40.0521329427757
  0
LINE
  5
214
330
1E
100
AcDbEntity
  8
0
100
AcDbLine
 10
1.453677122022203
 20
40.05213294277571
 30
0.0
 11
2.182071053277419
 21
40.05213294277571
 31
0.0
  0
LINE
  5
215
330
1E
100
AcDbEntity
  8
0
100
AcDbLine
 10
2.182071053277419
 20
40.05213294277571
 30
0.0
 11
2.182071053277419
 21
40.05213294277571
 31
0.0
  0
LINE
  5
216
330
1E
100
AcDbEntity
  8
0
100
AcDbLine
 10
2.260816343142848
 20
39.18593475425598
 30
0.0
 11
2.241130020676496
 21
38.35910921066897
 31
0.0
  0
LINE
  5
217
330
1E
100
AcDbEntity
  8
0
100
AcDbLine
 10
2.182071053277419
 20
39.14656210932326
 30
0.0
 11
2.201757375743772
 21
38.31973656573627
 31
0.0
  0
LINE
  5
218
330
1E
100
AcDbEntity
  8
0
100
AcDbLine
 10
2.201757375743772
 20
38.31973656573627
 30
0.0
 11
2.221443698210125
 21
38.35910921066897
 31
0.0
  0
LINE
  5
219
330
1E
100
AcDbEntity
  8
0
100
AcDbLine
 10
2.221443698210125
 20
38.35910921066897
 30
0.0
 11
2.241130020676496
 21
39.18593475425598
 31
0.0
  0
LINE
  5
21A
330
1E
100
AcDbEntity
  8
0
100
AcDbLine
 10
1.433990799555833
 20
39.10718946439056
 30
0.0
 11
1.433990799555833
 21
38.31973656573627
 31
0.0
  0
LINE
  5
21B
330
1E
100
AcDbEntity
  8
0
100
AcDbLine
 10
1.433990799555833
 20
38.31973656573627
 30
0.0
 11
2.182071053277419
 21
38.31973656573627
 31
0.0
  0
LINE
  5
21C
330
1E
100
AcDbEntity
  8
0
100
AcDbLine
 10
2.182071053277419
 20
38.31973656573627
 30
0.0
 11
2.162384730811066
 21
39.0875031419242
 31
0.0
  0
LINE
  5
21D
330
1E
100
AcDbEntity
  8
0
100
AcDbLine
 10
2.162384730811066
 20
39.0875031419242
 30
0.0
 11
1.433990799555833
 21
39.0875031419242
 31
0.0
  0
LINE
  5
21E
330
1E
100
AcDbEntity
  8
0
100
AcDbLine
 10
1.315872864757698
 20
39.18593475425598
 30
0.0
 11
1.335559187224051
 21
38.31973656573627
 31
0.0
  0
LWPOLYLINE
  5
21F
330
1E
100
AcDbEntity
  8
0
100
AcDbPolyline
 90
        3
 70
     0
 43
0.0
 10
1.335559187224051
 20
38.31973656573627
 10
1.355245509690404
 20
38.31973656573627
 10
1.433990799555834
 20
38.31973656573627
  0
LINE
  5
224
330
1E
100
AcDbEntity
  8
0
100
AcDbLine
 10
1.433990799555833
 20
39.0875031419242
 30
0.0
 11
1.433990799555833
 21
39.10718946439056
 31
0.0
  0
LINE
  5
225
330
1E
100
AcDbEntity
  8
0
100
AcDbLine
 10
1.433990799555833
 20
39.14656210932326
 30
0.0
 11
1.433990799555833
 21
39.18593475425598
 31
0.0
  0
LINE
  5
226
330
1E
100
AcDbEntity
  8
0
100
AcDbLine
 10
2.182071053277419
 20
40.05213294277571
 30
0.0
 11
2.201757375743772
 21
40.05213294277571
 31
0.0
  0
LWPOLYLINE
  5
227
330
1E
100
AcDbEntity
  8
0
100
AcDbPolyline
 90
        3
 70
     0
 43
0.0
 10
2.201757375743772
 20
40.0521329427757
 10
2.221443698210125
 20
40.03244662030935
 10
2.241130020676496
 20
40.012760297843
  0
LWPOLYLINE
  5
22C
330
1E
100
AcDbEntity
  8
0
100
AcDbPolyline
 90
        3
 70
     0
 43
0.0
 10
2.241130020676496
 20
38.35910921066897
 10
2.221443698210125
 20
38.33942288820261
 10
2.201757375743772
 20
38.31973656573627
  0
LINE
  5
231
330
1E
100
AcDbEntity
  8
0
100
AcDbLine
 10
2.201757375743772
 20
38.31973656573627
 30
0.0
 11
2.182071053277419
 21
38.30005024326991
 31
0.0
  0
LINE
  5
232
330
1E
100
AcDbEntity
  8
0
100
AcDbLine
 10
2.162384730811066
 20
39.0875031419242
 30
0.0
 11
2.182071053277419
 21
39.10718946439056
 31
0.0
  0
LINE
  5
233
330
1E
100
AcDbEntity
  8
0
100
AcDbLine
 10
1.532422411887632
 20
39.30405268905412
 30
0.0
 11
1.532422411887632
 21
39.28436636658776
 31
0.0
  0
LINE
  5
234
330
1E
100
AcDbEntity
  8
0
100
AcDbLine
 10
2.083639440945637
 20
39.30405268905412
 30
0.0
 11
2.083639440945637
 21
39.28436636658776
 31
0.0
  0
LINE
  5
235
330
1E
100
AcDbEntity
  8
0
100
AcDbLine
 10
2.182071053277419
 20
39.28436636658776
 30
0.0
 11
2.182071053277419
 21
40.05213294277571
 31
0.0
  0
LINE
  5
236
330
1E
100
AcDbEntity
  8
0
100
AcDbLine
 10
2.182071053277419
 20
40.05213294277571
 30
0.0
 11
2.182071053277419
 21
40.05213294277571
 31
0.0
  0
LINE
  5
237
330
1E
100
AcDbEntity
  8
0
100
AcDbLine
 10
2.182071053277419
 20
38.31973656573627
 30
0.0
 11
2.182071053277419
 21
38.31973656573627
 31
0.0
  0
LINE
  5
238
330
1E
100
AcDbEntity
  8
0
100
AcDbLine
 10
2.182071053277419
 20
38.31973656573627
 30
0.0
 11
2.182071053277419
 21
39.10718946439056
 31
0.0
  0
LINE
  5
239
330
1E
100
AcDbEntity
  8
0
100
AcDbLine
 10
2.201757375743772
 20
40.05213294277571
 30
0.0
 11
2.182071053277419
 21
40.05213294277571
 31
0.0
  0
LINE
  5
23A
330
1E
100
AcDbEntity
  8
0
100
AcDbLine
 10
2.182071053277419
 20
38.31973656573627
 30
0.0
 11
2.201757375743772
 21
38.31973656573627
 31
0.0
  0
LINE
  5
23B
330
1E
100
AcDbEntity
  8
0
100
AcDbLine
 10
1.335559187224051
 20
38.31973656573627
 30
0.0
 11
1.355245509690404
 21
38.30005024326991
 31
0.0
  0
LINE
  5
23C
330
1E
100
AcDbEntity
  8
0
100
AcDbLine
 10
1.355245509690404
 20
40.05213294277571
 30
0.0
 11
1.335559187224051
 21
40.05213294277571
 31
0.0
  0
LINE
  5
23D
330
1E
100
AcDbEntity
  8
0
100
AcDbLine
 10
1.433990799555833
 20
38.31973656573627
 30
0.0
 11
1.453677122022203
 21
38.30005024326991
 31
0.0
  0
LINE
  5
23E
330
1E
100
AcDbEntity
  8
0
100
AcDbLine
 10
1.453677122022203
 20
40.05213294277571
 30
0.0
 11
1.433990799555833
 21
40.05213294277571
 31
0.0
  0
LINE
  5
23F
330
1E
100
AcDbEntity
  8
0
100
AcDbLine
 10
2.182071053277419
 20
38.31973656573627
 30
0.0
 11
2.182071053277419
 21
38.30005024326991
 31
0.0
  0
LINE
  5
240
330
1E
100
AcDbEntity
  8
0
100
AcDbLine
 10
2.182071053277419
 20
38.31973656573627
 30
0.0
 11
2.182071053277419
 21
38.30005024326991
 31
0.0
  0
LINE
  5
241
330
1E
100
AcDbEntity
  8
0
100
AcDbLine
 10
2.182071053277419
 20
38.31973656573627
 30
0.0
 11
2.201757375743772
 21
38.31973656573627
 31
0.0
  0
LINE
  5
242
330
1E
100
AcDbEntity
  8
0
100
AcDbLine
 10
2.201757375743772
 20
40.05213294277571
 30
0.0
 11
2.182071053277419
 21
40.05213294277571
 31
0.0
  0
LINE
  5
243
330
1E
100
AcDbEntity
  8
0
100
AcDbLine
 10
2.221443698210125
 20
38.35910921066897
 30
0.0
 11
2.241130020676496
 21
38.35910921066897
 31
0.0
  0
LINE
  5
244
330
1E
100
AcDbEntity
  8
0
100
AcDbLine
 10
2.241130020676496
 20
40.01276029784301
 30
0.0
 11
2.221443698210125
 21
40.01276029784301
 31
0.0
  0
LINE
  5
245
330
1E
100
AcDbEntity
  8
0
100
AcDbLine
 10
2.241130020676496
 20
39.18593475425598
 30
0.0
 11
2.260816343142848
 21
39.18593475425598
 31
0.0
  0
LINE
  5
246
330
1E
100
AcDbEntity
  8
0
100
AcDbLine
 10
11.59213319219621
 20
34.85494381165738
 30
0.0
 11
11.61181951466258
 21
35.7211420001771
 31
0.0
  0
LINE
  5
247
330
1E
100
AcDbEntity
  8
0
100
AcDbLine
 10
11.49370157986443
 20
34.85494381165738
 30
0.0
 11
11.49370157986443
 21
35.68176935524437
 31
0.0
  0
LWPOLYLINE
  5
248
330
1E
100
AcDbEntity
  8
0
100
AcDbPolyline
 90
        3
 70
     0
 43
0.0
 10
11.49370157986443
 20
34.85494381165738
 10
11.57244686972986
 20
34.85494381165738
 10
11.59213319219621
 20
34.85494381165738
  0
LWPOLYLINE
  5
24D
330
1E
100
AcDbEntity
  8
0
100
AcDbPolyline
 90
        3
 70
     0
 43
0.0
 10
11.61181951466258
 20
35.7211420001771
 10
11.57244686972986
 20
35.7211420001771
 10
11.49370157986443
 20
35.7211420001771
  0
LINE
  5
252
330
1E
100
AcDbEntity
  8
0
100
AcDbLine
 10
11.49370157986443
 20
35.7211420001771
 30
0.0
 11
11.49370157986443
 21
35.64239671031168
 31
0.0
  0
LINE
  5
253
330
1E
100
AcDbEntity
  8
0
100
AcDbLine
 10
11.39526996753265
 20
35.62271038784531
 30
0.0
 11
11.39526996753265
 21
35.7211420001771
 31
0.0
  0
LWPOLYLINE
  5
254
330
1E
100
AcDbEntity
  8
0
100
AcDbPolyline
 90
        5
 70
     0
 43
0.0
 10
11.39526996753265
 20
35.6227103878453
 10
11.414956289999
 20
35.6227103878453
 10
11.43464261246535
 20
35.6227103878453
 10
11.47401525739808
 20
35.6227103878453
 10
11.49370157986443
 20
35.64239671031167
  0
LWPOLYLINE
  5
25B
330
1E
100
AcDbEntity
  8
0
100
AcDbPolyline
 90
        4
 70
     0
 43
0.0
 10
11.49370157986443
 20
35.7211420001771
 10
11.45432893493173
 20
35.7211420001771
 10
11.43464261246535
 20
35.7211420001771
 10
11.39526996753265
 20
35.7211420001771
  0
LINE
  5
261
330
1E
100
AcDbEntity
  8
0
100
AcDbLine
 10
10.74562132614286
 20
35.64239671031168
 30
0.0
 11
10.74562132614286
 21
35.7211420001771
 31
0.0
  0
LWPOLYLINE
  5
262
330
1E
100
AcDbEntity
  8
0
100
AcDbPolyline
 90
        5
 70
     0
 43
0.0
 10
10.74562132614286
 20
35.64239671031167
 10
10.76530764860921
 20
35.6227103878453
 10
10.78499397107557
 20
35.6227103878453
 10
10.80468029354192
 20
35.6227103878453
 10
10.84405293847464
 20
35.6227103878453
  0
LINE
  5
269
330
1E
100
AcDbEntity
  8
0
100
AcDbLine
 10
10.84405293847465
 20
35.7211420001771
 30
0.0
 11
10.84405293847465
 21
35.62271038784531
 31
0.0
  0
LWPOLYLINE
  5
26A
330
1E
100
AcDbEntity
  8
0
100
AcDbPolyline
 90
        4
 70
     0
 43
0.0
 10
10.84405293847464
 20
35.7211420001771
 10
10.80468029354192
 20
35.7211420001771
 10
10.76530764860921
 20
35.7211420001771
 10
10.74562132614286
 20
35.7211420001771
  0
LINE
  5
270
330
1E
100
AcDbEntity
  8
0
100
AcDbLine
 10
10.74562132614286
 20
35.7211420001771
 30
0.0
 11
10.68656235874379
 21
35.7211420001771
 31
0.0
  0
LINE
  5
271
330
1E
100
AcDbEntity
  8
0
100
AcDbLine
 10
10.68656235874379
 20
35.7211420001771
 30
0.0
 11
10.70624868121014
 21
34.89431645659008
 31
0.0
  0
LINE
  5
272
330
1E
100
AcDbEntity
  8
0
100
AcDbLine
 10
10.70624868121014
 20
34.89431645659008
 30
0.0
 11
10.72593500367649
 21
34.85494381165738
 31
0.0
  0
LINE
  5
273
330
1E
100
AcDbEntity
  8
0
100
AcDbLine
 10
10.72593500367649
 20
34.85494381165738
 30
0.0
 11
10.74562132614286
 21
35.68176935524437
 31
0.0
  0
LINE
  5
274
330
1E
100
AcDbEntity
  8
0
100
AcDbLine
 10
10.74562132614286
 20
35.68176935524437
 30
0.0
 11
10.74562132614286
 21
35.68176935524437
 31
0.0
  0
LINE
  5
275
330
1E
100
AcDbEntity
  8
0
100
AcDbLine
 10
10.68656235874379
 20
34.89431645659008
 30
0.0
 11
10.68656235874379
 21
35.7211420001771
 31
0.0
  0
LINE
  5
276
330
1E
100
AcDbEntity
  8
0
100
AcDbLine
 10
10.76530764860922
 20
35.62271038784531
 30
0.0
 11
10.74562132614286
 21
34.85494381165738
 31
0.0
  0
LINE
  5
277
330
1E
100
AcDbEntity
  8
0
100
AcDbLine
 10
10.74562132614286
 20
34.85494381165738
 30
0.0
 11
11.49370157986443
 21
34.85494381165738
 31
0.0
  0
LINE
  5
278
330
1E
100
AcDbEntity
  8
0
100
AcDbLine
 10
11.49370157986443
 20
35.79988729004253
 30
0.0
 11
10.74562132614286
 21
35.79988729004253
 31
0.0
  0
LINE
  5
279
330
1E
100
AcDbEntity
  8
0
100
AcDbLine
 10
10.74562132614286
 20
35.79988729004253
 30
0.0
 11
10.74562132614286
 21
35.79988729004253
 31
0.0
  0
LINE
  5
27A
330
1E
100
AcDbEntity
  8
0
100
AcDbLine
 10
10.74562132614286
 20
35.79988729004253
 30
0.0
 11
10.74562132614286
 21
35.78020096757616
 31
0.0
  0
LINE
  5
27B
330
1E
100
AcDbEntity
  8
0
100
AcDbLine
 10
10.74562132614286
 20
35.78020096757616
 30
0.0
 11
11.49370157986443
 21
35.78020096757616
 31
0.0
  0
LINE
  5
27C
330
1E
100
AcDbEntity
  8
0
100
AcDbLine
 10
11.49370157986443
 20
35.79988729004253
 30
0.0
 11
11.49370157986443
 21
35.78020096757616
 31
0.0
  0
LINE
  5
27D
330
1E
100
AcDbEntity
  8
0
100
AcDbLine
 10
10.74562132614286
 20
35.7211420001771
 30
0.0
 11
10.74562132614286
 21
35.7605146451098
 31
0.0
  0
LINE
  5
27E
330
1E
100
AcDbEntity
  8
0
100
AcDbLine
 10
10.74562132614286
 20
35.78020096757616
 30
0.0
 11
10.74562132614286
 21
35.7605146451098
 31
0.0
  0
LWPOLYLINE
  5
27F
330
1E
100
AcDbEntity
  8
0
100
AcDbPolyline
 90
        6
 70
     0
 43
0.0
 10
10.74562132614286
 20
35.7605146451098
 10
10.74562132614286
 20
35.74082832264345
 10
10.76530764860921
 20
35.74082832264345
 10
10.80468029354192
 20
35.7211420001771
 10
10.82436661600829
 20
35.7211420001771
 10
10.84405293847464
 20
35.7211420001771
  0
LINE
  5
287
330
1E
100
AcDbEntity
  8
0
100
AcDbLine
 10
10.84405293847465
 20
35.7211420001771
 30
0.0
 11
11.39526996753265
 21
35.7211420001771
 31
0.0
  0
LWPOLYLINE
  5
288
330
1E
100
AcDbEntity
  8
0
100
AcDbPolyline
 90
        5
 70
     0
 43
0.0
 10
11.39526996753265
 20
35.7211420001771
 10
11.43464261246535
 20
35.7211420001771
 10
11.45432893493173
 20
35.74082832264345
 10
11.47401525739808
 20
35.74082832264345
 10
11.49370157986443
 20
35.7605146451098
  0
LINE
  5
28F
330
1E
100
AcDbEntity
  8
0
100
AcDbLine
 10
11.49370157986443
 20
35.78020096757616
 30
0.0
 11
11.49370157986443
 21
35.7605146451098
 31
0.0
  0
LWPOLYLINE
  5
290
330
1E
100
AcDbEntity
  8
0
100
AcDbPolyline
 90
        5
 70
     0
 43
0.0
 10
11.47401525739808
 20
35.6227103878453
 10
11.45432893493173
 20
35.6227103878453
 10
11.43464261246535
 20
35.60302406537894
 10
11.414956289999
 20
35.60302406537894
 10
11.39526996753265
 20
35.60302406537894
  0
LINE
  5
297
330
1E
100
AcDbEntity
  8
0
100
AcDbLine
 10
10.84405293847465
 20
35.62271038784531
 30
0.0
 11
11.39526996753265
 21
35.62271038784531
 31
0.0
  0
LINE
  5
298
330
1E
100
AcDbEntity
  8
0
100
AcDbLine
 10
10.74562132614286
 20
36.58734018869682
 30
0.0
 11
10.74562132614286
 21
36.58734018869682
 31
0.0
  0
LINE
  5
299
330
1E
100
AcDbEntity
  8
0
100
AcDbLine
 10
10.74562132614286
 20
36.58734018869682
 30
0.0
 11
11.49370157986443
 21
36.58734018869682
 31
0.0
  0
LWPOLYLINE
  5
29A
330
1E
100
AcDbEntity
  8
0
100
AcDbPolyline
 90
        3
 70
     0
 43
0.0
 10
11.49370157986443
 20
36.58734018869682
 10
11.55276054726351
 20
36.58734018869682
 10
11.59213319219621
 20
36.58734018869682
  0
LWPOLYLINE
  5
29F
330
1E
100
AcDbEntity
  8
0
100
AcDbPolyline
 90
        3
 70
     0
 43
0.0
 10
11.59213319219621
 20
34.83525748919101
 10
11.55276054726351
 20
34.83525748919101
 10
11.49370157986443
 20
34.83525748919101
  0
LINE
  5
2A4
330
1E
100
AcDbEntity
  8
0
100
AcDbLine
 10
11.49370157986443
 20
34.83525748919101
 30
0.0
 11
10.74562132614286
 21
34.83525748919101
 31
0.0
  0
LINE
  5
2A5
330
1E
100
AcDbEntity
  8
0
100
AcDbLine
 10
10.74562132614286
 20
34.83525748919101
 30
0.0
 11
10.74562132614286
 21
34.83525748919101
 31
0.0
  0
LINE
  5
2A6
330
1E
100
AcDbEntity
  8
0
100
AcDbLine
 10
10.68656235874379
 20
35.7211420001771
 30
0.0
 11
10.68656235874379
 21
36.5479675437641
 31
0.0
  0
LINE
  5
2A7
330
1E
100
AcDbEntity
  8
0
100
AcDbLine
 10
10.74562132614286
 20
35.7605146451098
 30
0.0
 11
10.72593500367649
 21
36.56765386623045
 31
0.0
  0
LINE
  5
2A8
330
1E
100
AcDbEntity
  8
0
100
AcDbLine
 10
10.72593500367649
 20
36.56765386623045
 30
0.0
 11
10.70624868121014
 21
36.5479675437641
 31
0.0
  0
LINE
  5
2A9
330
1E
100
AcDbEntity
  8
0
100
AcDbLine
 10
10.70624868121014
 20
36.5479675437641
 30
0.0
 11
10.68656235874379
 21
35.7211420001771
 31
0.0
  0
LINE
  5
2AA
330
1E
100
AcDbEntity
  8
0
100
AcDbLine
 10
11.49370157986443
 20
35.79988729004253
 30
0.0
 11
11.49370157986443
 21
36.58734018869682
 31
0.0
  0
LINE
  5
2AB
330
1E
100
AcDbEntity
  8
0
100
AcDbLine
 10
11.49370157986443
 20
36.58734018869682
 30
0.0
 11
10.74562132614286
 21
36.58734018869682
 31
0.0
  0
LINE
  5
2AC
330
1E
100
AcDbEntity
  8
0
100
AcDbLine
 10
10.74562132614286
 20
36.58734018869682
 30
0.0
 11
10.76530764860922
 21
35.79988729004253
 31
0.0
  0
LINE
  5
2AD
330
1E
100
AcDbEntity
  8
0
100
AcDbLine
 10
10.76530764860922
 20
35.79988729004253
 30
0.0
 11
11.49370157986443
 21
35.79988729004253
 31
0.0
  0
LINE
  5
2AE
330
1E
100
AcDbEntity
  8
0
100
AcDbLine
 10
11.61181951466258
 20
35.7211420001771
 30
0.0
 11
11.59213319219621
 21
36.58734018869682
 31
0.0
  0
LWPOLYLINE
  5
2AF
330
1E
100
AcDbEntity
  8
0
100
AcDbPolyline
 90
        3
 70
     0
 43
0.0
 10
11.59213319219621
 20
36.58734018869682
 10
11.57244686972986
 20
36.58734018869682
 10
11.49370157986443
 20
36.58734018869682
  0
LINE
  5
2B4
330
1E
100
AcDbEntity
  8
0
100
AcDbLine
 10
11.49370157986443
 20
35.79988729004253
 30
0.0
 11
11.49370157986443
 21
35.79988729004253
 31
0.0
  0
LINE
  5
2B5
330
1E
100
AcDbEntity
  8
0
100
AcDbLine
 10
11.49370157986443
 20
35.7605146451098
 30
0.0
 11
11.49370157986443
 21
35.7211420001771
 31
0.0
  0
LWPOLYLINE
  5
2B6
330
1E
100
AcDbEntity
  8
0
100
AcDbPolyline
 90
        3
 70
     0
 43
0.0
 10
10.74562132614286
 20
34.83525748919101
 10
10.72593500367649
 20
34.83525748919101
 10
10.72593500367649
 20
34.85494381165738
  0
LWPOLYLINE
  5
2BB
330
1E
100
AcDbEntity
  8
0
100
AcDbPolyline
 90
        3
 70
     0
 43
0.0
 10
10.68656235874379
 20
36.5479675437641
 10
10.70624868121014
 20
36.56765386623045
 10
10.72593500367649
 20
36.58734018869682
  0
LINE
  5
2C0
330
1E
100
AcDbEntity
  8
0
100
AcDbLine
 10
10.72593500367649
 20
36.58734018869682
 30
0.0
 11
10.74562132614286
 21
36.58734018869682
 31
0.0
  0
LINE
  5
2C1
330
1E
100
AcDbEntity
  8
0
100
AcDbLine
 10
10.76530764860922
 20
35.79988729004253
 30
0.0
 11
10.76530764860922
 21
35.79988729004253
 31
0.0
  0
LINE
  5
2C2
330
1E
100
AcDbEntity
  8
0
100
AcDbLine
 10
10.76530764860922
 20
35.79988729004253
 30
0.0
 11
10.74562132614286
 21
35.79988729004253
 31
0.0
  0
LINE
  5
2C3
330
1E
100
AcDbEntity
  8
0
100
AcDbLine
 10
11.39526996753265
 20
35.60302406537895
 30
0.0
 11
11.39526996753265
 21
35.62271038784531
 31
0.0
  0
LINE
  5
2C4
330
1E
100
AcDbEntity
  8
0
100
AcDbLine
 10
10.84405293847465
 20
35.60302406537895
 30
0.0
 11
10.84405293847465
 21
35.62271038784531
 31
0.0
  0
LINE
  5
2C5
330
1E
100
AcDbEntity
  8
0
100
AcDbLine
 10
10.76530764860922
 20
35.62271038784531
 30
0.0
 11
10.74562132614286
 21
34.85494381165738
 31
0.0
  0
LINE
  5
2C6
330
1E
100
AcDbEntity
  8
0
100
AcDbLine
 10
10.74562132614286
 20
34.85494381165738
 30
0.0
 11
10.74562132614286
 21
34.85494381165738
 31
0.0
  0
LINE
  5
2C7
330
1E
100
AcDbEntity
  8
0
100
AcDbLine
 10
10.74562132614286
 20
36.58734018869682
 30
0.0
 11
10.74562132614286
 21
36.58734018869682
 31
0.0
  0
LINE
  5
2C8
330
1E
100
AcDbEntity
  8
0
100
AcDbLine
 10
10.74562132614286
 20
36.58734018869682
 30
0.0
 11
10.76530764860922
 21
35.79988729004253
 31
0.0
  0
LINE
  5
2C9
330
1E
100
AcDbEntity
  8
0
100
AcDbLine
 10
10.72593500367649
 20
34.85494381165738
 30
0.0
 11
10.74562132614286
 21
34.85494381165738
 31
0.0
  0
LINE
  5
2CA
330
1E
100
AcDbEntity
  8
0
100
AcDbLine
 10
10.74562132614286
 20
36.58734018869682
 30
0.0
 11
10.72593500367649
 21
36.56765386623045
 31
0.0
  0
LINE
  5
2CB
330
1E
100
AcDbEntity
  8
0
100
AcDbLine
 10
11.59213319219621
 20
34.83525748919101
 30
0.0
 11
11.59213319219621
 21
34.85494381165738
 31
0.0
  0
LINE
  5
2CC
330
1E
100
AcDbEntity
  8
0
100
AcDbLine
 10
11.49370157986443
 20
34.83525748919101
 30
0.0
 11
11.49370157986443
 21
34.85494381165738
 31
0.0
  0
LINE
  5
2CD
330
1E
100
AcDbEntity
  8
0
100
AcDbLine
 10
10.74562132614286
 20
34.83525748919101
 30
0.0
 11
10.74562132614286
 21
34.85494381165738
 31
0.0
  0
LINE
  5
2CE
330
1E
100
AcDbEntity
  8
0
100
AcDbLine
 10
10.74562132614286
 20
34.83525748919101
 30
0.0
 11
10.74562132614286
 21
34.85494381165738
 31
0.0
  0
LINE
  5
2CF
330
1E
100
AcDbEntity
  8
0
100
AcDbLine
 10
10.74562132614286
 20
36.58734018869682
 30
0.0
 11
10.72593500367649
 21
36.58734018869682
 31
0.0
  0
LINE
  5
2D0
330
1E
100
AcDbEntity
  8
0
100
AcDbLine
 10
10.72593500367649
 20
34.85494381165738
 30
0.0
 11
10.74562132614286
 21
34.85494381165738
 31
0.0
  0
LINE
  5
2D1
330
1E
100
AcDbEntity
  8
0
100
AcDbLine
 10
10.72593500367649
 20
36.56765386623045
 30
0.0
 11
10.72593500367649
 21
36.58734018869682
 31
0.0
  0
LINE
  5
2D2
330
1E
100
AcDbEntity
  8
0
100
AcDbLine
 10
10.70624868121014
 20
36.5479675437641
 30
0.0
 11
10.68656235874379
 21
36.5479675437641
 31
0.0
  0
LINE
  5
2D3
330
1E
100
AcDbEntity
  8
0
100
AcDbLine
 10
10.68656235874379
 20
34.89431645659008
 30
0.0
 11
10.70624868121014
 21
34.89431645659008
 31
0.0
  0
LINE
  5
2D4
330
1E
100
AcDbEntity
  8
0
100
AcDbLine
 10
10.68656235874379
 20
35.7211420001771
 30
0.0
 11
10.68656235874379
 21
35.7211420001771
 31
0.0
  0
LINE
  5
2D5
330
1E
100
AcDbEntity
  8
0
100
AcDbLine
 10
11.59213319219621
 20
40.05213294277571
 30
0.0
 11
11.61181951466258
 21
39.18593475425598
 31
0.0
  0
LINE
  5
2D6
330
1E
100
AcDbEntity
  8
0
100
AcDbLine
 10
11.49370157986443
 20
40.05213294277571
 30
0.0
 11
11.49370157986443
 21
39.26468004412141
 31
0.0
  0
LWPOLYLINE
  5
2D7
330
1E
100
AcDbEntity
  8
0
100
AcDbPolyline
 90
        3
 70
     0
 43
0.0
 10
11.61181951466258
 20
39.18593475425598
 10
11.57244686972986
 20
39.18593475425598
 10
11.49370157986443
 20
39.18593475425598
  0
LWPOLYLINE
  5
2DC
330
1E
100
AcDbEntity
  8
0
100
AcDbPolyline
 90
        3
 70
     0
 43
0.0
 10
11.49370157986443
 20
40.0521329427757
 10
11.57244686972986
 20
40.0521329427757
 10
11.59213319219621
 20
40.0521329427757
  0
LINE
  5
2E1
330
1E
100
AcDbEntity
  8
0
100
AcDbLine
 10
11.49370157986443
 20
39.18593475425598
 30
0.0
 11
11.49370157986443
 21
39.26468004412141
 31
0.0
  0
LINE
  5
2E2
330
1E
100
AcDbEntity
  8
0
100
AcDbLine
 10
11.39526996753265
 20
39.28436636658776
 30
0.0
 11
11.39526996753265
 21
39.18593475425598
 31
0.0
  0
LWPOLYLINE
  5
2E3
330
1E
100
AcDbEntity
  8
0
100
AcDbPolyline
 90
        4
 70
     0
 43
0.0
 10
11.49370157986443
 20
39.18593475425598
 10
11.45432893493173
 20
39.18593475425598
 10
11.43464261246535
 20
39.18593475425598
 10
11.39526996753265
 20
39.18593475425598
  0
LWPOLYLINE
  5
2E9
330
1E
100
AcDbEntity
  8
0
100
AcDbPolyline
 90
        5
 70
     0
 43
0.0
 10
11.39526996753265
 20
39.28436636658776
 10
11.414956289999
 20
39.28436636658776
 10
11.43464261246535
 20
39.28436636658776
 10
11.47401525739808
 20
39.28436636658776
 10
11.49370157986443
 20
39.26468004412141
  0
LINE
  5
2F0
330
1E
100
AcDbEntity
  8
0
100
AcDbLine
 10
10.74562132614286
 20
39.26468004412141
 30
0.0
 11
10.74562132614286
 21
39.18593475425598
 31
0.0
  0
LWPOLYLINE
  5
2F1
330
1E
100
AcDbEntity
  8
0
100
AcDbPolyline
 90
        4
 70
     0
 43
0.0
 10
10.84405293847464
 20
39.18593475425598
 10
10.80468029354192
 20
39.18593475425598
 10
10.76530764860921
 20
39.18593475425598
 10
10.74562132614286
 20
39.18593475425598
  0
LINE
  5
2F7
330
1E
100
AcDbEntity
  8
0
100
AcDbLine
 10
10.84405293847465
 20
39.18593475425598
 30
0.0
 11
10.84405293847465
 21
39.28436636658776
 31
0.0
  0
LWPOLYLINE
  5
2F8
330
1E
100
AcDbEntity
  8
0
100
AcDbPolyline
 90
        5
 70
     0
 43
0.0
 10
10.74562132614286
 20
39.26468004412141
 10
10.76530764860921
 20
39.26468004412141
 10
10.78499397107557
 20
39.28436636658776
 10
10.80468029354192
 20
39.28436636658776
 10
10.84405293847464
 20
39.28436636658776
  0
LINE
  5
2FF
330
1E
100
AcDbEntity
  8
0
100
AcDbLine
 10
10.74562132614286
 20
39.18593475425598
 30
0.0
 11
10.68656235874379
 21
39.18593475425598
 31
0.0
  0
LINE
  5
300
330
1E
100
AcDbEntity
  8
0
100
AcDbLine
 10
10.74562132614286
 20
39.2253073991887
 30
0.0
 11
10.74562132614286
 21
39.2253073991887
 31
0.0
  0
LINE
  5
301
330
1E
100
AcDbEntity
  8
0
100
AcDbLine
 10
10.72593500367649
 20
40.05213294277571
 30
0.0
 11
10.74562132614286
 21
39.2253073991887
 31
0.0
  0
LINE
  5
302
330
1E
100
AcDbEntity
  8
0
100
AcDbLine
 10
10.70624868121014
 20
40.01276029784301
 30
0.0
 11
10.72593500367649
 21
40.05213294277571
 31
0.0
  0
LINE
  5
303
330
1E
100
AcDbEntity
  8
0
100
AcDbLine
 10
10.68656235874379
 20
39.18593475425598
 30
0.0
 11
10.70624868121014
 21
40.01276029784301
 31
0.0
  0
LINE
  5
304
330
1E
100
AcDbEntity
  8
0
100
AcDbLine
 10
10.68656235874379
 20
40.01276029784301
 30
0.0
 11
10.68656235874379
 21
39.18593475425598
 31
0.0
  0
LINE
  5
305
330
1E
100
AcDbEntity
  8
0
100
AcDbLine
 10
10.76530764860922
 20
39.28436636658776
 30
0.0
 11
10.74562132614286
 21
40.05213294277571
 31
0.0
  0
LINE
  5
306
330
1E
100
AcDbEntity
  8
0
100
AcDbLine
 10
10.74562132614286
 20
40.05213294277571
 30
0.0
 11
11.49370157986443
 21
40.05213294277571
 31
0.0
  0
LINE
  5
307
330
1E
100
AcDbEntity
  8
0
100
AcDbLine
 10
11.49370157986443
 20
39.10718946439056
 30
0.0
 11
10.74562132614286
 21
39.10718946439056
 31
0.0
  0
LINE
  5
308
330
1E
100
AcDbEntity
  8
0
100
AcDbLine
 10
10.74562132614286
 20
39.10718946439056
 30
0.0
 11
10.74562132614286
 21
39.10718946439056
 31
0.0
  0
LINE
  5
309
330
1E
100
AcDbEntity
  8
0
100
AcDbLine
 10
11.49370157986443
 20
39.10718946439056
 30
0.0
 11
11.49370157986443
 21
39.12687578685691
 31
0.0
  0
LINE
  5
30A
330
1E
100
AcDbEntity
  8
0
100
AcDbLine
 10
10.74562132614286
 20
39.12687578685691
 30
0.0
 11
11.49370157986443
 21
39.12687578685691
 31
0.0
  0
LINE
  5
30B
330
1E
100
AcDbEntity
  8
0
100
AcDbLine
 10
10.74562132614286
 20
39.10718946439056
 30
0.0
 11
10.74562132614286
 21
39.12687578685691
 31
0.0
  0
LINE
  5
30C
330
1E
100
AcDbEntity
  8
0
100
AcDbLine
 10
10.74562132614286
 20
39.12687578685691
 30
0.0
 11
10.74562132614286
 21
39.14656210932326
 31
0.0
  0
LINE
  5
30D
330
1E
100
AcDbEntity
  8
0
100
AcDbLine
 10
10.74562132614286
 20
39.18593475425598
 30
0.0
 11
10.74562132614286
 21
39.14656210932326
 31
0.0
  0
LINE
  5
30E
330
1E
100
AcDbEntity
  8
0
100
AcDbLine
 10
11.49370157986443
 20
39.12687578685691
 30
0.0
 11
11.49370157986443
 21
39.14656210932326
 31
0.0
  0
LWPOLYLINE
  5
30F
330
1E
100
AcDbEntity
  8
0
100
AcDbPolyline
 90
        5
 70
     0
 43
0.0
 10
11.39526996753265
 20
39.18593475425598
 10
11.43464261246535
 20
39.18593475425598
 10
11.45432893493173
 20
39.16624843178963
 10
11.47401525739808
 20
39.16624843178963
 10
11.49370157986443
 20
39.14656210932326
  0
LINE
  5
316
330
1E
100
AcDbEntity
  8
0
100
AcDbLine
 10
10.84405293847465
 20
39.18593475425598
 30
0.0
 11
11.39526996753265
 21
39.18593475425598
 31
0.0
  0
LWPOLYLINE
  5
317
330
1E
100
AcDbEntity
  8
0
100
AcDbPolyline
 90
        5
 70
     0
 43
0.0
 10
10.74562132614286
 20
39.14656210932326
 10
10.76530764860921
 20
39.16624843178963
 10
10.80468029354192
 20
39.16624843178963
 10
10.82436661600829
 20
39.18593475425598
 10
10.84405293847464
 20
39.18593475425598
  0
LINE
  5
31E
330
1E
100
AcDbEntity
  8
0
100
AcDbLine
 10
10.84405293847465
 20
39.28436636658776
 30
0.0
 11
11.39526996753265
 21
39.28436636658776
 31
0.0
  0
LWPOLYLINE
  5
31F
330
1E
100
AcDbEntity
  8
0
100
AcDbPolyline
 90
        3
 70
     0
 43
0.0
 10
11.49370157986443
 20
38.30005024326991
 10
11.55276054726351
 20
38.30005024326991
 10
11.59213319219621
 20
38.30005024326991
  0
LINE
  5
324
330
1E
100
AcDbEntity
  8
0
100
AcDbLine
 10
10.74562132614286
 20
38.30005024326991
 30
0.0
 11
11.49370157986443
 21
38.30005024326991
 31
0.0
  0
LINE
  5
325
330
1E
100
AcDbEntity
  8
0
100
AcDbLine
 10
10.74562132614286
 20
38.30005024326991
 30
0.0
 11
10.74562132614286
 21
38.30005024326991
 31
0.0
  0
LINE
  5
326
330
1E
100
AcDbEntity
  8
0
100
AcDbLine
 10
10.74562132614286
 20
40.05213294277571
 30
0.0
 11
10.74562132614286
 21
40.05213294277571
 31
0.0
  0
LINE
  5
327
330
1E
100
AcDbEntity
  8
0
100
AcDbLine
 10
11.49370157986443
 20
40.05213294277571
 30
0.0
 11
10.74562132614286
 21
40.05213294277571
 31
0.0
  0
LWPOLYLINE
  5
328
330
1E
100
AcDbEntity
  8
0
100
AcDbPolyline
 90
        3
 70
     0
 43
0.0
 10
11.59213319219621
 20
40.0521329427757
 10
11.55276054726351
 20
40.0521329427757
 10
11.49370157986443
 20
40.0521329427757
  0
LINE
  5
32D
330
1E
100
AcDbEntity
  8
0
100
AcDbLine
 10
10.68656235874379
 20
39.18593475425598
 30
0.0
 11
10.68656235874379
 21
38.35910921066897
 31
0.0
  0
LINE
  5
32E
330
1E
100
AcDbEntity
  8
0
100
AcDbLine
 10
10.74562132614286
 20
39.14656210932326
 30
0.0
 11
10.72593500367649
 21
38.31973656573627
 31
0.0
  0
LINE
  5
32F
330
1E
100
AcDbEntity
  8
0
100
AcDbLine
 10
10.70624868121014
 20
38.35910921066897
 30
0.0
 11
10.68656235874379
 21
39.18593475425598
 31
0.0
  0
LINE
  5
330
330
1E
100
AcDbEntity
  8
0
100
AcDbLine
 10
10.72593500367649
 20
38.31973656573627
 30
0.0
 11
10.70624868121014
 21
38.35910921066897
 31
0.0
  0
LINE
  5
331
330
1E
100
AcDbEntity
  8
0
100
AcDbLine
 10
11.49370157986443
 20
39.10718946439056
 30
0.0
 11
11.49370157986443
 21
38.31973656573627
 31
0.0
  0
LINE
  5
332
330
1E
100
AcDbEntity
  8
0
100
AcDbLine
 10
10.76530764860922
 20
39.0875031419242
 30
0.0
 11
11.49370157986443
 21
39.0875031419242
 31
0.0
  0
LINE
  5
333
330
1E
100
AcDbEntity
  8
0
100
AcDbLine
 10
10.74562132614286
 20
38.31973656573627
 30
0.0
 11
10.76530764860922
 21
39.0875031419242
 31
0.0
  0
LINE
  5
334
330
1E
100
AcDbEntity
  8
0
100
AcDbLine
 10
11.49370157986443
 20
38.31973656573627
 30
0.0
 11
10.74562132614286
 21
38.31973656573627
 31
0.0
  0
LINE
  5
335
330
1E
100
AcDbEntity
  8
0
100
AcDbLine
 10
11.61181951466258
 20
39.18593475425598
 30
0.0
 11
11.59213319219621
 21
38.31973656573627
 31
0.0
  0
LWPOLYLINE
  5
336
330
1E
100
AcDbEntity
  8
0
100
AcDbPolyline
 90
        3
 70
     0
 43
0.0
 10
11.59213319219621
 20
38.31973656573627
 10
11.57244686972986
 20
38.31973656573627
 10
11.49370157986443
 20
38.31973656573627
  0
LINE
  5
33B
330
1E
100
AcDbEntity
  8
0
100
AcDbLine
 10
11.49370157986443
 20
39.14656210932326
 30
0.0
 11
11.49370157986443
 21
39.18593475425598
 31
0.0
  0
LINE
  5
33C
330
1E
100
AcDbEntity
  8
0
100
AcDbLine
 10
11.49370157986443
 20
39.0875031419242
 30
0.0
 11
11.49370157986443
 21
39.10718946439056
 31
0.0
  0
LWPOLYLINE
  5
33D
330
1E
100
AcDbEntity
  8
0
100
AcDbPolyline
 90
        3
 70
     0
 43
0.0
 10
10.72593500367649
 20
40.0521329427757
 10
10.70624868121014
 20
40.03244662030935
 10
10.68656235874379
 20
40.012760297843
  0
LINE
  5
342
330
1E
100
AcDbEntity
  8
0
100
AcDbLine
 10
10.74562132614286
 20
40.05213294277571
 30
0.0
 11
10.72593500367649
 21
40.05213294277571
 31
0.0
  0
LINE
  5
343
330
1E
100
AcDbEntity
  8
0
100
AcDbLine
 10
10.72593500367649
 20
38.31973656573627
 30
0.0
 11
10.74562132614286
 21
38.30005024326991
 31
0.0
  0
LWPOLYLINE
  5
344
330
1E
100
AcDbEntity
  8
0
100
AcDbPolyline
 90
        3
 70
     0
 43
0.0
 10
10.68656235874379
 20
38.35910921066897
 10
10.70624868121014
 20
38.33942288820261
 10
10.72593500367649
 20
38.31973656573627
  0
LINE
  5
349
330
1E
100
AcDbEntity
  8
0
100
AcDbLine
 10
10.76530764860922
 20
39.10718946439056
 30
0.0
 11
10.74562132614286
 21
39.10718946439056
 31
0.0
  0
LINE
  5
34A
330
1E
100
AcDbEntity
  8
0
100
AcDbLine
 10
10.76530764860922
 20
39.0875031419242
 30
0.0
 11
10.76530764860922
 21
39.10718946439056
 31
0.0
  0
LINE
  5
34B
330
1E
100
AcDbEntity
  8
0
100
AcDbLine
 10
11.39526996753265
 20
39.30405268905412
 30
0.0
 11
11.39526996753265
 21
39.28436636658776
 31
0.0
  0
LINE
  5
34C
330
1E
100
AcDbEntity
  8
0
100
AcDbLine
 10
10.84405293847465
 20
39.30405268905412
 30
0.0
 11
10.84405293847465
 21
39.28436636658776
 31
0.0
  0
LINE
  5
34D
330
1E
100
AcDbEntity
  8
0
100
AcDbLine
 10
10.76530764860922
 20
39.28436636658776
 30
0.0
 11
10.74562132614286
 21
40.05213294277571
 31
0.0
  0
LINE
  5
34E
330
1E
100
AcDbEntity
  8
0
100
AcDbLine
 10
10.74562132614286
 20
40.05213294277571
 30
0.0
 11
10.74562132614286
 21
40.05213294277571
 31
0.0
  0
LINE
  5
34F
330
1E
100
AcDbEntity
  8
0
100
AcDbLine
 10
10.74562132614286
 20
38.31973656573627
 30
0.0
 11
10.76530764860922
 21
39.10718946439056
 31
0.0
  0
LINE
  5
350
330
1E
100
AcDbEntity
  8
0
100
AcDbLine
 10
10.74562132614286
 20
38.31973656573627
 30
0.0
 11
10.74562132614286
 21
38.31973656573627
 31
0.0
  0
LINE
  5
351
330
1E
100
AcDbEntity
  8
0
100
AcDbLine
 10
10.72593500367649
 20
40.05213294277571
 30
0.0
 11
10.74562132614286
 21
40.05213294277571
 31
0.0
  0
LINE
  5
352
330
1E
100
AcDbEntity
  8
0
100
AcDbLine
 10
10.74562132614286
 20
38.31973656573627
 30
0.0
 11
10.72593500367649
 21
38.31973656573627
 31
0.0
  0
LINE
  5
353
330
1E
100
AcDbEntity
  8
0
100
AcDbLine
 10
11.59213319219621
 20
38.31973656573627
 30
0.0
 11
11.59213319219621
 21
38.30005024326991
 31
0.0
  0
LINE
  5
354
330
1E
100
AcDbEntity
  8
0
100
AcDbLine
 10
11.49370157986443
 20
38.31973656573627
 30
0.0
 11
11.49370157986443
 21
38.30005024326991
 31
0.0
  0
LINE
  5
355
330
1E
100
AcDbEntity
  8
0
100
AcDbLine
 10
10.74562132614286
 20
38.31973656573627
 30
0.0
 11
10.74562132614286
 21
38.30005024326991
 31
0.0
  0
LINE
  5
356
330
1E
100
AcDbEntity
  8
0
100
AcDbLine
 10
10.74562132614286
 20
38.31973656573627
 30
0.0
 11
10.74562132614286
 21
38.30005024326991
 31
0.0
  0
LINE
  5
357
330
1E
100
AcDbEntity
  8
0
100
AcDbLine
 10
10.74562132614286
 20
38.31973656573627
 30
0.0
 11
10.72593500367649
 21
38.31973656573627
 31
0.0
  0
LINE
  5
358
330
1E
100
AcDbEntity
  8
0
100
AcDbLine
 10
10.72593500367649
 20
40.05213294277571
 30
0.0
 11
10.74562132614286
 21
40.05213294277571
 31
0.0
  0
LINE
  5
359
330
1E
100
AcDbEntity
  8
0
100
AcDbLine
 10
10.70624868121014
 20
38.35910921066897
 30
0.0
 11
10.68656235874379
 21
38.35910921066897
 31
0.0
  0
LINE
  5
35A
330
1E
100
AcDbEntity
  8
0
100
AcDbLine
 10
10.68656235874379
 20
40.01276029784301
 30
0.0
 11
10.70624868121014
 21
40.01276029784301
 31
0.0
  0
LINE
  5
35B
330
1E
100
AcDbEntity
  8
0
100
AcDbLine
 10
10.68656235874379
 20
39.18593475425598
 30
0.0
 11
10.68656235874379
 21
39.18593475425598
 31
0.0
  0
LINE
  5
35C
330
1E
100
AcDbEntity
  8
0
100
AcDbLine
 10
1.335559187224051
 20
34.85494381165738
 30
0.0
 11
1.315872864757698
 21
35.7211420001771
 31
0.0
  0
LINE
  5
35D
330
1E
100
AcDbEntity
  8
0
100
AcDbLine
 10
1.433990799555833
 20
34.85494381165738
 30
0.0
 11
1.433990799555833
 21
35.64239671031168
 31
0.0
  0
LWPOLYLINE
  5
35E
330
1E
100
AcDbEntity
  8
0
100
AcDbPolyline
 90
        3
 70
     0
 43
0.0
 10
1.315872864757698
 20
35.7211420001771
 10
1.355245509690404
 20
35.7211420001771
 10
1.433990799555834
 20
35.7211420001771
  0
LWPOLYLINE
  5
363
330
1E
100
AcDbEntity
  8
0
100
AcDbPolyline
 90
        3
 70
     0
 43
0.0
 10
1.433990799555834
 20
34.85494381165738
 10
1.355245509690404
 20
34.85494381165738
 10
1.335559187224051
 20
34.85494381165738
  0
LINE
  5
368
330
1E
100
AcDbEntity
  8
0
100
AcDbLine
 10
1.433990799555833
 20
35.7211420001771
 30
0.0
 11
1.433990799555833
 21
35.64239671031168
 31
0.0
  0
LINE
  5
369
330
1E
100
AcDbEntity
  8
0
100
AcDbLine
 10
1.532422411887632
 20
35.62271038784531
 30
0.0
 11
1.532422411887632
 21
35.7211420001771
 31
0.0
  0
LWPOLYLINE
  5
36A
330
1E
100
AcDbEntity
  8
0
100
AcDbPolyline
 90
        5
 70
     0
 43
0.0
 10
1.433990799555834
 20
35.7211420001771
 10
1.453677122022204
 20
35.7211420001771
 10
1.473363444488557
 20
35.7211420001771
 10
1.49304976695491
 20
35.7211420001771
 10
1.532422411887633
 20
35.7211420001771
  0
LWPOLYLINE
  5
371
330
1E
100
AcDbEntity
  8
0
100
AcDbPolyline
 90
        6
 70
     0
 43
0.0
 10
1.532422411887633
 20
35.6227103878453
 10
1.512736089421262
 20
35.6227103878453
 10
1.49304976695491
 20
35.6227103878453
 10
1.473363444488557
 20
35.6227103878453
 10
1.453677122022204
 20
35.64239671031167
 10
1.433990799555834
 20
35.64239671031167
  0
LINE
  5
379
330
1E
100
AcDbEntity
  8
0
100
AcDbLine
 10
2.182071053277419
 20
35.64239671031168
 30
0.0
 11
2.182071053277419
 21
35.7211420001771
 31
0.0
  0
LWPOLYLINE
  5
37A
330
1E
100
AcDbEntity
  8
0
100
AcDbPolyline
 90
        4
 70
     0
 43
0.0
 10
2.083639440945637
 20
35.7211420001771
 10
2.123012085878343
 20
35.7211420001771
 10
2.162384730811067
 20
35.7211420001771
 10
2.182071053277419
 20
35.7211420001771
  0
LINE
  5
380
330
1E
100
AcDbEntity
  8
0
100
AcDbLine
 10
2.083639440945637
 20
35.7211420001771
 30
0.0
 11
2.083639440945637
 21
35.62271038784531
 31
0.0
  0
LWPOLYLINE
  5
381
330
1E
100
AcDbEntity
  8
0
100
AcDbPolyline
 90
        5
 70
     0
 43
0.0
 10
2.182071053277419
 20
35.64239671031167
 10
2.162384730811067
 20
35.6227103878453
 10
2.142698408344696
 20
35.6227103878453
 10
2.123012085878343
 20
35.6227103878453
 10
2.083639440945637
 20
35.6227103878453
  0
LINE
  5
388
330
1E
100
AcDbEntity
  8
0
100
AcDbLine
 10
2.182071053277419
 20
35.7211420001771
 30
0.0
 11
2.241130020676496
 21
35.7211420001771
 31
0.0
  0
LINE
  5
389
330
1E
100
AcDbEntity
  8
0
100
AcDbLine
 10
2.182071053277419
 20
35.68176935524437
 30
0.0
 11
2.182071053277419
 21
35.68176935524437
 31
0.0
  0
LINE
  5
38A
330
1E
100
AcDbEntity
  8
0
100
AcDbLine
 10
2.201757375743772
 20
34.85494381165738
 30
0.0
 11
2.182071053277419
 21
35.68176935524437
 31
0.0
  0
LINE
  5
38B
330
1E
100
AcDbEntity
  8
0
100
AcDbLine
 10
2.221443698210125
 20
34.89431645659008
 30
0.0
 11
2.201757375743772
 21
34.85494381165738
 31
0.0
  0
LINE
  5
38C
330
1E
100
AcDbEntity
  8
0
100
AcDbLine
 10
2.241130020676496
 20
35.7211420001771
 30
0.0
 11
2.221443698210125
 21
34.89431645659008
 31
0.0
  0
LINE
  5
38D
330
1E
100
AcDbEntity
  8
0
100
AcDbLine
 10
2.241130020676496
 20
34.89431645659008
 30
0.0
 11
2.260816343142848
 21
35.7211420001771
 31
0.0
  0
LINE
  5
38E
330
1E
100
AcDbEntity
  8
0
100
AcDbLine
 10
2.162384730811066
 20
35.62271038784531
 30
0.0
 11
2.182071053277419
 21
34.85494381165738
 31
0.0
  0
LINE
  5
38F
330
1E
100
AcDbEntity
  8
0
100
AcDbLine
 10
2.182071053277419
 20
34.85494381165738
 30
0.0
 11
1.433990799555833
 21
34.85494381165738
 31
0.0
  0
LINE
  5
390
330
1E
100
AcDbEntity
  8
0
100
AcDbLine
 10
1.433990799555833
 20
35.79988729004253
 30
0.0
 11
2.182071053277419
 21
35.79988729004253
 31
0.0
  0
LINE
  5
391
330
1E
100
AcDbEntity
  8
0
100
AcDbLine
 10
2.182071053277419
 20
35.79988729004253
 30
0.0
 11
2.182071053277419
 21
35.79988729004253
 31
0.0
  0
LINE
  5
392
330
1E
100
AcDbEntity
  8
0
100
AcDbLine
 10
1.433990799555833
 20
35.79988729004253
 30
0.0
 11
1.433990799555833
 21
35.78020096757616
 31
0.0
  0
LINE
  5
393
330
1E
100
AcDbEntity
  8
0
100
AcDbLine
 10
2.182071053277419
 20
35.78020096757616
 30
0.0
 11
1.433990799555833
 21
35.78020096757616
 31
0.0
  0
LINE
  5
394
330
1E
100
AcDbEntity
  8
0
100
AcDbLine
 10
2.182071053277419
 20
35.79988729004253
 30
0.0
 11
2.182071053277419
 21
35.78020096757616
 31
0.0
  0
LINE
  5
395
330
1E
100
AcDbEntity
  8
0
100
AcDbLine
 10
2.182071053277419
 20
35.78020096757616
 30
0.0
 11
2.182071053277419
 21
35.7605146451098
 31
0.0
  0
LINE
  5
396
330
1E
100
AcDbEntity
  8
0
100
AcDbLine
 10
2.182071053277419
 20
35.7211420001771
 30
0.0
 11
2.182071053277419
 21
35.7605146451098
 31
0.0
  0
LINE
  5
397
330
1E
100
AcDbEntity
  8
0
100
AcDbLine
 10
1.433990799555833
 20
35.78020096757616
 30
0.0
 11
1.433990799555833
 21
35.7605146451098
 31
0.0
  0
LWPOLYLINE
  5
398
330
1E
100
AcDbEntity
  8
0
100
AcDbPolyline
 90
        5
 70
     0
 43
0.0
 10
1.532422411887633
 20
35.7211420001771
 10
1.49304976695491
 20
35.7211420001771
 10
1.473363444488557
 20
35.74082832264345
 10
1.453677122022204
 20
35.74082832264345
 10
1.433990799555834
 20
35.7605146451098
  0
LINE
  5
39F
330
1E
100
AcDbEntity
  8
0
100
AcDbLine
 10
2.083639440945637
 20
35.7211420001771
 30
0.0
 11
1.532422411887632
 21
35.7211420001771
 31
0.0
  0
LWPOLYLINE
  5
3A0
330
1E
100
AcDbEntity
  8
0
100
AcDbPolyline
 90
        6
 70
     0
 43
0.0
 10
2.182071053277419
 20
35.7605146451098
 10
2.182071053277419
 20
35.74082832264345
 10
2.162384730811067
 20
35.74082832264345
 10
2.142698408344696
 20
35.7211420001771
 10
2.10332576341199
 20
35.7211420001771
 10
2.083639440945637
 20
35.7211420001771
  0
LINE
  5
3A8
330
1E
100
AcDbEntity
  8
0
100
AcDbLine
 10
2.083639440945637
 20
35.62271038784531
 30
0.0
 11
1.532422411887632
 21
35.62271038784531
 31
0.0
  0
LWPOLYLINE
  5
3A9
330
1E
100
AcDbEntity
  8
0
100
AcDbPolyline
 90
        3
 70
     0
 43
0.0
 10
1.453677122022204
 20
36.58734018869682
 10
1.374931832156774
 20
36.58734018869682
 10
1.355245509690404
 20
36.58734018869682
  0
LINE
  5
3AE
330
1E
100
AcDbEntity
  8
0
100
AcDbLine
 10
2.182071053277419
 20
36.58734018869682
 30
0.0
 11
1.453677122022203
 21
36.58734018869682
 31
0.0
  0
LINE
  5
3AF
330
1E
100
AcDbEntity
  8
0
100
AcDbLine
 10
2.182071053277419
 20
36.58734018869682
 30
0.0
 11
2.182071053277419
 21
36.58734018869682
 31
0.0
  0
LINE
  5
3B0
330
1E
100
AcDbEntity
  8
0
100
AcDbLine
 10
2.182071053277419
 20
34.83525748919101
 30
0.0
 11
2.182071053277419
 21
34.83525748919101
 31
0.0
  0
LINE
  5
3B1
330
1E
100
AcDbEntity
  8
0
100
AcDbLine
 10
1.453677122022203
 20
34.83525748919101
 30
0.0
 11
2.182071053277419
 21
34.83525748919101
 31
0.0
  0
LWPOLYLINE
  5
3B2
330
1E
100
AcDbEntity
  8
0
100
AcDbPolyline
 90
        3
 70
     0
 43
0.0
 10
1.355245509690404
 20
34.83525748919101
 10
1.374931832156774
 20
34.83525748919101
 10
1.453677122022204
 20
34.83525748919101
  0
LINE
  5
3B7
330
1E
100
AcDbEntity
  8
0
100
AcDbLine
 10
2.260816343142848
 20
35.7211420001771
 30
0.0
 11
2.241130020676496
 21
36.5479675437641
 31
0.0
  0
LINE
  5
3B8
330
1E
100
AcDbEntity
  8
0
100
AcDbLine
 10
2.182071053277419
 20
35.7605146451098
 30
0.0
 11
2.201757375743772
 21
36.56765386623045
 31
0.0
  0
LINE
  5
3B9
330
1E
100
AcDbEntity
  8
0
100
AcDbLine
 10
2.221443698210125
 20
36.5479675437641
 30
0.0
 11
2.241130020676496
 21
35.7211420001771
 31
0.0
  0
LINE
  5
3BA
330
1E
100
AcDbEntity
  8
0
100
AcDbLine
 10
2.201757375743772
 20
36.56765386623045
 30
0.0
 11
2.221443698210125
 21
36.5479675437641
 31
0.0
  0
LINE
  5
3BB
330
1E
100
AcDbEntity
  8
0
100
AcDbLine
 10
1.433990799555833
 20
35.79988729004253
 30
0.0
 11
1.433990799555833
 21
36.58734018869682
 31
0.0
  0
LINE
  5
3BC
330
1E
100
AcDbEntity
  8
0
100
AcDbLine
 10
2.162384730811066
 20
35.79988729004253
 30
0.0
 11
1.433990799555833
 21
35.79988729004253
 31
0.0
  0
LINE
  5
3BD
330
1E
100
AcDbEntity
  8
0
100
AcDbLine
 10
2.182071053277419
 20
36.58734018869682
 30
0.0
 11
2.162384730811066
 21
35.79988729004253
 31
0.0
  0
LINE
  5
3BE
330
1E
100
AcDbEntity
  8
0
100
AcDbLine
 10
1.433990799555833
 20
36.58734018869682
 30
0.0
 11
2.182071053277419
 21
36.58734018869682
 31
0.0
  0
LINE
  5
3BF
330
1E
100
AcDbEntity
  8
0
100
AcDbLine
 10
1.315872864757698
 20
35.7211420001771
 30
0.0
 11
1.335559187224051
 21
36.58734018869682
 31
0.0
  0
LWPOLYLINE
  5
3C0
330
1E
100
AcDbEntity
  8
0
100
AcDbPolyline
 90
        3
 70
     0
 43
0.0
 10
1.335559187224051
 20
36.58734018869682
 10
1.355245509690404
 20
36.58734018869682
 10
1.433990799555834
 20
36.58734018869682
  0
LINE
  5
3C5
330
1E
100
AcDbEntity
  8
0
100
AcDbLine
 10
1.433990799555833
 20
35.7605146451098
 30
0.0
 11
1.433990799555833
 21
35.7211420001771
 31
0.0
  0
LINE
  5
3C6
330
1E
100
AcDbEntity
  8
0
100
AcDbLine
 10
1.433990799555833
 20
35.79988729004253
 30
0.0
 11
1.433990799555833
 21
35.79988729004253
 31
0.0
  0
LWPOLYLINE
  5
3C7
330
1E
100
AcDbEntity
  8
0
100
AcDbPolyline
 90
        3
 70
     0
 43
0.0
 10
2.201757375743772
 20
34.85494381165738
 10
2.221443698210125
 20
34.87463013412373
 10
2.241130020676496
 20
34.89431645659009
  0
LWPOLYLINE
  5
3CC
330
1E
100
AcDbEntity
  8
0
100
AcDbPolyline
 90
        3
 70
     0
 43
0.0
 10
2.182071053277419
 20
34.83525748919101
 10
2.201757375743772
 20
34.83525748919101
 10
2.201757375743772
 20
34.85494381165738
  0
LINE
  5
3D1
330
1E
100
AcDbEntity
  8
0
100
AcDbLine
 10
2.201757375743772
 20
36.58734018869682
 30
0.0
 11
2.182071053277419
 21
36.58734018869682
 31
0.0
  0
LWPOLYLINE
  5
3D2
330
1E
100
AcDbEntity
  8
0
100
AcDbPolyline
 90
        3
 70
     0
 43
0.0
 10
2.241130020676496
 20
36.5479675437641
 10
2.221443698210125
 20
36.56765386623045
 10
2.201757375743772
 20
36.58734018869682
  0
LINE
  5
3D7
330
1E
100
AcDbEntity
  8
0
100
AcDbLine
 10
2.162384730811066
 20
35.79988729004253
 30
0.0
 11
2.182071053277419
 21
35.79988729004253
 31
0.0
  0
LINE
  5
3D8
330
1E
100
AcDbEntity
  8
0
100
AcDbLine
 10
1.532422411887632
 20
35.60302406537895
 30
0.0
 11
1.532422411887632
 21
35.62271038784531
 31
0.0
  0
LINE
  5
3D9
330
1E
100
AcDbEntity
  8
0
100
AcDbLine
 10
2.083639440945637
 20
35.60302406537895
 30
0.0
 11
2.083639440945637
 21
35.62271038784531
 31
0.0
  0
LINE
  5
3DA
330
1E
100
AcDbEntity
  8
0
100
AcDbLine
 10
2.182071053277419
 20
35.62271038784531
 30
0.0
 11
2.182071053277419
 21
34.85494381165738
 31
0.0
  0
LINE
  5
3DB
330
1E
100
AcDbEntity
  8
0
100
AcDbLine
 10
2.182071053277419
 20
34.85494381165738
 30
0.0
 11
2.182071053277419
 21
34.85494381165738
 31
0.0
  0
LINE
  5
3DC
330
1E
100
AcDbEntity
  8
0
100
AcDbLine
 10
2.182071053277419
 20
36.58734018869682
 30
0.0
 11
2.182071053277419
 21
35.79988729004253
 31
0.0
  0
LINE
  5
3DD
330
1E
100
AcDbEntity
  8
0
100
AcDbLine
 10
2.182071053277419
 20
36.58734018869682
 30
0.0
 11
2.182071053277419
 21
36.58734018869682
 31
0.0
  0
LINE
  5
3DE
330
1E
100
AcDbEntity
  8
0
100
AcDbLine
 10
2.201757375743772
 20
34.85494381165738
 30
0.0
 11
2.182071053277419
 21
34.85494381165738
 31
0.0
  0
LINE
  5
3DF
330
1E
100
AcDbEntity
  8
0
100
AcDbLine
 10
2.182071053277419
 20
36.58734018869682
 30
0.0
 11
2.201757375743772
 21
36.56765386623045
 31
0.0
  0
LINE
  5
3E0
330
1E
100
AcDbEntity
  8
0
100
AcDbLine
 10
1.335559187224051
 20
36.58734018869682
 30
0.0
 11
1.355245509690404
 21
36.58734018869682
 31
0.0
  0
LINE
  5
3E1
330
1E
100
AcDbEntity
  8
0
100
AcDbLine
 10
1.355245509690404
 20
34.83525748919101
 30
0.0
 11
1.335559187224051
 21
34.85494381165738
 31
0.0
  0
LINE
  5
3E2
330
1E
100
AcDbEntity
  8
0
100
AcDbLine
 10
1.433990799555833
 20
36.58734018869682
 30
0.0
 11
1.453677122022203
 21
36.58734018869682
 31
0.0
  0
LINE
  5
3E3
330
1E
100
AcDbEntity
  8
0
100
AcDbLine
 10
1.453677122022203
 20
34.83525748919101
 30
0.0
 11
1.433990799555833
 21
34.85494381165738
 31
0.0
  0
LINE
  5
3E4
330
1E
100
AcDbEntity
  8
0
100
AcDbLine
 10
2.182071053277419
 20
34.83525748919101
 30
0.0
 11
2.182071053277419
 21
34.85494381165738
 31
0.0
  0
LINE
  5
3E5
330
1E
100
AcDbEntity
  8
0
100
AcDbLine
 10
2.182071053277419
 20
34.83525748919101
 30
0.0
 11
2.182071053277419
 21
34.85494381165738
 31
0.0
  0
LINE
  5
3E6
330
1E
100
AcDbEntity
  8
0
100
AcDbLine
 10
2.182071053277419
 20
36.58734018869682
 30
0.0
 11
2.201757375743772
 21
36.58734018869682
 31
0.0
  0
LINE
  5
3E7
330
1E
100
AcDbEntity
  8
0
100
AcDbLine
 10
2.201757375743772
 20
34.85494381165738
 30
0.0
 11
2.182071053277419
 21
34.85494381165738
 31
0.0
  0
LINE
  5
3E8
330
1E
100
AcDbEntity
  8
0
100
AcDbLine
 10
2.201757375743772
 20
36.56765386623045
 30
0.0
 11
2.201757375743772
 21
36.58734018869682
 31
0.0
  0
LINE
  5
3E9
330
1E
100
AcDbEntity
  8
0
100
AcDbLine
 10
2.221443698210125
 20
36.5479675437641
 30
0.0
 11
2.241130020676496
 21
36.5479675437641
 31
0.0
  0
LINE
  5
3EA
330
1E
100
AcDbEntity
  8
0
100
AcDbLine
 10
2.241130020676496
 20
34.89431645659008
 30
0.0
 11
2.221443698210125
 21
34.89431645659008
 31
0.0
  0
LINE
  5
3EB
330
1E
100
AcDbEntity
  8
0
100
AcDbLine
 10
2.241130020676496
 20
35.7211420001771
 30
0.0
 11
2.260816343142848
 21
35.7211420001771
 31
0.0
  0
LINE
  5
3EC
330
1E
100
AcDbEntity
  8
0
100
AcDbLine
 10
7.0839653474004
 20
77.75144046585001
 30
0.0
 11
7.0839653474004
 21
77.79081311078272
 31
0.0
  0
LINE
  5
3ED
330
1E
100
AcDbEntity
  8
0
100
AcDbLine
 10
7.241455927131259
 20
77.79081311078272
 30
0.0
 11
7.0839653474004
 21
77.79081311078272
 31
0.0
  0
LINE
  5
3EE
330
1E
100
AcDbEntity
  8
0
100
AcDbLine
 10
7.241455927131259
 20
77.75144046585001
 30
0.0
 11
7.241455927131259
 21
77.79081311078272
 31
0.0
  0
LINE
  5
3EF
330
1E
100
AcDbEntity
  8
0
100
AcDbLine
 10
7.182396959732182
 20
77.75144046585001
 30
0.0
 11
7.241455927131259
 21
77.75144046585001
 31
0.0
  0
LINE
  5
3F0
330
1E
100
AcDbEntity
  8
0
100
AcDbLine
 10
7.182396959732182
 20
77.75144046585001
 30
0.0
 11
7.182396959732182
 21
77.5742635636528
 31
0.0
  0
LINE
  5
3F1
330
1E
100
AcDbEntity
  8
0
100
AcDbLine
 10
7.123337992333105
 20
77.5742635636528
 30
0.0
 11
7.182396959732182
 21
77.5742635636528
 31
0.0
  0
LINE
  5
3F2
330
1E
100
AcDbEntity
  8
0
100
AcDbLine
 10
7.123337992333105
 20
77.75144046585001
 30
0.0
 11
7.123337992333105
 21
77.5742635636528
 31
0.0
  0
LINE
  5
3F3
330
1E
100
AcDbEntity
  8
0
100
AcDbLine
 10
7.123337992333105
 20
77.75144046585001
 30
0.0
 11
7.0839653474004
 21
77.75144046585001
 31
0.0
  0
LINE
  5
3F4
330
1E
100
AcDbEntity
  8
0
100
AcDbLine
 10
6.611493608207824
 20
77.79081311078272
 30
0.0
 11
6.611493608207824
 21
77.5742635636528
 31
0.0
  0
LINE
  5
3F5
330
1E
100
AcDbEntity
  8
0
100
AcDbLine
 10
6.611493608207824
 20
77.5742635636528
 30
0.0
 11
6.72961154300596
 21
77.5742635636528
 31
0.0
  0
LWPOLYLINE
  5
3F6
330
1E
100
AcDbEntity
  8
0
100
AcDbPolyline
 90
        3
 70
     0
 43
0.0
 10
6.72961154300596
 20
77.57426356365282
 10
6.768984187938683
 20
77.59394988611916
 10
6.768984187938683
 20
77.61363620858552
  0
LINE
  5
3FB
330
1E
100
AcDbEntity
  8
0
100
AcDbLine
 10
6.768984187938683
 20
77.61363620858552
 30
0.0
 11
6.768984187938683
 21
77.75144046585001
 31
0.0
  0
LWPOLYLINE
  5
3FC
330
1E
100
AcDbEntity
  8
0
100
AcDbPolyline
 90
        3
 70
     0
 43
0.0
 10
6.768984187938683
 20
77.75144046585001
 10
6.768984187938683
 20
77.79081311078272
 10
6.72961154300596
 20
77.79081311078272
  0
LINE
  5
401
330
1E
100
AcDbEntity
  8
0
100
AcDbLine
 10
6.72961154300596
 20
77.79081311078272
 30
0.0
 11
6.611493608207824
 21
77.79081311078272
 31
0.0
  0
LINE
  5
402
330
1E
100
AcDbEntity
  8
0
100
AcDbLine
 10
6.670552575606884
 20
77.75144046585001
 30
0.0
 11
6.670552575606884
 21
77.63332253105184
 31
0.0
  0
LINE
  5
403
330
1E
100
AcDbEntity
  8
0
100
AcDbLine
 10
6.690238898073254
 20
77.75144046585001
 30
0.0
 11
6.670552575606884
 21
77.75144046585001
 31
0.0
  0
LWPOLYLINE
  5
404
330
1E
100
AcDbEntity
  8
0
100
AcDbPolyline
 90
        3
 70
     0
 43
0.0
 10
6.709925220539608
 20
77.73175414338367
 10
6.709925220539608
 20
77.75144046585001
 10
6.690238898073254
 20
77.75144046585001
  0
LINE
  5
409
330
1E
100
AcDbEntity
  8
0
100
AcDbLine
 10
6.709925220539608
 20
77.63332253105184
 30
0.0
 11
6.709925220539608
 21
77.73175414338368
 31
0.0
  0
LINE
  5
40A
330
1E
100
AcDbEntity
  8
0
100
AcDbLine
 10
6.690238898073254
 20
77.63332253105184
 30
0.0
 11
6.709925220539608
 21
77.63332253105184
 31
0.0
  0
LINE
  5
40B
330
1E
100
AcDbEntity
  8
0
100
AcDbLine
 10
6.690238898073254
 20
77.63332253105184
 30
0.0
 11
6.670552575606884
 21
77.63332253105184
 31
0.0
  0
LINE
  5
40C
330
1E
100
AcDbEntity
  8
0
100
AcDbLine
 10
5.981531289284391
 20
77.96799001297995
 30
0.0
 11
5.981531289284391
 21
77.49551827378735
 31
0.0
  0
LINE
  5
40D
330
1E
100
AcDbEntity
  8
0
100
AcDbLine
 10
7.320201216996688
 20
77.77112678831639
 30
0.0
 11
7.300514894530317
 21
77.77112678831639
 31
0.0
  0
LINE
  5
40E
330
1E
100
AcDbEntity
  8
0
100
AcDbLine
 10
6.985533735068599
 20
77.79081311078272
 30
0.0
 11
6.985533735068599
 21
77.5742635636528
 31
0.0
  0
LINE
  5
40F
330
1E
100
AcDbEntity
  8
0
100
AcDbLine
 10
6.985533735068599
 20
77.5742635636528
 30
0.0
 11
7.044592702467677
 21
77.5742635636528
 31
0.0
  0
LINE
  5
410
330
1E
100
AcDbEntity
  8
0
100
AcDbLine
 10
7.044592702467677
 20
77.79081311078272
 30
0.0
 11
7.044592702467677
 21
77.5742635636528
 31
0.0
  0
LINE
  5
411
330
1E
100
AcDbEntity
  8
0
100
AcDbLine
 10
7.044592702467677
 20
77.79081311078272
 30
0.0
 11
6.985533735068599
 21
77.79081311078272
 31
0.0
  0
LWPOLYLINE
  5
412
330
1E
100
AcDbEntity
  8
0
100
AcDbPolyline
 90
        5
 70
     0
 43
0.0
 10
5.784668064620809
 20
77.77112678831636
 10
5.764981742154457
 20
77.75144046585001
 10
5.784668064620809
 20
77.75144046585001
 10
5.804354387087163
 20
77.75144046585001
 10
5.784668064620809
 20
77.77112678831636
  0
LWPOLYLINE
  5
419
330
1E
100
AcDbEntity
  8
0
100
AcDbPolyline
 90
        5
 70
     0
 43
0.0
 10
5.784668064620809
 20
77.83018575571543
 10
5.764981742154457
 20
77.81049943324908
 10
5.784668064620809
 20
77.79081311078272
 10
5.804354387087163
 20
77.81049943324908
 10
5.784668064620809
 20
77.83018575571543
  0
LWPOLYLINE
  5
420
330
1E
100
AcDbEntity
  8
0
100
AcDbPolyline
 90
        5
 70
     0
 43
0.0
 10
5.784668064620809
 20
77.88924472311453
 10
5.764981742154457
 20
77.86955840064817
 10
5.784668064620809
 20
77.84987207818182
 10
5.804354387087163
 20
77.86955840064817
 10
5.784668064620809
 20
77.88924472311453
  0
LINE
  5
427
330
1E
100
AcDbEntity
  8
0
100
AcDbLine
 10
5.587804839957245
 20
77.92861736804724
 30
0.0
 11
5.587804839957245
 21
77.5742635636528
 31
0.0
  0
LINE
  5
428
330
1E
100
AcDbEntity
  8
0
100
AcDbLine
 10
5.745295419688104
 20
77.5742635636528
 30
0.0
 11
5.587804839957245
 21
77.5742635636528
 31
0.0
  0
LINE
  5
429
330
1E
100
AcDbEntity
  8
0
100
AcDbLine
 10
5.745295419688104
 20
77.69238149845094
 30
0.0
 11
5.745295419688104
 21
77.5742635636528
 31
0.0
  0
LINE
  5
42A
330
1E
100
AcDbEntity
  8
0
100
AcDbLine
 10
5.745295419688104
 20
77.69238149845094
 30
0.0
 11
5.824040709553532
 21
77.69238149845094
 31
0.0
  0
LWPOLYLINE
  5
42B
330
1E
100
AcDbEntity
  8
0
100
AcDbPolyline
 90
        7
 70
     0
 43
0.0
 10
5.824040709553532
 20
77.69238149845094
 10
5.883099676952591
 20
77.71206782091727
 10
5.942158644351668
 20
77.75144046585001
 10
5.96184496681802
 20
77.81049943324908
 10
5.942158644351668
 20
77.86955840064817
 10
5.883099676952591
 20
77.92861736804723
 10
5.824040709553532
 20
77.92861736804723
  0
LINE
  5
434
330
1E
100
AcDbEntity
  8
0
100
AcDbLine
 10
5.587804839957245
 20
77.92861736804724
 30
0.0
 11
5.824040709553532
 21
77.92861736804724
 31
0.0
  0
LWPOLYLINE
  5
435
330
1E
100
AcDbEntity
  8
0
100
AcDbPolyline
 90
        5
 70
     0
 43
0.0
 10
5.725609097221734
 20
77.86955840064817
 10
5.725609097221734
 20
77.84987207818182
 10
5.725609097221734
 20
77.83018575571543
 10
5.745295419688104
 20
77.84987207818182
 10
5.725609097221734
 20
77.86955840064817
  0
LWPOLYLINE
  5
43C
330
1E
100
AcDbEntity
  8
0
100
AcDbPolyline
 90
        5
 70
     0
 43
0.0
 10
5.824040709553532
 20
77.84987207818182
 10
5.804354387087163
 20
77.84987207818182
 10
5.824040709553532
 20
77.83018575571543
 10
5.843727032019886
 20
77.84987207818182
 10
5.824040709553532
 20
77.84987207818182
  0
LWPOLYLINE
  5
443
330
1E
100
AcDbEntity
  8
0
100
AcDbPolyline
 90
        5
 70
     0
 43
0.0
 10
5.824040709553532
 20
77.81049943324908
 10
5.804354387087163
 20
77.79081311078272
 10
5.824040709553532
 20
77.77112678831636
 10
5.843727032019886
 20
77.79081311078272
 10
5.824040709553532
 20
77.81049943324908
  0
LWPOLYLINE
  5
44A
330
1E
100
AcDbEntity
  8
0
100
AcDbPolyline
 90
        5
 70
     0
 43
0.0
 10
5.725609097221734
 20
77.81049943324908
 10
5.70592277475538
 20
77.79081311078272
 10
5.725609097221734
 20
77.77112678831636
 10
5.745295419688104
 20
77.79081311078272
 10
5.725609097221734
 20
77.81049943324908
  0
LINE
  5
451
330
1E
100
AcDbEntity
  8
0
100
AcDbLine
 10
7.320201216996688
 20
77.75144046585001
 30
0.0
 11
7.320201216996688
 21
77.77112678831639
 31
0.0
  0
LINE
  5
452
330
1E
100
AcDbEntity
  8
0
100
AcDbLine
 10
6.296512448746108
 20
77.65300885351823
 30
0.0
 11
6.335885093678814
 21
77.71206782091727
 31
0.0
  0
LINE
  5
453
330
1E
100
AcDbEntity
  8
0
100
AcDbLine
 10
6.335885093678814
 20
77.71206782091727
 30
0.0
 11
6.355571416145167
 21
77.65300885351823
 31
0.0
  0
LINE
  5
454
330
1E
100
AcDbEntity
  8
0
100
AcDbLine
 10
6.355571416145167
 20
77.65300885351823
 30
0.0
 11
6.296512448746108
 21
77.65300885351823
 31
0.0
  0
LINE
  5
455
330
1E
100
AcDbEntity
  8
0
100
AcDbLine
 10
6.020903934217098
 20
77.84987207818182
 30
0.0
 11
6.020903934217098
 21
77.5742635636528
 31
0.0
  0
LINE
  5
456
330
1E
100
AcDbEntity
  8
0
100
AcDbLine
 10
6.139021869015249
 20
77.5742635636528
 30
0.0
 11
6.020903934217098
 21
77.5742635636528
 31
0.0
  0
LINE
  5
457
330
1E
100
AcDbEntity
  8
0
100
AcDbLine
 10
6.139021869015249
 20
77.67269517598456
 30
0.0
 11
6.139021869015249
 21
77.5742635636528
 31
0.0
  0
LINE
  5
458
330
1E
100
AcDbEntity
  8
0
100
AcDbLine
 10
6.139021869015249
 20
77.67269517598456
 30
0.0
 11
6.217767158880679
 21
77.67269517598456
 31
0.0
  0
LWPOLYLINE
  5
459
330
1E
100
AcDbEntity
  8
0
100
AcDbPolyline
 90
        3
 70
     0
 43
0.0
 10
6.21776715888068
 20
77.67269517598458
 10
6.237453481347031
 20
77.67269517598458
 10
6.257139803813386
 20
77.67269517598458
  0
LINE
  5
45E
330
1E
100
AcDbEntity
  8
0
100
AcDbLine
 10
6.217767158880679
 20
77.5742635636528
 30
0.0
 11
6.257139803813385
 21
77.67269517598456
 31
0.0
  0
LINE
  5
45F
330
1E
100
AcDbEntity
  8
0
100
AcDbLine
 10
6.276826126279737
 20
77.5742635636528
 30
0.0
 11
6.217767158880679
 21
77.5742635636528
 31
0.0
  0
LINE
  5
460
330
1E
100
AcDbEntity
  8
0
100
AcDbLine
 10
6.276826126279737
 20
77.5742635636528
 30
0.0
 11
6.296512448746108
 21
77.61363620858552
 31
0.0
  0
LINE
  5
461
330
1E
100
AcDbEntity
  8
0
100
AcDbLine
 10
6.375257738611537
 20
77.61363620858552
 30
0.0
 11
6.296512448746108
 21
77.61363620858552
 31
0.0
  0
LINE
  5
462
330
1E
100
AcDbEntity
  8
0
100
AcDbLine
 10
6.375257738611537
 20
77.5742635636528
 30
0.0
 11
6.375257738611537
 21
77.61363620858552
 31
0.0
  0
LINE
  5
463
330
1E
100
AcDbEntity
  8
0
100
AcDbLine
 10
6.375257738611537
 20
77.5742635636528
 30
0.0
 11
6.473689350943319
 21
77.5742635636528
 31
0.0
  0
LINE
  5
464
330
1E
100
AcDbEntity
  8
0
100
AcDbLine
 10
6.473689350943319
 20
77.67269517598456
 30
0.0
 11
6.473689350943319
 21
77.5742635636528
 31
0.0
  0
LINE
  5
465
330
1E
100
AcDbEntity
  8
0
100
AcDbLine
 10
6.513061995876025
 20
77.5742635636528
 30
0.0
 11
6.473689350943319
 21
77.67269517598456
 31
0.0
  0
LINE
  5
466
330
1E
100
AcDbEntity
  8
0
100
AcDbLine
 10
6.513061995876025
 20
77.5742635636528
 30
0.0
 11
6.572120963275102
 21
77.5742635636528
 31
0.0
  0
LINE
  5
467
330
1E
100
AcDbEntity
  8
0
100
AcDbLine
 10
6.572120963275102
 20
77.5742635636528
 30
0.0
 11
6.572120963275102
 21
77.79081311078272
 31
0.0
  0
LINE
  5
468
330
1E
100
AcDbEntity
  8
0
100
AcDbLine
 10
6.572120963275102
 20
77.79081311078272
 30
0.0
 11
6.532748318342396
 21
77.79081311078272
 31
0.0
  0
LINE
  5
469
330
1E
100
AcDbEntity
  8
0
100
AcDbLine
 10
6.532748318342396
 20
77.79081311078272
 30
0.0
 11
6.532748318342396
 21
77.71206782091727
 31
0.0
  0
LINE
  5
46A
330
1E
100
AcDbEntity
  8
0
100
AcDbLine
 10
6.532748318342396
 20
77.71206782091727
 30
0.0
 11
6.493375673409672
 21
77.79081311078272
 31
0.0
  0
LINE
  5
46B
330
1E
100
AcDbEntity
  8
0
100
AcDbLine
 10
6.493375673409672
 20
77.79081311078272
 30
0.0
 11
6.414630383544243
 21
77.79081311078272
 31
0.0
  0
LINE
  5
46C
330
1E
100
AcDbEntity
  8
0
100
AcDbLine
 10
6.414630383544243
 20
77.79081311078272
 30
0.0
 11
6.414630383544243
 21
77.65300885351823
 31
0.0
  0
LINE
  5
46D
330
1E
100
AcDbEntity
  8
0
100
AcDbLine
 10
6.355571416145167
 20
77.79081311078272
 30
0.0
 11
6.414630383544243
 21
77.65300885351823
 31
0.0
  0
LINE
  5
46E
330
1E
100
AcDbEntity
  8
0
100
AcDbLine
 10
6.355571416145167
 20
77.79081311078272
 30
0.0
 11
6.296512448746108
 21
77.79081311078272
 31
0.0
  0
LWPOLYLINE
  5
46F
330
1E
100
AcDbEntity
  8
0
100
AcDbPolyline
 90
        3
 70
     0
 43
0.0
 10
6.296512448746109
 20
77.79081311078272
 10
6.257139803813386
 20
77.83018575571543
 10
6.21776715888068
 20
77.84987207818182
  0
LINE
  5
474
330
1E
100
AcDbEntity
  8
0
100
AcDbLine
 10
6.020903934217098
 20
77.84987207818182
 30
0.0
 11
6.217767158880679
 21
77.84987207818182
 31
0.0
  0
LINE
  5
475
330
1E
100
AcDbEntity
  8
0
100
AcDbLine
 10
6.139021869015249
 20
77.81049943324908
 30
0.0
 11
6.139021869015249
 21
77.71206782091727
 31
0.0
  0
LINE
  5
476
330
1E
100
AcDbEntity
  8
0
100
AcDbLine
 10
6.178394513947956
 20
77.81049943324908
 30
0.0
 11
6.139021869015249
 21
77.81049943324908
 31
0.0
  0
LINE
  5
477
330
1E
100
AcDbEntity
  8
0
100
AcDbLine
 10
6.178394513947956
 20
77.79081311078272
 30
0.0
 11
6.178394513947956
 21
77.81049943324908
 31
0.0
  0
LINE
  5
478
330
1E
100
AcDbEntity
  8
0
100
AcDbLine
 10
6.178394513947956
 20
77.79081311078272
 30
0.0
 11
6.178394513947956
 21
77.73175414338368
 31
0.0
  0
LINE
  5
479
330
1E
100
AcDbEntity
  8
0
100
AcDbLine
 10
6.178394513947956
 20
77.71206782091727
 30
0.0
 11
6.178394513947956
 21
77.73175414338368
 31
0.0
  0
LINE
  5
47A
330
1E
100
AcDbEntity
  8
0
100
AcDbLine
 10
6.178394513947956
 20
77.71206782091727
 30
0.0
 11
6.139021869015249
 21
77.71206782091727
 31
0.0
  0
LINE
  5
47B
330
1E
100
AcDbEntity
  8
0
100
AcDbLine
 10
6.867415800270466
 20
77.63332253105184
 30
0.0
 11
6.867415800270466
 21
77.79081311078272
 31
0.0
  0
LINE
  5
47C
330
1E
100
AcDbEntity
  8
0
100
AcDbLine
 10
6.867415800270466
 20
77.79081311078272
 30
0.0
 11
6.808356832871389
 21
77.79081311078272
 31
0.0
  0
LINE
  5
47D
330
1E
100
AcDbEntity
  8
0
100
AcDbLine
 10
6.808356832871389
 20
77.79081311078272
 30
0.0
 11
6.808356832871389
 21
77.61363620858552
 31
0.0
  0
LWPOLYLINE
  5
47E
330
1E
100
AcDbEntity
  8
0
100
AcDbPolyline
 90
        3
 70
     0
 43
0.0
 10
6.808356832871388
 20
77.61363620858552
 10
6.808356832871388
 20
77.59394988611916
 10
6.847729477804112
 20
77.57426356365282
  0
LINE
  5
483
330
1E
100
AcDbEntity
  8
0
100
AcDbLine
 10
6.926474767669541
 20
77.5742635636528
 30
0.0
 11
6.847729477804112
 21
77.5742635636528
 31
0.0
  0
LWPOLYLINE
  5
484
330
1E
100
AcDbEntity
  8
0
100
AcDbPolyline
 90
        3
 70
     0
 43
0.0
 10
6.926474767669542
 20
77.57426356365282
 10
6.946161090135895
 20
77.59394988611916
 10
6.946161090135895
 20
77.61363620858552
  0
LINE
  5
489
330
1E
100
AcDbEntity
  8
0
100
AcDbLine
 10
6.946161090135895
 20
77.61363620858552
 30
0.0
 11
6.946161090135895
 21
77.79081311078272
 31
0.0
  0
LINE
  5
48A
330
1E
100
AcDbEntity
  8
0
100
AcDbLine
 10
6.946161090135895
 20
77.79081311078272
 30
0.0
 11
6.906788445203171
 21
77.79081311078272
 31
0.0
  0
LINE
  5
48B
330
1E
100
AcDbEntity
  8
0
100
AcDbLine
 10
6.906788445203171
 20
77.79081311078272
 30
0.0
 11
6.906788445203171
 21
77.63332253105184
 31
0.0
  0
LINE
  5
48C
330
1E
100
AcDbEntity
  8
0
100
AcDbLine
 10
6.906788445203171
 20
77.63332253105184
 30
0.0
 11
6.887102122736818
 21
77.63332253105184
 31
0.0
  0
LINE
  5
48D
330
1E
100
AcDbEntity
  8
0
100
AcDbLine
 10
6.867415800270466
 20
77.63332253105184
 30
0.0
 11
6.887102122736818
 21
77.63332253105184
 31
0.0
  0
LINE
  5
48E
330
1E
100
AcDbEntity
  8
0
100
AcDbLine
 10
7.300514894530317
 20
77.79081311078272
 30
0.0
 11
7.320201216996688
 21
77.79081311078272
 31
0.0
  0
LINE
  5
48F
330
1E
100
AcDbEntity
  8
0
100
AcDbLine
 10
7.320201216996688
 20
77.77112678831639
 30
0.0
 11
7.320201216996688
 21
77.79081311078272
 31
0.0
  0
LINE
  5
490
330
1E
100
AcDbEntity
  8
0
100
AcDbLine
 10
7.300514894530317
 20
77.75144046585001
 30
0.0
 11
7.300514894530317
 21
77.79081311078272
 31
0.0
  0
LWPOLYLINE
  5
491
330
1E
100
AcDbEntity
  8
0
100
AcDbPolyline
 90
        7
 70
     0
 43
0.0
 10
7.320201216996689
 20
77.81049943324908
 10
7.280828572063965
 20
77.79081311078272
 10
7.280828572063965
 20
77.75144046585001
 10
7.320201216996689
 20
77.73175414338367
 10
7.33988753946304
 20
77.75144046585001
 10
7.33988753946304
 20
77.79081311078272
 10
7.320201216996689
 20
77.81049943324908
  0
LINE
  5
49A
330
1E
100
AcDbEntity
  8
0
100
AcDbLine
 10
5.528745872558169
 20
77.47583195132103
 30
0.0
 11
5.528745872558169
 21
77.96799001297995
 31
0.0
  0
LINE
  5
49B
330
1E
100
AcDbEntity
  8
0
100
AcDbLine
 10
7.398946506862118
 20
77.47583195132103
 30
0.0
 11
5.528745872558169
 21
77.47583195132103
 31
0.0
  0
LINE
  5
49C
330
1E
100
AcDbEntity
  8
0
100
AcDbLine
 10
7.398946506862118
 20
77.96799001297995
 30
0.0
 11
7.398946506862118
 21
77.47583195132103
 31
0.0
  0
LINE
  5
49D
330
1E
100
AcDbEntity
  8
0
100
AcDbLine
 10
5.528745872558169
 20
77.96799001297995
 30
0.0
 11
7.398946506862118
 21
77.96799001297995
 31
0.0
  0
LINE
  5
49E
330
1E
100
AcDbEntity
  8
0
100
AcDbLine
 10
5.548432195024521
 20
77.49551827378735
 30
0.0
 11
7.379260184395747
 21
77.49551827378735
 31
0.0
  0
LINE
  5
49F
330
1E
100
AcDbEntity
  8
0
100
AcDbLine
 10
7.379260184395747
 20
77.49551827378735
 30
0.0
 11
7.379260184395747
 21
77.96799001297995
 31
0.0
  0
LINE
  5
4A0
330
1E
100
AcDbEntity
  8
0
100
AcDbLine
 10
7.379260184395747
 20
77.96799001297995
 30
0.0
 11
5.548432195024521
 21
77.96799001297995
 31
0.0
  0
LINE
  5
4A1
330
1E
100
AcDbEntity
  8
0
100
AcDbLine
 10
5.548432195024521
 20
77.96799001297995
 30
0.0
 11
5.548432195024521
 21
77.49551827378735
 31
0.0
  0
LINE
  5
4A2
330
1E
100
AcDbEntity
  8
0
100
AcDbLine
 10
5.548432195024521
 20
77.49551827378735
 30
0.0
 11
5.528745872558169
 21
77.47583195132103
 31
0.0
  0
LINE
  5
4A3
330
1E
100
AcDbEntity
  8
0
100
AcDbLine
 10
5.528745872558169
 20
77.96799001297995
 30
0.0
 11
5.548432195024521
 21
77.96799001297995
 31
0.0
  0
LINE
  5
4A4
330
1E
100
AcDbEntity
  8
0
100
AcDbLine
 10
7.398946506862118
 20
77.96799001297995
 30
0.0
 11
7.379260184395747
 21
77.96799001297995
 31
0.0
  0
LINE
  5
4A5
330
1E
100
AcDbEntity
  8
0
100
AcDbLine
 10
7.379260184395747
 20
77.49551827378735
 30
0.0
 11
7.398946506862118
 21
77.47583195132103
 31
0.0
  0
LINE
  5
4A6
330
1E
100
AcDbEntity
  8
0
100
AcDbLine
 10
10.58813074641202
 20
88.30330930781755
 30
0.0
 11
10.58813074641202
 21
88.30330930781755
 31
0.0
  0
LINE
  5
4A7
330
1E
100
AcDbEntity
  8
0
100
AcDbLine
 10
10.82436661600831
 20
88.30330930781755
 30
0.0
 11
10.82436661600831
 21
88.30330930781755
 31
0.0
  0
LINE
  5
4A8
330
1E
100
AcDbEntity
  8
0
100
AcDbLine
 10
2.103325763412008
 20
88.30330930781755
 30
0.0
 11
2.103325763412008
 21
88.30330930781755
 31
0.0
  0
LINE
  5
4A9
330
1E
100
AcDbEntity
  8
0
100
AcDbLine
 10
2.359247955474648
 20
88.30330930781755
 30
0.0
 11
2.359247955474648
 21
88.30330930781755
 31
0.0
  0
LINE
  5
4AA
330
1E
100
AcDbEntity
  8
0
100
AcDbLine
 10
2.103325763412008
 20
88.30330930781755
 30
0.0
 11
2.103325763412008
 21
88.30330930781755
 31
0.0
  0
LINE
  5
4AB
330
1E
100
AcDbEntity
  8
0
100
AcDbLine
 10
5.961844966818038
 20
86.70871718804262
 30
0.0
 11
5.961844966818038
 21
86.70871718804262
 31
0.0
  0
LINE
  5
4AC
330
1E
100
AcDbEntity
  8
0
100
AcDbLine
 10
7.339887539463058
 20
86.70871718804262
 30
0.0
 11
7.339887539463058
 21
86.70871718804262
 31
0.0
  0
LINE
  5
4AD
330
1E
100
AcDbEntity
  8
0
100
AcDbLine
 10
7.280828572063982
 20
86.70871718804262
 30
0.0
 11
7.280828572063982
 21
86.70871718804262
 31
0.0
  0
LWPOLYLINE
  5
4AE
330
1E
100
AcDbEntity
  8
0
100
AcDbPolyline
 90
        3
 70
     0
 43
0.0
 10
10.60781706887838
 20
88.34268195275024
 10
10.58813074641203
 20
88.32299563028389
 10
10.58813074641203
 20
88.30330930781753
  0
LWPOLYLINE
  5
4B3
330
1E
100
AcDbEntity
  8
0
100
AcDbPolyline
 90
        3
 70
     0
 43
0.0
 10
10.82436661600831
 20
88.30330930781753
 10
10.82436661600831
 20
88.32299563028389
 10
10.80468029354194
 20
88.34268195275024
  0
LWPOLYLINE
  5
4B8
330
1E
100
AcDbEntity
  8
0
100
AcDbPolyline
 90
        3
 70
     0
 43
0.0
 10
2.12301208587836
 20
88.34268195275024
 10
2.103325763412008
 20
88.32299563028389
 10
2.103325763412008
 20
88.30330930781753
  0
LWPOLYLINE
  5
4BD
330
1E
100
AcDbEntity
  8
0
100
AcDbPolyline
 90
        3
 70
     0
 43
0.0
 10
2.359247955474649
 20
88.30330930781753
 10
2.339561633008296
 20
88.32299563028389
 10
2.319875310541942
 20
88.34268195275024
  0
LWPOLYLINE
  5
4C2
330
1E
100
AcDbEntity
  8
0
100
AcDbPolyline
 90
        3
 70
     0
 43
0.0
 10
2.12301208587836
 20
88.34268195275024
 10
2.103325763412008
 20
88.32299563028389
 10
2.103325763412008
 20
88.30330930781753
  0
LINE
  5
4C7
330
1E
100
AcDbEntity
  8
0
100
AcDbLine
 10
11.45432893493174
 20
88.30330930781755
 30
0.0
 11
10.47001281161387
 21
88.30330930781755
 31
0.0
  0
LINE
  5
4C8
330
1E
100
AcDbEntity
  8
0
100
AcDbLine
 10
11.45432893493174
 20
88.24425034041846
 30
0.0
 11
10.47001281161387
 21
88.24425034041846
 31
0.0
  0
LINE
  5
4C9
330
1E
100
AcDbEntity
  8
0
100
AcDbLine
 10
1.493049766954927
 20
88.30330930781755
 30
0.0
 11
2.45767956780643
 21
88.30330930781755
 31
0.0
  0
LINE
  5
4CA
330
1E
100
AcDbEntity
  8
0
100
AcDbLine
 10
1.493049766954927
 20
88.24425034041846
 30
0.0
 11
2.45767956780643
 21
88.24425034041846
 31
0.0
  0
LINE
  5
4CB
330
1E
100
AcDbEntity
  8
0
100
AcDbLine
 10
1.414304477089498
 20
87.37805215189874
 30
0.0
 11
1.414304477089498
 21
87.41742479683148
 31
0.0
  0
LWPOLYLINE
  5
4CC
330
1E
100
AcDbEntity
  8
0
100
AcDbPolyline
 90
        3
 70
     0
 43
0.0
 10
1.414304477089498
 20
87.41742479683148
 10
1.414304477089498
 20
87.47648376423054
 10
1.414304477089498
 20
87.53554273162963
  0
LINE
  5
4D1
330
1E
100
AcDbEntity
  8
0
100
AcDbLine
 10
1.414304477089498
 20
87.53554273162965
 30
0.0
 11
1.414304477089498
 21
88.20487769548577
 31
0.0
  0
LWPOLYLINE
  5
4D2
330
1E
100
AcDbEntity
  8
0
100
AcDbPolyline
 90
        3
 70
     0
 43
0.0
 10
1.453677122022221
 20
87.53554273162963
 10
1.453677122022221
 20
87.47648376423054
 10
1.453677122022221
 20
87.41742479683148
  0
LINE
  5
4D7
330
1E
100
AcDbEntity
  8
0
100
AcDbLine
 10
1.453677122022221
 20
87.37805215189874
 30
0.0
 11
1.453677122022221
 21
87.41742479683148
 31
0.0
  0
LINE
  5
4D8
330
1E
100
AcDbEntity
  8
0
100
AcDbLine
 10
1.453677122022221
 20
88.20487769548577
 30
0.0
 11
1.453677122022221
 21
87.53554273162965
 31
0.0
  0
LINE
  5
4D9
330
1E
100
AcDbEntity
  8
0
100
AcDbLine
 10
3.402623046191598
 20
86.72840351050894
 30
0.0
 11
1.453677122022221
 21
87.29930686203331
 31
0.0
  0
LINE
  5
4DA
330
1E
100
AcDbEntity
  8
0
100
AcDbLine
 10
3.402623046191598
 20
86.78746247790803
 30
0.0
 11
1.473363444488574
 21
87.33867950696604
 31
0.0
  0
LWPOLYLINE
  5
4DB
330
1E
100
AcDbEntity
  8
0
100
AcDbPolyline
 90
        3
 70
     0
 43
0.0
 10
1.453677122022221
 20
87.29930686203331
 10
1.414304477089498
 20
87.31899318449967
 10
1.414304477089498
 20
87.37805215189874
  0
LWPOLYLINE
  5
4E0
330
1E
100
AcDbEntity
  8
0
100
AcDbPolyline
 90
        3
 70
     0
 43
0.0
 10
1.473363444488575
 20
87.33867950696604
 10
1.453677122022221
 20
87.35836582943239
 10
1.453677122022221
 20
87.37805215189874
  0
LINE
  5
4E5
330
1E
100
AcDbEntity
  8
0
100
AcDbLine
 10
1.453677122022221
 20
87.41742479683148
 30
0.0
 11
1.414304477089498
 21
87.41742479683148
 31
0.0
  0
LINE
  5
4E6
330
1E
100
AcDbEntity
  8
0
100
AcDbLine
 10
1.414304477089498
 20
87.37805215189874
 30
0.0
 11
1.453677122022221
 21
87.37805215189874
 31
0.0
  0
LWPOLYLINE
  5
4E7
330
1E
100
AcDbEntity
  8
0
100
AcDbPolyline
 90
        3
 70
     0
 43
0.0
 10
11.53307422479717
 20
87.53554273162963
 10
11.53307422479717
 20
87.47648376423054
 10
11.53307422479717
 20
87.41742479683148
  0
LINE
  5
4EC
330
1E
100
AcDbEntity
  8
0
100
AcDbLine
 10
11.53307422479717
 20
87.37805215189874
 30
0.0
 11
11.53307422479717
 21
87.41742479683148
 31
0.0
  0
LINE
  5
4ED
330
1E
100
AcDbEntity
  8
0
100
AcDbLine
 10
11.53307422479717
 20
88.20487769548577
 30
0.0
 11
11.53307422479717
 21
87.53554273162965
 31
0.0
  0
LINE
  5
4EE
330
1E
100
AcDbEntity
  8
0
100
AcDbLine
 10
11.4740152573981
 20
87.37805215189874
 30
0.0
 11
11.4740152573981
 21
87.41742479683148
 31
0.0
  0
LWPOLYLINE
  5
4EF
330
1E
100
AcDbEntity
  8
0
100
AcDbPolyline
 90
        3
 70
     0
 43
0.0
 10
11.4740152573981
 20
87.41742479683148
 10
11.4740152573981
 20
87.47648376423054
 10
11.4740152573981
 20
87.53554273162963
  0
LINE
  5
4F4
330
1E
100
AcDbEntity
  8
0
100
AcDbLine
 10
11.4740152573981
 20
87.53554273162965
 30
0.0
 11
11.4740152573981
 21
88.20487769548577
 31
0.0
  0
LINE
  5
4F5
330
1E
100
AcDbEntity
  8
0
100
AcDbLine
 10
9.544755655695077
 20
86.72840351050894
 30
0.0
 11
11.4740152573981
 21
87.29930686203331
 31
0.0
  0
LINE
  5
4F6
330
1E
100
AcDbEntity
  8
0
100
AcDbLine
 10
9.525069333228723
 20
86.78746247790803
 30
0.0
 11
11.45432893493174
 21
87.33867950696604
 31
0.0
  0
LWPOLYLINE
  5
4F7
330
1E
100
AcDbEntity
  8
0
100
AcDbPolyline
 90
        3
 70
     0
 43
0.0
 10
11.4740152573981
 20
87.29930686203331
 10
11.5133879023308
 20
87.31899318449967
 10
11.53307422479717
 20
87.37805215189874
  0
LWPOLYLINE
  5
4FC
330
1E
100
AcDbEntity
  8
0
100
AcDbPolyline
 90
        3
 70
     0
 43
0.0
 10
11.45432893493174
 20
87.33867950696604
 10
11.4740152573981
 20
87.35836582943239
 10
11.4740152573981
 20
87.37805215189874
  0
LINE
  5
501
330
1E
100
AcDbEntity
  8
0
100
AcDbLine
 10
11.53307422479717
 20
87.41742479683148
 30
0.0
 11
11.4740152573981
 21
87.41742479683148
 31
0.0
  0
LINE
  5
502
330
1E
100
AcDbEntity
  8
0
100
AcDbLine
 10
11.53307422479717
 20
87.37805215189874
 30
0.0
 11
11.4740152573981
 21
87.37805215189874
 31
0.0
  0
LINE
  5
503
330
1E
100
AcDbEntity
  8
0
100
AcDbLine
 10
9.50538301076237
 20
86.72840351050894
 30
0.0
 11
3.422309368657951
 21
86.72840351050894
 31
0.0
  0
LINE
  5
504
330
1E
100
AcDbEntity
  8
0
100
AcDbLine
 10
9.50538301076237
 20
86.78746247790803
 30
0.0
 11
9.50538301076237
 21
86.72840351050894
 31
0.0
  0
LINE
  5
505
330
1E
100
AcDbEntity
  8
0
100
AcDbLine
 10
3.422309368657951
 20
86.78746247790803
 30
0.0
 11
9.50538301076237
 21
86.78746247790803
 31
0.0
  0
LINE
  5
506
330
1E
100
AcDbEntity
  8
0
100
AcDbLine
 10
3.422309368657951
 20
86.72840351050894
 30
0.0
 11
3.422309368657951
 21
86.78746247790803
 31
0.0
  0
LWPOLYLINE
  5
507
330
1E
100
AcDbEntity
  8
0
100
AcDbPolyline
 90
        3
 70
     0
 43
0.0
 10
9.505383010762374
 20
86.72840351050894
 10
9.525069333228724
 20
86.72840351050894
 10
9.544755655695077
 20
86.72840351050894
  0
LINE
  5
50C
330
1E
100
AcDbEntity
  8
0
100
AcDbLine
 10
9.544755655695077
 20
86.72840351050894
 30
0.0
 11
9.525069333228723
 21
86.78746247790803
 31
0.0
  0
LINE
  5
50D
330
1E
100
AcDbEntity
  8
0
100
AcDbLine
 10
9.50538301076237
 20
86.78746247790803
 30
0.0
 11
9.525069333228723
 21
86.78746247790803
 31
0.0
  0
LINE
  5
50E
330
1E
100
AcDbEntity
  8
0
100
AcDbLine
 10
11.4740152573981
 20
87.29930686203331
 30
0.0
 11
11.45432893493174
 21
87.33867950696604
 31
0.0
  0
LINE
  5
50F
330
1E
100
AcDbEntity
  8
0
100
AcDbLine
 10
11.4740152573981
 20
88.20487769548577
 30
0.0
 11
11.53307422479717
 21
88.20487769548577
 31
0.0
  0
LINE
  5
510
330
1E
100
AcDbEntity
  8
0
100
AcDbLine
 10
11.4740152573981
 20
87.53554273162965
 30
0.0
 11
11.53307422479717
 21
87.53554273162965
 31
0.0
  0
LWPOLYLINE
  5
511
330
1E
100
AcDbEntity
  8
0
100
AcDbPolyline
 90
        3
 70
     0
 43
0.0
 10
11.53307422479717
 20
88.20487769548575
 10
11.49370157986445
 20
88.26393666288481
 10
11.45432893493174
 20
88.30330930781753
  0
LINE
  5
516
330
1E
100
AcDbEntity
  8
0
100
AcDbLine
 10
11.45432893493174
 20
88.30330930781755
 30
0.0
 11
11.45432893493174
 21
88.24425034041846
 31
0.0
  0
LWPOLYLINE
  5
517
330
1E
100
AcDbEntity
  8
0
100
AcDbPolyline
 90
        3
 70
     0
 43
0.0
 10
11.4740152573981
 20
88.20487769548575
 10
11.4740152573981
 20
88.24425034041848
 10
11.45432893493174
 20
88.24425034041848
  0
LINE
  5
51C
330
1E
100
AcDbEntity
  8
0
100
AcDbLine
 10
10.47001281161387
 20
88.30330930781755
 30
0.0
 11
10.47001281161387
 21
88.24425034041846
 31
0.0
  0
LINE
  5
51D
330
1E
100
AcDbEntity
  8
0
100
AcDbLine
 10
3.422309368657951
 20
86.78746247790803
 30
0.0
 11
3.402623046191598
 21
86.78746247790803
 31
0.0
  0
LINE
  5
51E
330
1E
100
AcDbEntity
  8
0
100
AcDbLine
 10
3.402623046191598
 20
86.72840351050894
 30
0.0
 11
3.402623046191598
 21
86.78746247790803
 31
0.0
  0
LINE
  5
51F
330
1E
100
AcDbEntity
  8
0
100
AcDbLine
 10
3.422309368657951
 20
86.72840351050894
 30
0.0
 11
3.402623046191598
 21
86.72840351050894
 31
0.0
  0
LINE
  5
520
330
1E
100
AcDbEntity
  8
0
100
AcDbLine
 10
1.453677122022221
 20
87.29930686203331
 30
0.0
 11
1.473363444488574
 21
87.33867950696604
 31
0.0
  0
LINE
  5
521
330
1E
100
AcDbEntity
  8
0
100
AcDbLine
 10
1.453677122022221
 20
88.20487769548577
 30
0.0
 11
1.414304477089498
 21
88.20487769548577
 31
0.0
  0
LINE
  5
522
330
1E
100
AcDbEntity
  8
0
100
AcDbLine
 10
1.414304477089498
 20
87.53554273162965
 30
0.0
 11
1.453677122022221
 21
87.53554273162965
 31
0.0
  0
LWPOLYLINE
  5
523
330
1E
100
AcDbEntity
  8
0
100
AcDbPolyline
 90
        3
 70
     0
 43
0.0
 10
1.453677122022221
 20
88.20487769548575
 10
1.453677122022221
 20
88.24425034041848
 10
1.493049766954928
 20
88.24425034041848
  0
LINE
  5
528
330
1E
100
AcDbEntity
  8
0
100
AcDbLine
 10
1.493049766954927
 20
88.30330930781755
 30
0.0
 11
1.493049766954927
 21
88.24425034041846
 31
0.0
  0
LWPOLYLINE
  5
529
330
1E
100
AcDbEntity
  8
0
100
AcDbPolyline
 90
        3
 70
     0
 43
0.0
 10
1.414304477089498
 20
88.20487769548575
 10
1.43399079955585
 20
88.26393666288481
 10
1.493049766954928
 20
88.30330930781753
  0
LINE
  5
52E
330
1E
100
AcDbEntity
  8
0
100
AcDbLine
 10
2.45767956780643
 20
88.30330930781755
 30
0.0
 11
2.45767956780643
 21
88.24425034041846
 31
0.0
  0
LINE
  5
52F
330
1E
100
AcDbEntity
  8
0
100
AcDbLine
 10
10.90311190587374
 20
88.0473871157549
 30
0.0
 11
10.92279822834009
 21
88.0473871157549
 31
0.0
  0
LINE
  5
530
330
1E
100
AcDbEntity
  8
0
100
AcDbLine
 10
11.21809306533545
 20
88.0473871157549
 30
0.0
 11
11.21809306533545
 21
88.0473871157549
 31
0.0
  0
LINE
  5
531
330
1E
100
AcDbEntity
  8
0
100
AcDbLine
 10
11.21809306533545
 20
88.0473871157549
 30
0.0
 11
11.21809306533545
 21
88.0473871157549
 31
0.0
  0
LINE
  5
532
330
1E
100
AcDbEntity
  8
0
100
AcDbLine
 10
11.21809306533545
 20
88.0473871157549
 30
0.0
 11
11.21809306533545
 21
88.02770079328851
 31
0.0
  0
LINE
  5
533
330
1E
100
AcDbEntity
  8
0
100
AcDbLine
 10
11.21809306533545
 20
88.02770079328851
 30
0.0
 11
11.21809306533545
 21
88.02770079328851
 31
0.0
  0
LINE
  5
534
330
1E
100
AcDbEntity
  8
0
100
AcDbLine
 10
10.92279822834009
 20
88.02770079328851
 30
0.0
 11
10.90311190587374
 21
88.02770079328851
 31
0.0
  0
LINE
  5
535
330
1E
100
AcDbEntity
  8
0
100
AcDbLine
 10
1.709599314084861
 20
88.0473871157549
 30
0.0
 11
1.709599314084861
 21
88.0473871157549
 31
0.0
  0
LINE
  5
536
330
1E
100
AcDbEntity
  8
0
100
AcDbLine
 10
1.709599314084861
 20
88.0473871157549
 30
0.0
 11
1.709599314084861
 21
88.0473871157549
 31
0.0
  0
LINE
  5
537
330
1E
100
AcDbEntity
  8
0
100
AcDbLine
 10
2.004894151080225
 20
88.0473871157549
 30
0.0
 11
2.024580473546579
 21
88.0473871157549
 31
0.0
  0
LINE
  5
538
330
1E
100
AcDbEntity
  8
0
100
AcDbLine
 10
1.709599314084861
 20
88.02770079328851
 30
0.0
 11
1.709599314084861
 21
88.0473871157549
 31
0.0
  0
LINE
  5
539
330
1E
100
AcDbEntity
  8
0
100
AcDbLine
 10
2.024580473546579
 20
88.02770079328851
 30
0.0
 11
2.004894151080225
 21
88.02770079328851
 31
0.0
  0
LINE
  5
53A
330
1E
100
AcDbEntity
  8
0
100
AcDbLine
 10
1.709599314084861
 20
88.02770079328851
 30
0.0
 11
1.709599314084861
 21
88.02770079328851
 31
0.0
  0
LINE
  5
53B
330
1E
100
AcDbEntity
  8
0
100
AcDbLine
 10
1.650540346685785
 20
87.41742479683148
 30
0.0
 11
5.21376471309647
 21
87.41742479683148
 31
0.0
  0
LINE
  5
53C
330
1E
100
AcDbEntity
  8
0
100
AcDbLine
 10
2.45767956780643
 20
88.24425034041846
 30
0.0
 11
10.47001281161387
 21
88.24425034041846
 31
0.0
  0
LWPOLYLINE
  5
53D
330
1E
100
AcDbEntity
  8
0
100
AcDbPolyline
 90
       15
 70
     0
 43
0.0
 10
11.23777938780181
 20
87.96864182588945
 10
11.21809306533546
 20
88.04738711575492
 10
11.17872042040273
 20
88.10644608315397
 10
11.0999751305373
 20
88.14581872808666
 10
11.02122984067188
 20
88.14581872808666
 10
10.9621708732728
 20
88.10644608315397
 10
10.92279822834009
 20
88.04738711575492
 10
10.90311190587374
 20
87.96864182588945
 10
10.92279822834009
 20
87.90958285849042
 10
10.9621708732728
 20
87.85052389109134
 10
11.02122984067188
 20
87.8111512461586
 10
11.0999751305373
 20
87.8111512461586
 10
11.17872042040273
 20
87.85052389109134
 10
11.21809306533546
 20
87.90958285849042
 10
11.23777938780181
 20
87.96864182588945
  0
LWPOLYLINE
  5
54E
330
1E
100
AcDbEntity
  8
0
100
AcDbPolyline
 90
       15
 70
     0
 43
0.0
 10
1.689912991618509
 20
87.96864182588945
 10
1.709599314084862
 20
88.04738711575492
 10
1.748971959017568
 20
88.10644608315397
 10
1.827717248882997
 20
88.14581872808666
 10
1.906462538748426
 20
88.14581872808666
 10
1.965521506147502
 20
88.10644608315397
 10
2.024580473546579
 20
88.04738711575492
 10
2.044266796012931
 20
87.96864182588945
 10
2.024580473546579
 20
87.90958285849042
 10
1.965521506147502
 20
87.85052389109134
 10
1.906462538748426
 20
87.8111512461586
 10
1.827717248882997
 20
87.8111512461586
 10
1.748971959017568
 20
87.85052389109134
 10
1.709599314084862
 20
87.90958285849042
 10
1.689912991618509
 20
87.96864182588945
  0
LWPOLYLINE
  5
55F
330
1E
100
AcDbEntity
  8
0
100
AcDbPolyline
 90
        3
 70
     0
 43
0.0
 10
1.493049766954928
 20
88.24425034041848
 10
1.493049766954928
 20
88.22456401795212
 10
1.493049766954928
 20
88.16550505055305
  0
LWPOLYLINE
  5
564
330
1E
100
AcDbEntity
  8
0
100
AcDbPolyline
 90
        3
 70
     0
 43
0.0
 10
11.43464261246537
 20
88.24425034041848
 10
11.43464261246537
 20
88.22456401795212
 10
11.43464261246537
 20
88.16550505055305
  0
LINE
  5
569
330
1E
100
AcDbEntity
  8
0
100
AcDbLine
 10
1.493049766954927
 20
88.16550505055307
 30
0.0
 11
11.43464261246537
 21
88.16550505055307
 31
0.0
  0
LINE
  5
56A
330
1E
100
AcDbEntity
  8
0
100
AcDbLine
 10
1.493049766954927
 20
88.16550505055307
 30
0.0
 11
1.493049766954927
 21
87.55522905409597
 31
0.0
  0
LINE
  5
56B
330
1E
100
AcDbEntity
  8
0
100
AcDbLine
 10
11.43464261246537
 20
88.16550505055307
 30
0.0
 11
11.43464261246537
 21
87.55522905409597
 31
0.0
  0
LWPOLYLINE
  5
56C
330
1E
100
AcDbEntity
  8
0
100
AcDbPolyline
 90
       16
 70
     0
 43
0.0
 10
11.25746571026816
 20
87.96864182588945
 10
11.23777938780181
 20
88.04738711575492
 10
11.19840674286908
 20
88.10644608315397
 10
11.11966145300365
 20
88.14581872808666
 10
11.04091616313823
 20
88.16550505055305
 10
10.98185719573917
 20
88.14581872808666
 10
10.92279822834009
 20
88.08675976068762
 10
10.88342558340737
 20
88.00801447082218
 10
10.88342558340737
 20
87.92926918095675
 10
10.92279822834009
 20
87.87021021355769
 10
10.98185719573917
 20
87.8111512461586
 10
11.04091616313823
 20
87.79146492369225
 10
11.11966145300365
 20
87.79146492369225
 10
11.19840674286908
 20
87.83083756862495
 10
11.23777938780181
 20
87.90958285849042
 10
11.25746571026816
 20
87.96864182588945
  0
LWPOLYLINE
  5
57E
330
1E
100
AcDbEntity
  8
0
100
AcDbPolyline
 90
       16
 70
     0
 43
0.0
 10
1.670226669152139
 20
87.96864182588945
 10
1.689912991618509
 20
88.04738711575492
 10
1.729285636551215
 20
88.10644608315397
 10
1.808030926416645
 20
88.14581872808666
 10
1.886776216282073
 20
88.16550505055305
 10
1.965521506147502
 20
88.14581872808666
 10
2.004894151080226
 20
88.08675976068762
 10
2.044266796012931
 20
88.00801447082218
 10
2.044266796012931
 20
87.92926918095675
 10
2.004894151080226
 20
87.87021021355769
 10
1.965521506147502
 20
87.8111512461586
 10
1.886776216282073
 20
87.79146492369225
 10
1.808030926416645
 20
87.79146492369225
 10
1.729285636551215
 20
87.83083756862495
 10
1.689912991618509
 20
87.90958285849042
 10
1.670226669152139
 20
87.96864182588945
  0
LINE
  5
590
330
1E
100
AcDbEntity
  8
0
100
AcDbLine
 10
1.493049766954927
 20
87.55522905409597
 30
0.0
 11
1.650540346685785
 21
87.41742479683148
 31
0.0
  0
LINE
  5
591
330
1E
100
AcDbEntity
  8
0
100
AcDbLine
 10
5.21376471309647
 20
87.41742479683148
 30
0.0
 11
5.21376471309647
 21
86.86620776777344
 31
0.0
  0
LINE
  5
592
330
1E
100
AcDbEntity
  8
0
100
AcDbLine
 10
7.713927666323851
 20
86.86620776777344
 30
0.0
 11
5.21376471309647
 21
86.86620776777344
 31
0.0
  0
LINE
  5
593
330
1E
100
AcDbEntity
  8
0
100
AcDbLine
 10
7.713927666323851
 20
87.41742479683148
 30
0.0
 11
7.713927666323851
 21
86.86620776777344
 31
0.0
  0
LINE
  5
594
330
1E
100
AcDbEntity
  8
0
100
AcDbLine
 10
7.713927666323851
 20
87.41742479683148
 30
0.0
 11
11.27715203273451
 21
87.41742479683148
 31
0.0
  0
LINE
  5
595
330
1E
100
AcDbEntity
  8
0
100
AcDbLine
 10
11.27715203273451
 20
87.41742479683148
 30
0.0
 11
11.43464261246537
 21
87.55522905409597
 31
0.0
  0
LWPOLYLINE
  5
596
330
1E
100
AcDbEntity
  8
0
100
AcDbPolyline
 90
        3
 70
     0
 43
0.0
 10
7.713927666323852
 20
86.86620776777346
 10
7.713927666323852
 20
86.8465214453071
 10
7.713927666323852
 20
86.82683512284075
  0
LWPOLYLINE
  5
59B
330
1E
100
AcDbEntity
  8
0
100
AcDbPolyline
 90
        3
 70
     0
 43
0.0
 10
5.21376471309647
 20
86.86620776777346
 10
5.21376471309647
 20
86.8465214453071
 10
5.21376471309647
 20
86.82683512284075
  0
LINE
  5
5A0
330
1E
100
AcDbEntity
  8
0
100
AcDbLine
 10
7.713927666323851
 20
86.82683512284077
 30
0.0
 11
7.713927666323851
 21
86.78746247790803
 31
0.0
  0
LINE
  5
5A1
330
1E
100
AcDbEntity
  8
0
100
AcDbLine
 10
5.21376471309647
 20
86.78746247790803
 30
0.0
 11
5.21376471309647
 21
86.82683512284077
 31
0.0
  0
LINE
  5
5A2
330
1E
100
AcDbEntity
  8
0
100
AcDbLine
 10
5.21376471309647
 20
86.82683512284077
 30
0.0
 11
7.713927666323851
 21
86.82683512284077
 31
0.0
  0
LINE
  5
5A3
330
1E
100
AcDbEntity
  8
0
100
AcDbLine
 10
10.52907177901295
 20
87.24024789463427
 30
0.0
 11
10.94248455080645
 21
87.24024789463427
 31
0.0
  0
LINE
  5
5A4
330
1E
100
AcDbEntity
  8
0
100
AcDbLine
 10
4.623175039105742
 20
86.8071488003744
 30
0.0
 11
4.623175039105742
 21
87.35836582943239
 31
0.0
  0
LINE
  5
5A5
330
1E
100
AcDbEntity
  8
0
100
AcDbLine
 10
4.623175039105742
 20
86.8071488003744
 30
0.0
 11
5.21376471309647
 21
86.8071488003744
 31
0.0
  0
LINE
  5
5A6
330
1E
100
AcDbEntity
  8
0
100
AcDbLine
 10
7.713927666323851
 20
86.8071488003744
 30
0.0
 11
8.324203662780934
 21
86.8071488003744
 31
0.0
  0
LINE
  5
5A7
330
1E
100
AcDbEntity
  8
0
100
AcDbLine
 10
8.324203662780934
 20
87.35836582943239
 30
0.0
 11
8.324203662780934
 21
86.8071488003744
 31
0.0
  0
LINE
  5
5A8
330
1E
100
AcDbEntity
  8
0
100
AcDbLine
 10
8.56043953237722
 20
87.35836582943239
 30
0.0
 11
8.324203662780934
 21
87.35836582943239
 31
0.0
  0
LINE
  5
5A9
330
1E
100
AcDbEntity
  8
0
100
AcDbLine
 10
8.56043953237722
 20
87.24024789463427
 30
0.0
 11
8.56043953237722
 21
87.35836582943239
 31
0.0
  0
LINE
  5
5AA
330
1E
100
AcDbEntity
  8
0
100
AcDbLine
 10
8.56043953237722
 20
87.24024789463427
 30
0.0
 11
10.52907177901295
 21
87.24024789463427
 31
0.0
  0
LINE
  5
5AB
330
1E
100
AcDbEntity
  8
0
100
AcDbLine
 10
10.94248455080645
 20
87.24024789463427
 30
0.0
 11
11.43464261246537
 21
87.37805215189874
 31
0.0
  0
LINE
  5
5AC
330
1E
100
AcDbEntity
  8
0
100
AcDbLine
 10
11.43464261246537
 20
87.37805215189874
 30
0.0
 11
11.43464261246537
 21
87.55522905409597
 31
0.0
  0
LINE
  5
5AD
330
1E
100
AcDbEntity
  8
0
100
AcDbLine
 10
1.493049766954927
 20
87.37805215189874
 30
0.0
 11
1.493049766954927
 21
88.24425034041846
 31
0.0
  0
LINE
  5
5AE
330
1E
100
AcDbEntity
  8
0
100
AcDbLine
 10
1.493049766954927
 20
87.37805215189874
 30
0.0
 11
1.985207828613855
 21
87.24024789463427
 31
0.0
  0
LINE
  5
5AF
330
1E
100
AcDbEntity
  8
0
100
AcDbLine
 10
1.985207828613855
 20
87.24024789463427
 30
0.0
 11
2.398620600407372
 21
87.24024789463427
 31
0.0
  0
LINE
  5
5B0
330
1E
100
AcDbEntity
  8
0
100
AcDbLine
 10
4.367252847043102
 20
87.24024789463427
 30
0.0
 11
2.398620600407372
 21
87.24024789463427
 31
0.0
  0
LINE
  5
5B1
330
1E
100
AcDbEntity
  8
0
100
AcDbLine
 10
4.367252847043102
 20
87.35836582943239
 30
0.0
 11
4.367252847043102
 21
87.24024789463427
 31
0.0
  0
LINE
  5
5B2
330
1E
100
AcDbEntity
  8
0
100
AcDbLine
 10
4.623175039105742
 20
87.35836582943239
 30
0.0
 11
4.367252847043102
 21
87.35836582943239
 31
0.0
  0
LWPOLYLINE
  5
5B3
330
1E
100
AcDbEntity
  8
0
100
AcDbPolyline
 90
        5
 70
     0
 43
0.0
 10
11.21809306533546
 20
88.04738711575492
 10
11.23777938780181
 20
87.96864182588945
 10
11.21809306533546
 20
87.88989653602405
 10
11.15903409793638
 20
87.83083756862495
 10
11.0606024856046
 20
87.8111512461586
  0
LWPOLYLINE
  5
5BA
330
1E
100
AcDbEntity
  8
0
100
AcDbPolyline
 90
        5
 70
     0
 43
0.0
 10
2.024580473546579
 20
88.02770079328853
 10
2.024580473546579
 20
87.9489555034231
 10
2.004894151080226
 20
87.87021021355769
 10
1.945835183681149
 20
87.83083756862495
 10
1.86708989381572
 20
87.8111512461586
  0
LWPOLYLINE
  5
5C1
330
1E
100
AcDbEntity
  8
0
100
AcDbPolyline
 90
        3
 70
     0
 43
0.0
 10
8.56043953237722
 20
87.24024789463426
 10
8.56043953237722
 20
87.18118892723516
 10
8.56043953237722
 20
87.16150260476881
  0
LWPOLYLINE
  5
5C6
330
1E
100
AcDbEntity
  8
0
100
AcDbPolyline
 90
        3
 70
     0
 43
0.0
 10
10.52907177901295
 20
87.24024789463426
 10
10.52907177901295
 20
87.18118892723516
 10
10.52907177901295
 20
87.16150260476881
  0
LINE
  5
5CB
330
1E
100
AcDbEntity
  8
0
100
AcDbLine
 10
8.56043953237722
 20
87.16150260476883
 30
0.0
 11
10.52907177901295
 21
87.16150260476883
 31
0.0
  0
LINE
  5
5CC
330
1E
100
AcDbEntity
  8
0
100
AcDbLine
 10
10.52907177901295
 20
87.16150260476883
 30
0.0
 11
10.62750339134473
 21
87.16150260476883
 31
0.0
  0
LINE
  5
5CD
330
1E
100
AcDbEntity
  8
0
100
AcDbLine
 10
10.52907177901295
 20
87.22056157216792
 30
0.0
 11
10.62750339134473
 21
87.22056157216792
 31
0.0
  0
LINE
  5
5CE
330
1E
100
AcDbEntity
  8
0
100
AcDbLine
 10
10.62750339134473
 20
87.22056157216792
 30
0.0
 11
10.62750339134473
 21
87.16150260476883
 31
0.0
  0
LWPOLYLINE
  5
5CF
330
1E
100
AcDbEntity
  8
0
100
AcDbPolyline
 90
        3
 70
     0
 43
0.0
 10
10.62750339134473
 20
87.16150260476881
 10
10.6865623587438
 20
87.18118892723516
 10
10.70624868121016
 20
87.24024789463426
  0
LWPOLYLINE
  5
5D4
330
1E
100
AcDbEntity
  8
0
100
AcDbPolyline
 90
        3
 70
     0
 43
0.0
 10
10.62750339134473
 20
87.2205615721679
 10
10.64718971381108
 20
87.2205615721679
 10
10.64718971381108
 20
87.24024789463426
  0
LWPOLYLINE
  5
5D9
330
1E
100
AcDbEntity
  8
0
100
AcDbPolyline
 90
        3
 70
     0
 43
0.0
 10
4.367252847043102
 20
87.24024789463426
 10
4.367252847043102
 20
87.18118892723516
 10
4.367252847043102
 20
87.16150260476881
  0
LWPOLYLINE
  5
5DE
330
1E
100
AcDbEntity
  8
0
100
AcDbPolyline
 90
        3
 70
     0
 43
0.0
 10
2.398620600407372
 20
87.24024789463426
 10
2.398620600407372
 20
87.18118892723516
 10
2.398620600407372
 20
87.16150260476881
  0
LINE
  5
5E3
330
1E
100
AcDbEntity
  8
0
100
AcDbLine
 10
4.367252847043102
 20
87.16150260476883
 30
0.0
 11
2.398620600407372
 21
87.16150260476883
 31
0.0
  0
LINE
  5
5E4
330
1E
100
AcDbEntity
  8
0
100
AcDbLine
 10
2.398620600407372
 20
87.16150260476883
 30
0.0
 11
2.300188988075571
 21
87.16150260476883
 31
0.0
  0
LINE
  5
5E5
330
1E
100
AcDbEntity
  8
0
100
AcDbLine
 10
2.398620600407372
 20
87.22056157216792
 30
0.0
 11
2.300188988075571
 21
87.22056157216792
 31
0.0
  0
LINE
  5
5E6
330
1E
100
AcDbEntity
  8
0
100
AcDbLine
 10
2.300188988075571
 20
87.22056157216792
 30
0.0
 11
2.300188988075571
 21
87.16150260476883
 31
0.0
  0
LWPOLYLINE
  5
5E7
330
1E
100
AcDbEntity
  8
0
100
AcDbPolyline
 90
        3
 70
     0
 43
0.0
 10
2.300188988075571
 20
87.2205615721679
 10
2.280502665609219
 20
87.2205615721679
 10
2.280502665609219
 20
87.24024789463426
  0
LWPOLYLINE
  5
5EC
330
1E
100
AcDbEntity
  8
0
100
AcDbPolyline
 90
        3
 70
     0
 43
0.0
 10
2.300188988075571
 20
87.16150260476881
 10
2.260816343142866
 20
87.18118892723516
 10
2.221443698210143
 20
87.24024789463426
  0
LWPOLYLINE
  5
5F1
330
1E
100
AcDbEntity
  8
0
100
AcDbPolyline
 90
        6
 70
     0
 43
0.0
 10
2.12301208587836
 20
88.34268195275024
 10
2.142698408344714
 20
88.34268195275024
 10
2.20175737574379
 20
88.34268195275024
 10
2.260816343142866
 20
88.34268195275024
 10
2.300188988075571
 20
88.34268195275024
 10
2.319875310541942
 20
88.34268195275024
  0
LWPOLYLINE
  5
5F9
330
1E
100
AcDbEntity
  8
0
100
AcDbPolyline
 90
        4
 70
     0
 43
0.0
 10
2.221443698210143
 20
88.30330930781753
 10
2.162384730811084
 20
88.30330930781753
 10
2.12301208587836
 20
88.30330930781753
 10
2.103325763412008
 20
88.30330930781753
  0
LWPOLYLINE
  5
5FF
330
1E
100
AcDbEntity
  8
0
100
AcDbPolyline
 90
        4
 70
     0
 43
0.0
 10
2.359247955474649
 20
88.30330930781753
 10
2.339561633008296
 20
88.30330930781753
 10
2.280502665609219
 20
88.30330930781753
 10
2.221443698210143
 20
88.30330930781753
  0
LWPOLYLINE
  5
605
330
1E
100
AcDbEntity
  8
0
100
AcDbPolyline
 90
        6
 70
     0
 43
0.0
 10
10.60781706887838
 20
88.34268195275024
 10
10.62750339134473
 20
88.34268195275024
 10
10.66687603627745
 20
88.34268195275024
 10
10.72593500367651
 20
88.34268195275024
 10
10.78499397107558
 20
88.34268195275024
 10
10.80468029354194
 20
88.34268195275024
  0
LWPOLYLINE
  5
60D
330
1E
100
AcDbEntity
  8
0
100
AcDbPolyline
 90
        3
 70
     0
 43
0.0
 10
10.70624868121016
 20
88.30330930781753
 10
10.64718971381108
 20
88.30330930781753
 10
10.58813074641203
 20
88.30330930781753
  0
LWPOLYLINE
  5
612
330
1E
100
AcDbEntity
  8
0
100
AcDbPolyline
 90
        4
 70
     0
 43
0.0
 10
10.82436661600831
 20
88.30330930781753
 10
10.80468029354194
 20
88.30330930781753
 10
10.76530764860923
 20
88.30330930781753
 10
10.70624868121016
 20
88.30330930781753
  0
LWPOLYLINE
  5
618
330
1E
100
AcDbEntity
  8
0
100
AcDbPolyline
 90
        7
 70
     0
 43
0.0
 10
11.0999751305373
 20
87.96864182588945
 10
11.08028880807095
 20
88.00801447082218
 10
11.04091616313823
 20
88.00801447082218
 10
11.04091616313823
 20
87.96864182588945
 10
11.04091616313823
 20
87.9489555034231
 10
11.08028880807095
 20
87.9489555034231
 10
11.0999751305373
 20
87.96864182588945
  0
LWPOLYLINE
  5
621
330
1E
100
AcDbEntity
  8
0
100
AcDbPolyline
 90
       14
 70
     0
 43
0.0
 10
10.90311190587374
 20
87.96864182588945
 10
10.92279822834009
 20
88.04738711575492
 10
10.98185719573917
 20
88.10644608315397
 10
11.04091616313823
 20
88.12613240562031
 10
11.11966145300365
 20
88.12613240562031
 10
11.17872042040273
 20
88.08675976068762
 10
11.21809306533546
 20
88.00801447082218
 10
11.21809306533546
 20
87.9489555034231
 10
11.17872042040273
 20
87.87021021355769
 10
11.11966145300365
 20
87.83083756862495
 10
11.04091616313823
 20
87.83083756862495
 10
10.98185719573917
 20
87.85052389109134
 10
10.92279822834009
 20
87.90958285849042
 10
10.90311190587374
 20
87.96864182588945
  0
LWPOLYLINE
  5
631
330
1E
100
AcDbEntity
  8
0
100
AcDbPolyline
 90
       10
 70
     0
 43
0.0
 10
11.00154351820552
 20
87.96864182588945
 10
11.02122984067188
 20
88.02770079328853
 10
11.0606024856046
 20
88.04738711575492
 10
11.0999751305373
 20
88.04738711575492
 10
11.13934777547002
 20
88.00801447082218
 10
11.13934777547002
 20
87.9489555034231
 10
11.0999751305373
 20
87.90958285849042
 10
11.0606024856046
 20
87.90958285849042
 10
11.02122984067188
 20
87.92926918095675
 10
11.00154351820552
 20
87.96864182588945
  0
LWPOLYLINE
  5
63D
330
1E
100
AcDbEntity
  8
0
100
AcDbPolyline
 90
       14
 70
     0
 43
0.0
 10
11.21809306533546
 20
87.96864182588945
 10
11.19840674286908
 20
88.04738711575492
 10
11.13934777547002
 20
88.08675976068762
 10
11.08028880807095
 20
88.12613240562031
 10
11.02122984067188
 20
88.10644608315397
 10
10.9621708732728
 20
88.06707343822127
 10
10.92279822834009
 20
88.00801447082218
 10
10.92279822834009
 20
87.9489555034231
 10
10.9621708732728
 20
87.88989653602405
 10
11.02122984067188
 20
87.85052389109134
 10
11.08028880807095
 20
87.83083756862495
 10
11.13934777547002
 20
87.85052389109134
 10
11.19840674286908
 20
87.90958285849042
 10
11.21809306533546
 20
87.96864182588945
  0
LWPOLYLINE
  5
64D
330
1E
100
AcDbEntity
  8
0
100
AcDbPolyline
 90
        7
 70
     0
 43
0.0
 10
1.906462538748426
 20
87.96864182588945
 10
1.886776216282073
 20
88.00801447082218
 10
1.847403571349368
 20
88.00801447082218
 10
1.827717248882997
 20
87.96864182588945
 10
1.847403571349368
 20
87.9489555034231
 10
1.886776216282073
 20
87.9489555034231
 10
1.906462538748426
 20
87.96864182588945
  0
LWPOLYLINE
  5
656
330
1E
100
AcDbEntity
  8
0
100
AcDbPolyline
 90
       14
 70
     0
 43
0.0
 10
1.709599314084862
 20
87.96864182588945
 10
1.729285636551215
 20
88.04738711575492
 10
1.768658281483938
 20
88.10644608315397
 10
1.847403571349368
 20
88.12613240562031
 10
1.926148861214796
 20
88.12613240562031
 10
1.985207828613856
 20
88.08675976068762
 10
2.004894151080226
 20
88.00801447082218
 10
2.004894151080226
 20
87.9489555034231
 10
1.985207828613856
 20
87.87021021355769
 10
1.926148861214796
 20
87.83083756862495
 10
1.847403571349368
 20
87.83083756862495
 10
1.768658281483938
 20
87.85052389109134
 10
1.729285636551215
 20
87.90958285849042
 10
1.709599314084862
 20
87.96864182588945
  0
LWPOLYLINE
  5
666
330
1E
100
AcDbEntity
  8
0
100
AcDbPolyline
 90
       10
 70
     0
 43
0.0
 10
1.788344603950291
 20
87.96864182588945
 10
1.808030926416645
 20
88.02770079328853
 10
1.847403571349368
 20
88.04738711575492
 10
1.906462538748426
 20
88.04738711575492
 10
1.926148861214796
 20
88.00801447082218
 10
1.926148861214796
 20
87.9489555034231
 10
1.906462538748426
 20
87.90958285849042
 10
1.847403571349368
 20
87.90958285849042
 10
1.808030926416645
 20
87.92926918095675
 10
1.788344603950291
 20
87.96864182588945
  0
LWPOLYLINE
  5
672
330
1E
100
AcDbEntity
  8
0
100
AcDbPolyline
 90
       14
 70
     0
 43
0.0
 10
2.004894151080226
 20
87.96864182588945
 10
1.985207828613856
 20
88.04738711575492
 10
1.945835183681149
 20
88.08675976068762
 10
1.886776216282073
 20
88.12613240562031
 10
1.808030926416645
 20
88.10644608315397
 10
1.748971959017568
 20
88.06707343822127
 10
1.729285636551215
 20
88.00801447082218
 10
1.729285636551215
 20
87.9489555034231
 10
1.748971959017568
 20
87.88989653602405
 10
1.808030926416645
 20
87.85052389109134
 10
1.886776216282073
 20
87.83083756862495
 10
1.945835183681149
 20
87.85052389109134
 10
1.985207828613856
 20
87.90958285849042
 10
2.004894151080226
 20
87.96864182588945
  0
LWPOLYLINE
  5
682
330
1E
100
AcDbEntity
  8
0
100
AcDbPolyline
 90
        3
 70
     0
 43
0.0
 10
1.493049766954928
 20
88.1851913730194
 10
1.473363444488575
 20
88.16550505055305
 10
1.473363444488575
 20
88.12613240562031
  0
LINE
  5
687
330
1E
100
AcDbEntity
  8
0
100
AcDbLine
 10
1.473363444488574
 20
88.12613240562033
 30
0.0
 11
1.473363444488574
 21
88.12613240562033
 31
0.0
  0
LWPOLYLINE
  5
688
330
1E
100
AcDbEntity
  8
0
100
AcDbPolyline
 90
        3
 70
     0
 43
0.0
 10
1.493049766954928
 20
88.1851913730194
 10
1.473363444488575
 20
88.14581872808666
 10
1.473363444488575
 20
88.12613240562031
  0
LINE
  5
68D
330
1E
100
AcDbEntity
  8
0
100
AcDbLine
 10
1.473363444488574
 20
88.12613240562033
 30
0.0
 11
1.473363444488574
 21
87.33867950696604
 31
0.0
  0
LINE
  5
68E
330
1E
100
AcDbEntity
  8
0
100
AcDbLine
 10
1.473363444488574
 20
87.279620539567
 30
0.0
 11
1.473363444488574
 21
87.279620539567
 31
0.0
  0
LINE
  5
68F
330
1E
100
AcDbEntity
  8
0
100
AcDbLine
 10
1.473363444488574
 20
87.279620539567
 30
0.0
 11
1.473363444488574
 21
87.279620539567
 31
0.0
  0
LINE
  5
690
330
1E
100
AcDbEntity
  8
0
100
AcDbLine
 10
1.473363444488574
 20
87.279620539567
 30
0.0
 11
1.473363444488574
 21
87.279620539567
 31
0.0
  0
LINE
  5
691
330
1E
100
AcDbEntity
  8
0
100
AcDbLine
 10
1.473363444488574
 20
87.33867950696604
 30
0.0
 11
1.473363444488574
 21
88.12613240562033
 31
0.0
  0
LWPOLYLINE
  5
692
330
1E
100
AcDbEntity
  8
0
100
AcDbPolyline
 90
        3
 70
     0
 43
0.0
 10
2.20175737574379
 20
87.063070992437
 10
2.221443698210143
 20
87.063070992437
 10
2.221443698210143
 20
87.04338466997066
  0
LINE
  5
697
330
1E
100
AcDbEntity
  8
0
100
AcDbLine
 10
2.221443698210142
 20
87.04338466997066
 30
0.0
 11
2.241130020676513
 21
87.06307099243701
 31
0.0
  0
LINE
  5
698
330
1E
100
AcDbEntity
  8
0
100
AcDbLine
 10
2.241130020676513
 20
87.06307099243701
 30
0.0
 11
2.182071053277437
 21
87.06307099243701
 31
0.0
  0
LINE
  5
699
330
1E
100
AcDbEntity
  8
0
100
AcDbLine
 10
2.182071053277437
 20
87.06307099243701
 30
0.0
 11
2.182071053277437
 21
87.06307099243701
 31
0.0
  0
LINE
  5
69A
330
1E
100
AcDbEntity
  8
0
100
AcDbLine
 10
2.182071053277437
 20
87.06307099243701
 30
0.0
 11
1.473363444488574
 21
87.279620539567
 31
0.0
  0
LINE
  5
69B
330
1E
100
AcDbEntity
  8
0
100
AcDbLine
 10
1.473363444488574
 20
87.279620539567
 30
0.0
 11
1.453677122022221
 21
87.279620539567
 31
0.0
  0
LINE
  5
69C
330
1E
100
AcDbEntity
  8
0
100
AcDbLine
 10
1.453677122022221
 20
87.279620539567
 30
0.0
 11
1.453677122022221
 21
87.279620539567
 31
0.0
  0
LINE
  5
69D
330
1E
100
AcDbEntity
  8
0
100
AcDbLine
 10
1.453677122022221
 20
87.279620539567
 30
0.0
 11
2.20175737574379
 21
87.06307099243701
 31
0.0
  0
LINE
  5
69E
330
1E
100
AcDbEntity
  8
0
100
AcDbLine
 10
1.394618154623145
 20
87.35836582943239
 30
0.0
 11
1.394618154623145
 21
87.35836582943239
 31
0.0
  0
LWPOLYLINE
  5
69F
330
1E
100
AcDbEntity
  8
0
100
AcDbPolyline
 90
        3
 70
     0
 43
0.0
 10
1.394618154623145
 20
87.35836582943239
 10
1.414304477089498
 20
87.29930686203331
 10
1.453677122022221
 20
87.27962053956696
  0
LWPOLYLINE
  5
6A4
330
1E
100
AcDbEntity
  8
0
100
AcDbPolyline
 90
        3
 70
     0
 43
0.0
 10
1.394618154623145
 20
87.35836582943239
 10
1.414304477089498
 20
87.31899318449967
 10
1.453677122022221
 20
87.27962053956696
  0
LINE
  5
6A9
330
1E
100
AcDbEntity
  8
0
100
AcDbLine
 10
1.394618154623145
 20
87.41742479683148
 30
0.0
 11
1.394618154623145
 21
87.39773847436508
 31
0.0
  0
LINE
  5
6AA
330
1E
100
AcDbEntity
  8
0
100
AcDbLine
 10
1.394618154623145
 20
87.39773847436508
 30
0.0
 11
1.394618154623145
 21
87.35836582943239
 31
0.0
  0
LINE
  5
6AB
330
1E
100
AcDbEntity
  8
0
100
AcDbLine
 10
1.394618154623145
 20
87.35836582943239
 30
0.0
 11
1.394618154623145
 21
87.43711111929782
 31
0.0
  0
LINE
  5
6AC
330
1E
100
AcDbEntity
  8
0
100
AcDbLine
 10
1.394618154623145
 20
87.43711111929782
 30
0.0
 11
1.394618154623145
 21
87.41742479683148
 31
0.0
  0
LINE
  5
6AD
330
1E
100
AcDbEntity
  8
0
100
AcDbLine
 10
1.355245509690421
 20
87.43711111929782
 30
0.0
 11
1.374931832156792
 21
87.43711111929782
 31
0.0
  0
LINE
  5
6AE
330
1E
100
AcDbEntity
  8
0
100
AcDbLine
 10
1.374931832156792
 20
87.43711111929782
 30
0.0
 11
1.374931832156792
 21
87.45679744176419
 31
0.0
  0
LINE
  5
6AF
330
1E
100
AcDbEntity
  8
0
100
AcDbLine
 10
1.374931832156792
 20
87.45679744176419
 30
0.0
 11
1.335559187224069
 21
87.45679744176419
 31
0.0
  0
LINE
  5
6B0
330
1E
100
AcDbEntity
  8
0
100
AcDbLine
 10
1.335559187224069
 20
87.45679744176419
 30
0.0
 11
1.355245509690421
 21
87.43711111929782
 31
0.0
  0
LINE
  5
6B1
330
1E
100
AcDbEntity
  8
0
100
AcDbLine
 10
1.335559187224069
 20
87.35836582943239
 30
0.0
 11
1.315872864757716
 21
87.35836582943239
 31
0.0
  0
LINE
  5
6B2
330
1E
100
AcDbEntity
  8
0
100
AcDbLine
 10
1.335559187224069
 20
87.35836582943239
 30
0.0
 11
1.335559187224069
 21
87.39773847436508
 31
0.0
  0
LINE
  5
6B3
330
1E
100
AcDbEntity
  8
0
100
AcDbLine
 10
1.335559187224069
 20
87.39773847436508
 30
0.0
 11
1.335559187224069
 21
87.41742479683148
 31
0.0
  0
LINE
  5
6B4
330
1E
100
AcDbEntity
  8
0
100
AcDbLine
 10
1.335559187224069
 20
87.41742479683148
 30
0.0
 11
1.315872864757716
 21
87.43711111929782
 31
0.0
  0
LINE
  5
6B5
330
1E
100
AcDbEntity
  8
0
100
AcDbLine
 10
1.315872864757716
 20
87.35836582943239
 30
0.0
 11
1.315872864757716
 21
87.43711111929782
 31
0.0
  0
LINE
  5
6B6
330
1E
100
AcDbEntity
  8
0
100
AcDbLine
 10
1.43399079955585
 20
87.22056157216792
 30
0.0
 11
1.43399079955585
 21
87.20087524970153
 31
0.0
  0
LWPOLYLINE
  5
6B7
330
1E
100
AcDbEntity
  8
0
100
AcDbPolyline
 90
        3
 70
     0
 43
0.0
 10
1.43399079955585
 20
87.2205615721679
 10
1.355245509690422
 20
87.27962053956696
 10
1.335559187224069
 20
87.35836582943239
  0
LWPOLYLINE
  5
6BC
330
1E
100
AcDbEntity
  8
0
100
AcDbPolyline
 90
        3
 70
     0
 43
0.0
 10
1.315872864757716
 20
87.35836582943239
 10
1.355245509690422
 20
87.25993421710063
 10
1.43399079955585
 20
87.20087524970152
  0
LINE
  5
6C1
330
1E
100
AcDbEntity
  8
0
100
AcDbLine
 10
1.43399079955585
 20
87.20087524970153
 30
0.0
 11
1.43399079955585
 21
87.20087524970153
 31
0.0
  0
LINE
  5
6C2
330
1E
100
AcDbEntity
  8
0
100
AcDbLine
 10
1.43399079955585
 20
86.8465214453071
 30
0.0
 11
1.43399079955585
 21
86.8465214453071
 31
0.0
  0
LINE
  5
6C3
330
1E
100
AcDbEntity
  8
0
100
AcDbLine
 10
1.43399079955585
 20
86.8465214453071
 30
0.0
 11
1.43399079955585
 21
86.94495305763888
 31
0.0
  0
LINE
  5
6C4
330
1E
100
AcDbEntity
  8
0
100
AcDbLine
 10
1.43399079955585
 20
86.94495305763888
 30
0.0
 11
1.43399079955585
 21
86.96463938010527
 31
0.0
  0
LINE
  5
6C5
330
1E
100
AcDbEntity
  8
0
100
AcDbLine
 10
1.43399079955585
 20
86.96463938010527
 30
0.0
 11
1.43399079955585
 21
87.18118892723515
 31
0.0
  0
LINE
  5
6C6
330
1E
100
AcDbEntity
  8
0
100
AcDbLine
 10
1.43399079955585
 20
87.18118892723515
 30
0.0
 11
1.43399079955585
 21
87.20087524970153
 31
0.0
  0
LINE
  5
6C7
330
1E
100
AcDbEntity
  8
0
100
AcDbLine
 10
1.43399079955585
 20
87.20087524970153
 30
0.0
 11
1.43399079955585
 21
86.8465214453071
 31
0.0
  0
LINE
  5
6C8
330
1E
100
AcDbEntity
  8
0
100
AcDbLine
 10
1.53242241188765
 20
86.74808983297532
 30
0.0
 11
1.53242241188765
 21
86.74808983297532
 31
0.0
  0
LWPOLYLINE
  5
6C9
330
1E
100
AcDbEntity
  8
0
100
AcDbPolyline
 90
        6
 70
     0
 43
0.0
 10
1.532422411887651
 20
86.74808983297529
 10
1.51273608942128
 20
86.74808983297529
 10
1.493049766954928
 20
86.74808983297529
 10
1.473363444488575
 20
86.76777615544166
 10
1.453677122022221
 20
86.8071488003744
 10
1.43399079955585
 20
86.8465214453071
  0
LWPOLYLINE
  5
6D1
330
1E
100
AcDbEntity
  8
0
100
AcDbPolyline
 90
        5
 70
     0
 43
0.0
 10
1.43399079955585
 20
86.8465214453071
 10
1.453677122022221
 20
86.8071488003744
 10
1.473363444488575
 20
86.76777615544166
 10
1.493049766954928
 20
86.74808983297529
 10
1.532422411887651
 20
86.74808983297529
  0
LINE
  5
6D8
330
1E
100
AcDbEntity
  8
0
100
AcDbLine
 10
2.182071053277437
 20
86.8465214453071
 30
0.0
 11
2.182071053277437
 21
86.8465214453071
 31
0.0
  0
LWPOLYLINE
  5
6D9
330
1E
100
AcDbEntity
  8
0
100
AcDbPolyline
 90
        6
 70
     0
 43
0.0
 10
2.182071053277437
 20
86.8465214453071
 10
2.182071053277437
 20
86.8071488003744
 10
2.162384730811084
 20
86.78746247790801
 10
2.142698408344714
 20
86.76777615544166
 10
2.12301208587836
 20
86.74808983297529
 10
2.083639440945655
 20
86.74808983297529
  0
LINE
  5
6E1
330
1E
100
AcDbEntity
  8
0
100
AcDbLine
 10
2.083639440945654
 20
86.74808983297532
 30
0.0
 11
2.083639440945654
 21
86.74808983297532
 31
0.0
  0
LWPOLYLINE
  5
6E2
330
1E
100
AcDbEntity
  8
0
100
AcDbPolyline
 90
        3
 70
     0
 43
0.0
 10
2.083639440945655
 20
86.74808983297529
 10
2.12301208587836
 20
86.74808983297529
 10
2.142698408344714
 20
86.76777615544166
  0
LINE
  5
6E7
330
1E
100
AcDbEntity
  8
0
100
AcDbLine
 10
2.182071053277437
 20
86.8071488003744
 30
0.0
 11
2.182071053277437
 21
86.8465214453071
 31
0.0
  0
LINE
  5
6E8
330
1E
100
AcDbEntity
  8
0
100
AcDbLine
 10
2.182071053277437
 20
86.92526673517255
 30
0.0
 11
2.182071053277437
 21
86.92526673517255
 31
0.0
  0
LINE
  5
6E9
330
1E
100
AcDbEntity
  8
0
100
AcDbLine
 10
2.182071053277437
 20
86.92526673517255
 30
0.0
 11
2.182071053277437
 21
86.8465214453071
 31
0.0
  0
LINE
  5
6EA
330
1E
100
AcDbEntity
  8
0
100
AcDbLine
 10
2.182071053277437
 20
86.8465214453071
 30
0.0
 11
2.182071053277437
 21
86.92526673517255
 31
0.0
  0
LINE
  5
6EB
330
1E
100
AcDbEntity
  8
0
100
AcDbLine
 10
2.182071053277437
 20
86.96463938010527
 30
0.0
 11
2.182071053277437
 21
86.96463938010527
 31
0.0
  0
LINE
  5
6EC
330
1E
100
AcDbEntity
  8
0
100
AcDbLine
 10
2.182071053277437
 20
86.96463938010527
 30
0.0
 11
2.182071053277437
 21
86.94495305763888
 31
0.0
  0
LINE
  5
6ED
330
1E
100
AcDbEntity
  8
0
100
AcDbLine
 10
2.182071053277437
 20
86.94495305763888
 30
0.0
 11
2.182071053277437
 21
86.92526673517255
 31
0.0
  0
LINE
  5
6EE
330
1E
100
AcDbEntity
  8
0
100
AcDbLine
 10
2.182071053277437
 20
86.92526673517255
 30
0.0
 11
2.182071053277437
 21
86.96463938010527
 31
0.0
  0
LINE
  5
6EF
330
1E
100
AcDbEntity
  8
0
100
AcDbLine
 10
2.182071053277437
 20
86.98432570257159
 30
0.0
 11
2.182071053277437
 21
86.98432570257159
 31
0.0
  0
LINE
  5
6F0
330
1E
100
AcDbEntity
  8
0
100
AcDbLine
 10
2.182071053277437
 20
86.98432570257159
 30
0.0
 11
2.182071053277437
 21
86.96463938010527
 31
0.0
  0
LINE
  5
6F1
330
1E
100
AcDbEntity
  8
0
100
AcDbLine
 10
2.182071053277437
 20
86.96463938010527
 30
0.0
 11
2.182071053277437
 21
86.98432570257159
 31
0.0
  0
LINE
  5
6F2
330
1E
100
AcDbEntity
  8
0
100
AcDbLine
 10
2.182071053277437
 20
86.98432570257159
 30
0.0
 11
2.241130020676513
 21
86.98432570257159
 31
0.0
  0
LINE
  5
6F3
330
1E
100
AcDbEntity
  8
0
100
AcDbLine
 10
2.241130020676513
 20
86.98432570257159
 30
0.0
 11
2.221443698210142
 21
86.98432570257159
 31
0.0
  0
LINE
  5
6F4
330
1E
100
AcDbEntity
  8
0
100
AcDbLine
 10
2.221443698210142
 20
86.98432570257159
 30
0.0
 11
2.20175737574379
 21
86.98432570257159
 31
0.0
  0
LINE
  5
6F5
330
1E
100
AcDbEntity
  8
0
100
AcDbLine
 10
2.20175737574379
 20
86.98432570257159
 30
0.0
 11
2.182071053277437
 21
86.98432570257159
 31
0.0
  0
LINE
  5
6F6
330
1E
100
AcDbEntity
  8
0
100
AcDbLine
 10
2.162384730811084
 20
86.98432570257159
 30
0.0
 11
2.182071053277437
 21
86.98432570257159
 31
0.0
  0
LINE
  5
6F7
330
1E
100
AcDbEntity
  8
0
100
AcDbLine
 10
2.162384730811084
 20
86.98432570257159
 30
0.0
 11
2.182071053277437
 21
86.98432570257159
 31
0.0
  0
LINE
  5
6F8
330
1E
100
AcDbEntity
  8
0
100
AcDbLine
 10
2.260816343142866
 20
86.98432570257159
 30
0.0
 11
2.260816343142866
 21
87.04338466997066
 31
0.0
  0
LINE
  5
6F9
330
1E
100
AcDbEntity
  8
0
100
AcDbLine
 10
2.260816343142866
 20
87.04338466997066
 30
0.0
 11
2.241130020676513
 21
87.04338466997066
 31
0.0
  0
LINE
  5
6FA
330
1E
100
AcDbEntity
  8
0
100
AcDbLine
 10
2.241130020676513
 20
87.04338466997066
 30
0.0
 11
2.241130020676513
 21
87.00401202503798
 31
0.0
  0
LINE
  5
6FB
330
1E
100
AcDbEntity
  8
0
100
AcDbLine
 10
2.241130020676513
 20
87.00401202503798
 30
0.0
 11
2.260816343142866
 21
86.98432570257159
 31
0.0
  0
LINE
  5
6FC
330
1E
100
AcDbEntity
  8
0
100
AcDbLine
 10
2.182071053277437
 20
87.24024789463427
 30
0.0
 11
2.182071053277437
 21
87.14181628230248
 31
0.0
  0
LINE
  5
6FD
330
1E
100
AcDbEntity
  8
0
100
AcDbLine
 10
2.182071053277437
 20
87.08275731490337
 30
0.0
 11
2.182071053277437
 21
87.06307099243701
 31
0.0
  0
LINE
  5
6FE
330
1E
100
AcDbEntity
  8
0
100
AcDbLine
 10
2.182071053277437
 20
87.06307099243701
 30
0.0
 11
2.182071053277437
 21
87.08275731490337
 31
0.0
  0
LINE
  5
6FF
330
1E
100
AcDbEntity
  8
0
100
AcDbLine
 10
2.182071053277437
 20
87.14181628230248
 30
0.0
 11
2.182071053277437
 21
87.24024789463427
 31
0.0
  0
LINE
  5
700
330
1E
100
AcDbEntity
  8
0
100
AcDbLine
 10
1.906462538748426
 20
87.25993421710061
 30
0.0
 11
1.906462538748426
 21
87.279620539567
 31
0.0
  0
LINE
  5
701
330
1E
100
AcDbEntity
  8
0
100
AcDbLine
 10
1.906462538748426
 20
87.25993421710061
 30
0.0
 11
1.906462538748426
 21
87.25993421710061
 31
0.0
  0
LINE
  5
702
330
1E
100
AcDbEntity
  8
0
100
AcDbLine
 10
1.906462538748426
 20
87.25993421710061
 30
0.0
 11
1.906462538748426
 21
87.279620539567
 31
0.0
  0
LINE
  5
703
330
1E
100
AcDbEntity
  8
0
100
AcDbLine
 10
1.827717248882996
 20
87.29930686203331
 30
0.0
 11
1.827717248882996
 21
87.25993421710061
 31
0.0
  0
LINE
  5
704
330
1E
100
AcDbEntity
  8
0
100
AcDbLine
 10
1.827717248882996
 20
87.25993421710061
 30
0.0
 11
1.827717248882996
 21
87.25993421710061
 31
0.0
  0
LINE
  5
705
330
1E
100
AcDbEntity
  8
0
100
AcDbLine
 10
1.827717248882996
 20
87.25993421710061
 30
0.0
 11
1.827717248882996
 21
87.29930686203331
 31
0.0
  0
LINE
  5
706
330
1E
100
AcDbEntity
  8
0
100
AcDbLine
 10
1.926148861214796
 20
87.24024789463427
 30
0.0
 11
1.827717248882996
 21
87.24024789463427
 31
0.0
  0
LINE
  5
707
330
1E
100
AcDbEntity
  8
0
100
AcDbLine
 10
1.808030926416643
 20
87.24024789463427
 30
0.0
 11
1.808030926416643
 21
87.29930686203331
 31
0.0
  0
LINE
  5
708
330
1E
100
AcDbEntity
  8
0
100
AcDbLine
 10
1.926148861214796
 20
87.25993421710061
 30
0.0
 11
1.926148861214796
 21
87.24024789463427
 31
0.0
  0
LINE
  5
709
330
1E
100
AcDbEntity
  8
0
100
AcDbLine
 10
2.162384730811084
 20
87.00401202503798
 30
0.0
 11
2.182071053277437
 21
87.00401202503798
 31
0.0
  0
LINE
  5
70A
330
1E
100
AcDbEntity
  8
0
100
AcDbLine
 10
2.182071053277437
 20
87.00401202503798
 30
0.0
 11
1.43399079955585
 21
87.22056157216792
 31
0.0
  0
LINE
  5
70B
330
1E
100
AcDbEntity
  8
0
100
AcDbLine
 10
1.43399079955585
 20
87.20087524970153
 30
0.0
 11
2.162384730811084
 21
87.00401202503798
 31
0.0
  0
LINE
  5
70C
330
1E
100
AcDbEntity
  8
0
100
AcDbLine
 10
2.162384730811084
 20
86.96463938010527
 30
0.0
 11
1.453677122022221
 21
86.96463938010527
 31
0.0
  0
LINE
  5
70D
330
1E
100
AcDbEntity
  8
0
100
AcDbLine
 10
2.162384730811084
 20
86.96463938010527
 30
0.0
 11
2.162384730811084
 21
86.98432570257159
 31
0.0
  0
LINE
  5
70E
330
1E
100
AcDbEntity
  8
0
100
AcDbLine
 10
2.182071053277437
 20
86.98432570257159
 30
0.0
 11
1.453677122022221
 21
87.18118892723515
 31
0.0
  0
LINE
  5
70F
330
1E
100
AcDbEntity
  8
0
100
AcDbLine
 10
1.453677122022221
 20
87.18118892723515
 30
0.0
 11
1.453677122022221
 21
86.96463938010527
 31
0.0
  0
LINE
  5
710
330
1E
100
AcDbEntity
  8
0
100
AcDbLine
 10
1.453677122022221
 20
86.94495305763888
 30
0.0
 11
2.162384730811084
 21
86.94495305763888
 31
0.0
  0
LINE
  5
711
330
1E
100
AcDbEntity
  8
0
100
AcDbLine
 10
2.162384730811084
 20
86.94495305763888
 30
0.0
 11
2.162384730811084
 21
86.96463938010527
 31
0.0
  0
LINE
  5
712
330
1E
100
AcDbEntity
  8
0
100
AcDbLine
 10
1.453677122022221
 20
86.96463938010527
 30
0.0
 11
1.453677122022221
 21
86.94495305763888
 31
0.0
  0
LINE
  5
713
330
1E
100
AcDbEntity
  8
0
100
AcDbLine
 10
2.083639440945654
 20
86.74808983297532
 30
0.0
 11
1.53242241188765
 21
86.74808983297532
 31
0.0
  0
LINE
  5
714
330
1E
100
AcDbEntity
  8
0
100
AcDbLine
 10
2.162384730811084
 20
86.8465214453071
 30
0.0
 11
2.162384730811084
 21
86.94495305763888
 31
0.0
  0
LINE
  5
715
330
1E
100
AcDbEntity
  8
0
100
AcDbLine
 10
1.453677122022221
 20
86.94495305763888
 30
0.0
 11
1.453677122022221
 21
86.8465214453071
 31
0.0
  0
LWPOLYLINE
  5
716
330
1E
100
AcDbEntity
  8
0
100
AcDbPolyline
 90
        5
 70
     0
 43
0.0
 10
1.453677122022221
 20
86.8465214453071
 10
1.453677122022221
 20
86.8071488003744
 10
1.473363444488575
 20
86.78746247790801
 10
1.493049766954928
 20
86.76777615544166
 10
1.532422411887651
 20
86.76777615544166
  0
LINE
  5
71D
330
1E
100
AcDbEntity
  8
0
100
AcDbLine
 10
1.53242241188765
 20
86.76777615544166
 30
0.0
 11
2.083639440945654
 21
86.76777615544166
 31
0.0
  0
LWPOLYLINE
  5
71E
330
1E
100
AcDbEntity
  8
0
100
AcDbPolyline
 90
        6
 70
     0
 43
0.0
 10
2.083639440945655
 20
86.76777615544166
 10
2.12301208587836
 20
86.76777615544166
 10
2.142698408344714
 20
86.76777615544166
 10
2.162384730811084
 20
86.78746247790801
 10
2.162384730811084
 20
86.82683512284075
 10
2.162384730811084
 20
86.8465214453071
  0
LINE
  5
726
330
1E
100
AcDbEntity
  8
0
100
AcDbLine
 10
2.083639440945654
 20
86.74808983297532
 30
0.0
 11
1.53242241188765
 21
86.74808983297532
 31
0.0
  0
LINE
  5
727
330
1E
100
AcDbEntity
  8
0
100
AcDbLine
 10
2.182071053277437
 20
87.02369834750431
 30
0.0
 11
2.182071053277437
 21
87.04338466997066
 31
0.0
  0
LINE
  5
728
330
1E
100
AcDbEntity
  8
0
100
AcDbLine
 10
2.182071053277437
 20
87.04338466997066
 30
0.0
 11
1.453677122022221
 21
87.25993421710061
 31
0.0
  0
LWPOLYLINE
  5
729
330
1E
100
AcDbEntity
  8
0
100
AcDbPolyline
 90
        3
 70
     0
 43
0.0
 10
1.453677122022221
 20
87.25993421710063
 10
1.394618154623145
 20
87.29930686203331
 10
1.374931832156792
 20
87.35836582943239
  0
LINE
  5
72E
330
1E
100
AcDbEntity
  8
0
100
AcDbLine
 10
1.374931832156792
 20
87.35836582943239
 30
0.0
 11
1.374931832156792
 21
87.39773847436508
 31
0.0
  0
LINE
  5
72F
330
1E
100
AcDbEntity
  8
0
100
AcDbLine
 10
1.374931832156792
 20
87.39773847436508
 30
0.0
 11
1.355245509690421
 21
87.39773847436508
 31
0.0
  0
LINE
  5
730
330
1E
100
AcDbEntity
  8
0
100
AcDbLine
 10
1.355245509690421
 20
87.39773847436508
 30
0.0
 11
1.355245509690421
 21
87.35836582943239
 31
0.0
  0
LWPOLYLINE
  5
731
330
1E
100
AcDbEntity
  8
0
100
AcDbPolyline
 90
        3
 70
     0
 43
0.0
 10
1.355245509690422
 20
87.35836582943239
 10
1.374931832156792
 20
87.27962053956696
 10
1.453677122022221
 20
87.24024789463426
  0
LINE
  5
736
330
1E
100
AcDbEntity
  8
0
100
AcDbLine
 10
1.453677122022221
 20
87.24024789463427
 30
0.0
 11
2.182071053277437
 21
87.02369834750431
 31
0.0
  0
LINE
  5
737
330
1E
100
AcDbEntity
  8
0
100
AcDbLine
 10
2.182071053277437
 20
87.02369834750431
 30
0.0
 11
2.182071053277437
 21
87.02369834750431
 31
0.0
  0
LWPOLYLINE
  5
738
330
1E
100
AcDbEntity
  8
0
100
AcDbPolyline
 90
        9
 70
     0
 43
0.0
 10
1.709599314084862
 20
88.02770079328853
 10
1.709599314084862
 20
87.9489555034231
 10
1.729285636551215
 20
87.88989653602405
 10
1.788344603950291
 20
87.83083756862495
 10
1.86708989381572
 20
87.8111512461586
 10
1.945835183681149
 20
87.83083756862495
 10
1.985207828613856
 20
87.88989653602405
 10
2.024580473546579
 20
87.9489555034231
 10
2.004894151080226
 20
88.02770079328853
  0
LINE
  5
743
330
1E
100
AcDbEntity
  8
0
100
AcDbLine
 10
1.827717248882996
 20
87.25993421710061
 30
0.0
 11
1.906462538748426
 21
87.25993421710061
 31
0.0
  0
LWPOLYLINE
  5
744
330
1E
100
AcDbEntity
  8
0
100
AcDbPolyline
 90
        3
 70
     0
 43
0.0
 10
1.827717248882997
 20
87.25993421710063
 10
1.808030926416645
 20
87.25993421710063
 10
1.808030926416645
 20
87.24024789463426
  0
LINE
  5
749
330
1E
100
AcDbEntity
  8
0
100
AcDbLine
 10
1.926148861214796
 20
87.24024789463427
 30
0.0
 11
1.906462538748426
 21
87.25993421710061
 31
0.0
  0
LWPOLYLINE
  5
74A
330
1E
100
AcDbEntity
  8
0
100
AcDbPolyline
 90
        9
 70
     0
 43
0.0
 10
1.709599314084862
 20
88.02770079328853
 10
1.709599314084862
 20
87.96864182588945
 10
1.729285636551215
 20
87.88989653602405
 10
1.788344603950291
 20
87.83083756862495
 10
1.86708989381572
 20
87.8111512461586
 10
1.926148861214796
 20
87.83083756862495
 10
1.985207828613856
 20
87.88989653602405
 10
2.024580473546579
 20
87.96864182588945
 10
2.004894151080226
 20
88.02770079328853
  0
LWPOLYLINE
  5
755
330
1E
100
AcDbEntity
  8
0
100
AcDbPolyline
 90
        3
 70
     0
 43
0.0
 10
1.374931832156792
 20
87.39773847436508
 10
1.374931832156792
 20
87.41742479683148
 10
1.374931832156792
 20
87.43711111929782
  0
LWPOLYLINE
  5
75A
330
1E
100
AcDbEntity
  8
0
100
AcDbPolyline
 90
        3
 70
     0
 43
0.0
 10
1.355245509690422
 20
87.43711111929782
 10
1.355245509690422
 20
87.41742479683148
 10
1.355245509690422
 20
87.39773847436508
  0
LWPOLYLINE
  5
75F
330
1E
100
AcDbEntity
  8
0
100
AcDbPolyline
 90
        3
 70
     0
 43
0.0
 10
2.241130020676513
 20
87.04338466997066
 10
2.221443698210143
 20
87.04338466997066
 10
2.182071053277437
 20
87.04338466997066
  0
LWPOLYLINE
  5
764
330
1E
100
AcDbEntity
  8
0
100
AcDbPolyline
 90
        3
 70
     0
 43
0.0
 10
2.182071053277437
 20
87.02369834750431
 10
2.20175737574379
 20
87.02369834750431
 10
2.20175737574379
 20
87.00401202503796
  0
LWPOLYLINE
  5
769
330
1E
100
AcDbEntity
  8
0
100
AcDbPolyline
 90
        3
 70
     0
 43
0.0
 10
2.20175737574379
 20
87.00401202503796
 10
2.221443698210143
 20
87.00401202503796
 10
2.241130020676513
 20
87.00401202503796
  0
LINE
  5
76E
330
1E
100
AcDbEntity
  8
0
100
AcDbLine
 10
2.182071053277437
 20
86.98432570257159
 30
0.0
 11
2.162384730811084
 21
87.00401202503798
 31
0.0
  0
LINE
  5
76F
330
1E
100
AcDbEntity
  8
0
100
AcDbLine
 10
1.43399079955585
 20
87.20087524970153
 30
0.0
 11
1.453677122022221
 21
87.20087524970153
 31
0.0
  0
LINE
  5
770
330
1E
100
AcDbEntity
  8
0
100
AcDbLine
 10
1.453677122022221
 20
87.20087524970153
 30
0.0
 11
1.453677122022221
 21
87.18118892723515
 31
0.0
  0
LINE
  5
771
330
1E
100
AcDbEntity
  8
0
100
AcDbLine
 10
1.453677122022221
 20
87.20087524970153
 30
0.0
 11
1.43399079955585
 21
87.20087524970153
 31
0.0
  0
LINE
  5
772
330
1E
100
AcDbEntity
  8
0
100
AcDbLine
 10
1.453677122022221
 20
87.18118892723515
 30
0.0
 11
1.43399079955585
 21
87.18118892723515
 31
0.0
  0
LINE
  5
773
330
1E
100
AcDbEntity
  8
0
100
AcDbLine
 10
1.453677122022221
 20
86.96463938010527
 30
0.0
 11
1.43399079955585
 21
86.96463938010527
 31
0.0
  0
LINE
  5
774
330
1E
100
AcDbEntity
  8
0
100
AcDbLine
 10
1.453677122022221
 20
86.94495305763888
 30
0.0
 11
1.43399079955585
 21
86.94495305763888
 31
0.0
  0
LINE
  5
775
330
1E
100
AcDbEntity
  8
0
100
AcDbLine
 10
1.453677122022221
 20
86.8465214453071
 30
0.0
 11
1.43399079955585
 21
86.8465214453071
 31
0.0
  0
LINE
  5
776
330
1E
100
AcDbEntity
  8
0
100
AcDbLine
 10
1.53242241188765
 20
86.76777615544166
 30
0.0
 11
1.53242241188765
 21
86.74808983297532
 31
0.0
  0
LINE
  5
777
330
1E
100
AcDbEntity
  8
0
100
AcDbLine
 10
2.083639440945654
 20
86.76777615544166
 30
0.0
 11
2.083639440945654
 21
86.74808983297532
 31
0.0
  0
LINE
  5
778
330
1E
100
AcDbEntity
  8
0
100
AcDbLine
 10
2.162384730811084
 20
86.8465214453071
 30
0.0
 11
2.182071053277437
 21
86.8465214453071
 31
0.0
  0
LINE
  5
779
330
1E
100
AcDbEntity
  8
0
100
AcDbLine
 10
2.162384730811084
 20
86.94495305763888
 30
0.0
 11
2.182071053277437
 21
86.94495305763888
 31
0.0
  0
LINE
  5
77A
330
1E
100
AcDbEntity
  8
0
100
AcDbLine
 10
2.162384730811084
 20
86.96463938010527
 30
0.0
 11
2.182071053277437
 21
86.96463938010527
 31
0.0
  0
LINE
  5
77B
330
1E
100
AcDbEntity
  8
0
100
AcDbLine
 10
2.182071053277437
 20
86.98432570257159
 30
0.0
 11
2.182071053277437
 21
87.00401202503798
 31
0.0
  0
LINE
  5
77C
330
1E
100
AcDbEntity
  8
0
100
AcDbLine
 10
2.182071053277437
 20
87.00401202503798
 30
0.0
 11
2.182071053277437
 21
87.00401202503798
 31
0.0
  0
LWPOLYLINE
  5
77D
330
1E
100
AcDbEntity
  8
0
100
AcDbPolyline
 90
        3
 70
     0
 43
0.0
 10
2.20175737574379
 20
86.9843257025716
 10
2.20175737574379
 20
87.00401202503796
 10
2.182071053277437
 20
87.00401202503796
  0
LINE
  5
782
330
1E
100
AcDbEntity
  8
0
100
AcDbLine
 10
1.394618154623145
 20
87.43711111929782
 30
0.0
 11
1.374931832156792
 21
87.45679744176419
 31
0.0
  0
LINE
  5
783
330
1E
100
AcDbEntity
  8
0
100
AcDbLine
 10
1.394618154623145
 20
87.41742479683148
 30
0.0
 11
1.374931832156792
 21
87.43711111929782
 31
0.0
  0
LINE
  5
784
330
1E
100
AcDbEntity
  8
0
100
AcDbLine
 10
1.394618154623145
 20
87.39773847436508
 30
0.0
 11
1.374931832156792
 21
87.39773847436508
 31
0.0
  0
LINE
  5
785
330
1E
100
AcDbEntity
  8
0
100
AcDbLine
 10
1.394618154623145
 20
87.35836582943239
 30
0.0
 11
1.374931832156792
 21
87.35836582943239
 31
0.0
  0
LINE
  5
786
330
1E
100
AcDbEntity
  8
0
100
AcDbLine
 10
1.453677122022221
 20
87.279620539567
 30
0.0
 11
1.453677122022221
 21
87.25993421710061
 31
0.0
  0
LWPOLYLINE
  5
787
330
1E
100
AcDbEntity
  8
0
100
AcDbPolyline
 90
        3
 70
     0
 43
0.0
 10
2.20175737574379
 20
87.063070992437
 10
2.182071053277437
 20
87.063070992437
 10
2.182071053277437
 20
87.04338466997066
  0
LINE
  5
78C
330
1E
100
AcDbEntity
  8
0
100
AcDbLine
 10
2.221443698210142
 20
87.04338466997066
 30
0.0
 11
2.241130020676513
 21
87.04338466997066
 31
0.0
  0
LINE
  5
78D
330
1E
100
AcDbEntity
  8
0
100
AcDbLine
 10
2.260816343142866
 20
87.04338466997066
 30
0.0
 11
2.241130020676513
 21
87.06307099243701
 31
0.0
  0
LINE
  5
78E
330
1E
100
AcDbEntity
  8
0
100
AcDbLine
 10
1.335559187224069
 20
87.45679744176419
 30
0.0
 11
1.315872864757716
 21
87.43711111929782
 31
0.0
  0
LWPOLYLINE
  5
78F
330
1E
100
AcDbEntity
  8
0
100
AcDbPolyline
 90
        3
 70
     0
 43
0.0
 10
1.355245509690422
 20
87.43711111929782
 10
1.335559187224069
 20
87.43711111929782
 10
1.335559187224069
 20
87.41742479683148
  0
LINE
  5
794
330
1E
100
AcDbEntity
  8
0
100
AcDbLine
 10
1.355245509690421
 20
87.39773847436508
 30
0.0
 11
1.335559187224069
 21
87.39773847436508
 31
0.0
  0
LINE
  5
795
330
1E
100
AcDbEntity
  8
0
100
AcDbLine
 10
1.355245509690421
 20
87.35836582943239
 30
0.0
 11
1.335559187224069
 21
87.35836582943239
 31
0.0
  0
LINE
  5
796
330
1E
100
AcDbEntity
  8
0
100
AcDbLine
 10
1.453677122022221
 20
87.24024789463427
 30
0.0
 11
1.43399079955585
 21
87.22056157216792
 31
0.0
  0
LINE
  5
797
330
1E
100
AcDbEntity
  8
0
100
AcDbLine
 10
2.182071053277437
 20
87.02369834750431
 30
0.0
 11
2.182071053277437
 21
87.00401202503798
 31
0.0
  0
LINE
  5
798
330
1E
100
AcDbEntity
  8
0
100
AcDbLine
 10
2.182071053277437
 20
87.02369834750431
 30
0.0
 11
2.182071053277437
 21
87.00401202503798
 31
0.0
  0
LINE
  5
799
330
1E
100
AcDbEntity
  8
0
100
AcDbLine
 10
2.20175737574379
 20
87.00401202503798
 30
0.0
 11
2.182071053277437
 21
87.00401202503798
 31
0.0
  0
LINE
  5
79A
330
1E
100
AcDbEntity
  8
0
100
AcDbLine
 10
2.20175737574379
 20
87.00401202503798
 30
0.0
 11
2.20175737574379
 21
86.98432570257159
 31
0.0
  0
LINE
  5
79B
330
1E
100
AcDbEntity
  8
0
100
AcDbLine
 10
2.241130020676513
 20
87.00401202503798
 30
0.0
 11
2.221443698210142
 21
86.98432570257159
 31
0.0
  0
LINE
  5
79C
330
1E
100
AcDbEntity
  8
0
100
AcDbLine
 10
2.241130020676513
 20
86.98432570257159
 30
0.0
 11
2.260816343142866
 21
86.98432570257159
 31
0.0
  0
LWPOLYLINE
  5
79D
330
1E
100
AcDbEntity
  8
0
100
AcDbPolyline
 90
        3
 70
     0
 43
0.0
 10
11.43464261246537
 20
88.1851913730194
 10
11.45432893493174
 20
88.14581872808666
 10
11.45432893493174
 20
88.12613240562031
  0
LINE
  5
7A2
330
1E
100
AcDbEntity
  8
0
100
AcDbLine
 10
11.45432893493174
 20
88.12613240562033
 30
0.0
 11
11.45432893493174
 21
88.12613240562033
 31
0.0
  0
LWPOLYLINE
  5
7A3
330
1E
100
AcDbEntity
  8
0
100
AcDbPolyline
 90
        3
 70
     0
 43
0.0
 10
11.43464261246537
 20
88.1851913730194
 10
11.45432893493174
 20
88.16550505055305
 10
11.45432893493174
 20
88.12613240562031
  0
LINE
  5
7A8
330
1E
100
AcDbEntity
  8
0
100
AcDbLine
 10
11.45432893493174
 20
87.33867950696604
 30
0.0
 11
11.45432893493174
 21
88.12613240562033
 31
0.0
  0
LINE
  5
7A9
330
1E
100
AcDbEntity
  8
0
100
AcDbLine
 10
11.45432893493174
 20
87.279620539567
 30
0.0
 11
11.45432893493174
 21
87.29930686203331
 31
0.0
  0
LINE
  5
7AA
330
1E
100
AcDbEntity
  8
0
100
AcDbLine
 10
11.45432893493174
 20
87.279620539567
 30
0.0
 11
11.45432893493174
 21
87.279620539567
 31
0.0
  0
LINE
  5
7AB
330
1E
100
AcDbEntity
  8
0
100
AcDbLine
 10
11.45432893493174
 20
88.12613240562033
 30
0.0
 11
11.45432893493174
 21
87.33867950696604
 31
0.0
  0
LINE
  5
7AC
330
1E
100
AcDbEntity
  8
0
100
AcDbLine
 10
11.45432893493174
 20
87.279620539567
 30
0.0
 11
11.45432893493174
 21
87.279620539567
 31
0.0
  0
LWPOLYLINE
  5
7AD
330
1E
100
AcDbEntity
  8
0
100
AcDbPolyline
 90
        3
 70
     0
 43
0.0
 10
10.74562132614288
 20
87.063070992437
 10
10.70624868121016
 20
87.063070992437
 10
10.70624868121016
 20
87.04338466997066
  0
LINE
  5
7B2
330
1E
100
AcDbEntity
  8
0
100
AcDbLine
 10
11.4740152573981
 20
87.279620539567
 30
0.0
 11
10.74562132614288
 21
87.06307099243701
 31
0.0
  0
LINE
  5
7B3
330
1E
100
AcDbEntity
  8
0
100
AcDbLine
 10
11.4740152573981
 20
87.279620539567
 30
0.0
 11
11.4740152573981
 21
87.279620539567
 31
0.0
  0
LINE
  5
7B4
330
1E
100
AcDbEntity
  8
0
100
AcDbLine
 10
11.45432893493174
 20
87.279620539567
 30
0.0
 11
11.4740152573981
 21
87.279620539567
 31
0.0
  0
LINE
  5
7B5
330
1E
100
AcDbEntity
  8
0
100
AcDbLine
 10
10.74562132614288
 20
87.06307099243701
 30
0.0
 11
11.45432893493174
 21
87.279620539567
 31
0.0
  0
LINE
  5
7B6
330
1E
100
AcDbEntity
  8
0
100
AcDbLine
 10
10.74562132614288
 20
87.06307099243701
 30
0.0
 11
10.74562132614288
 21
87.06307099243701
 31
0.0
  0
LINE
  5
7B7
330
1E
100
AcDbEntity
  8
0
100
AcDbLine
 10
10.6865623587438
 20
87.06307099243701
 30
0.0
 11
10.74562132614288
 21
87.06307099243701
 31
0.0
  0
LINE
  5
7B8
330
1E
100
AcDbEntity
  8
0
100
AcDbLine
 10
10.70624868121016
 20
87.04338466997066
 30
0.0
 11
10.6865623587438
 21
87.06307099243701
 31
0.0
  0
LINE
  5
7B9
330
1E
100
AcDbEntity
  8
0
100
AcDbLine
 10
11.55276054726352
 20
87.35836582943239
 30
0.0
 11
11.53307422479717
 21
87.35836582943239
 31
0.0
  0
LWPOLYLINE
  5
7BA
330
1E
100
AcDbEntity
  8
0
100
AcDbPolyline
 90
        3
 70
     0
 43
0.0
 10
11.53307422479717
 20
87.35836582943239
 10
11.5133879023308
 20
87.31899318449967
 10
11.4740152573981
 20
87.27962053956696
  0
LWPOLYLINE
  5
7BF
330
1E
100
AcDbEntity
  8
0
100
AcDbPolyline
 90
        3
 70
     0
 43
0.0
 10
11.55276054726352
 20
87.35836582943239
 10
11.53307422479717
 20
87.29930686203331
 10
11.4740152573981
 20
87.27962053956696
  0
LINE
  5
7C4
330
1E
100
AcDbEntity
  8
0
100
AcDbLine
 10
11.55276054726352
 20
87.41742479683148
 30
0.0
 11
11.55276054726352
 21
87.39773847436508
 31
0.0
  0
LINE
  5
7C5
330
1E
100
AcDbEntity
  8
0
100
AcDbLine
 10
11.53307422479717
 20
87.43711111929782
 30
0.0
 11
11.55276054726352
 21
87.41742479683148
 31
0.0
  0
LINE
  5
7C6
330
1E
100
AcDbEntity
  8
0
100
AcDbLine
 10
11.53307422479717
 20
87.35836582943239
 30
0.0
 11
11.53307422479717
 21
87.43711111929782
 31
0.0
  0
LINE
  5
7C7
330
1E
100
AcDbEntity
  8
0
100
AcDbLine
 10
11.55276054726352
 20
87.39773847436508
 30
0.0
 11
11.55276054726352
 21
87.35836582943239
 31
0.0
  0
LINE
  5
7C8
330
1E
100
AcDbEntity
  8
0
100
AcDbLine
 10
11.59213319219623
 20
87.43711111929782
 30
0.0
 11
11.55276054726352
 21
87.43711111929782
 31
0.0
  0
LINE
  5
7C9
330
1E
100
AcDbEntity
  8
0
100
AcDbLine
 10
11.59213319219623
 20
87.45679744176419
 30
0.0
 11
11.59213319219623
 21
87.43711111929782
 31
0.0
  0
LINE
  5
7CA
330
1E
100
AcDbEntity
  8
0
100
AcDbLine
 10
11.55276054726352
 20
87.45679744176419
 30
0.0
 11
11.59213319219623
 21
87.45679744176419
 31
0.0
  0
LINE
  5
7CB
330
1E
100
AcDbEntity
  8
0
100
AcDbLine
 10
11.55276054726352
 20
87.43711111929782
 30
0.0
 11
11.55276054726352
 21
87.45679744176419
 31
0.0
  0
LINE
  5
7CC
330
1E
100
AcDbEntity
  8
0
100
AcDbLine
 10
11.59213319219623
 20
87.35836582943239
 30
0.0
 11
11.6118195146626
 21
87.35836582943239
 31
0.0
  0
LINE
  5
7CD
330
1E
100
AcDbEntity
  8
0
100
AcDbLine
 10
11.6118195146626
 20
87.35836582943239
 30
0.0
 11
11.6118195146626
 21
87.43711111929782
 31
0.0
  0
LINE
  5
7CE
330
1E
100
AcDbEntity
  8
0
100
AcDbLine
 10
11.59213319219623
 20
87.41742479683148
 30
0.0
 11
11.6118195146626
 21
87.43711111929782
 31
0.0
  0
LINE
  5
7CF
330
1E
100
AcDbEntity
  8
0
100
AcDbLine
 10
11.59213319219623
 20
87.39773847436508
 30
0.0
 11
11.59213319219623
 21
87.41742479683148
 31
0.0
  0
LINE
  5
7D0
330
1E
100
AcDbEntity
  8
0
100
AcDbLine
 10
11.59213319219623
 20
87.35836582943239
 30
0.0
 11
11.59213319219623
 21
87.39773847436508
 31
0.0
  0
LINE
  5
7D1
330
1E
100
AcDbEntity
  8
0
100
AcDbLine
 10
11.49370157986445
 20
87.22056157216792
 30
0.0
 11
11.49370157986445
 21
87.20087524970153
 31
0.0
  0
LINE
  5
7D2
330
1E
100
AcDbEntity
  8
0
100
AcDbLine
 10
11.49370157986445
 20
87.20087524970153
 30
0.0
 11
11.49370157986445
 21
87.20087524970153
 31
0.0
  0
LWPOLYLINE
  5
7D3
330
1E
100
AcDbEntity
  8
0
100
AcDbPolyline
 90
        3
 70
     0
 43
0.0
 10
11.6118195146626
 20
87.35836582943239
 10
11.57244686972988
 20
87.25993421710063
 10
11.49370157986445
 20
87.20087524970152
  0
LWPOLYLINE
  5
7D8
330
1E
100
AcDbEntity
  8
0
100
AcDbPolyline
 90
        3
 70
     0
 43
0.0
 10
11.49370157986445
 20
87.2205615721679
 10
11.57244686972988
 20
87.27962053956696
 10
11.59213319219623
 20
87.35836582943239
  0
LINE
  5
7DD
330
1E
100
AcDbEntity
  8
0
100
AcDbLine
 10
11.49370157986445
 20
86.8465214453071
 30
0.0
 11
11.49370157986445
 21
86.8465214453071
 31
0.0
  0
LINE
  5
7DE
330
1E
100
AcDbEntity
  8
0
100
AcDbLine
 10
11.49370157986445
 20
87.20087524970153
 30
0.0
 11
11.49370157986445
 21
86.8465214453071
 31
0.0
  0
LINE
  5
7DF
330
1E
100
AcDbEntity
  8
0
100
AcDbLine
 10
11.49370157986445
 20
87.18118892723515
 30
0.0
 11
11.49370157986445
 21
87.20087524970153
 31
0.0
  0
LINE
  5
7E0
330
1E
100
AcDbEntity
  8
0
100
AcDbLine
 10
11.49370157986445
 20
86.96463938010527
 30
0.0
 11
11.49370157986445
 21
87.18118892723515
 31
0.0
  0
LINE
  5
7E1
330
1E
100
AcDbEntity
  8
0
100
AcDbLine
 10
11.49370157986445
 20
86.94495305763888
 30
0.0
 11
11.49370157986445
 21
86.96463938010527
 31
0.0
  0
LINE
  5
7E2
330
1E
100
AcDbEntity
  8
0
100
AcDbLine
 10
11.49370157986445
 20
86.8465214453071
 30
0.0
 11
11.49370157986445
 21
86.94495305763888
 31
0.0
  0
LINE
  5
7E3
330
1E
100
AcDbEntity
  8
0
100
AcDbLine
 10
11.39526996753267
 20
86.74808983297532
 30
0.0
 11
11.39526996753267
 21
86.74808983297532
 31
0.0
  0
LWPOLYLINE
  5
7E4
330
1E
100
AcDbEntity
  8
0
100
AcDbPolyline
 90
        5
 70
     0
 43
0.0
 10
11.49370157986445
 20
86.8465214453071
 10
11.49370157986445
 20
86.8071488003744
 10
11.45432893493174
 20
86.76777615544166
 10
11.43464261246537
 20
86.74808983297529
 10
11.39526996753267
 20
86.74808983297529
  0
LWPOLYLINE
  5
7EB
330
1E
100
AcDbEntity
  8
0
100
AcDbPolyline
 90
        6
 70
     0
 43
0.0
 10
11.39526996753267
 20
86.74808983297529
 10
11.41495628999902
 20
86.74808983297529
 10
11.43464261246537
 20
86.74808983297529
 10
11.4740152573981
 20
86.76777615544166
 10
11.49370157986445
 20
86.8071488003744
 10
11.49370157986445
 20
86.8465214453071
  0
LINE
  5
7F3
330
1E
100
AcDbEntity
  8
0
100
AcDbLine
 10
10.74562132614288
 20
86.8465214453071
 30
0.0
 11
10.74562132614288
 21
86.8465214453071
 31
0.0
  0
LWPOLYLINE
  5
7F4
330
1E
100
AcDbEntity
  8
0
100
AcDbPolyline
 90
        3
 70
     0
 43
0.0
 10
10.84405293847466
 20
86.74808983297529
 10
10.80468029354194
 20
86.74808983297529
 10
10.78499397107558
 20
86.76777615544166
  0
LINE
  5
7F9
330
1E
100
AcDbEntity
  8
0
100
AcDbLine
 10
10.74562132614288
 20
86.8071488003744
 30
0.0
 11
10.74562132614288
 21
86.8465214453071
 31
0.0
  0
LINE
  5
7FA
330
1E
100
AcDbEntity
  8
0
100
AcDbLine
 10
10.84405293847466
 20
86.74808983297532
 30
0.0
 11
10.84405293847466
 21
86.74808983297532
 31
0.0
  0
LWPOLYLINE
  5
7FB
330
1E
100
AcDbEntity
  8
0
100
AcDbPolyline
 90
        6
 70
     0
 43
0.0
 10
10.74562132614288
 20
86.8465214453071
 10
10.74562132614288
 20
86.8071488003744
 10
10.76530764860923
 20
86.78746247790801
 10
10.78499397107558
 20
86.76777615544166
 10
10.80468029354194
 20
86.74808983297529
 10
10.84405293847466
 20
86.74808983297529
  0
LINE
  5
803
330
1E
100
AcDbEntity
  8
0
100
AcDbLine
 10
10.74562132614288
 20
86.92526673517255
 30
0.0
 11
10.74562132614288
 21
86.92526673517255
 31
0.0
  0
LINE
  5
804
330
1E
100
AcDbEntity
  8
0
100
AcDbLine
 10
10.74562132614288
 20
86.8465214453071
 30
0.0
 11
10.74562132614288
 21
86.92526673517255
 31
0.0
  0
LINE
  5
805
330
1E
100
AcDbEntity
  8
0
100
AcDbLine
 10
10.74562132614288
 20
86.92526673517255
 30
0.0
 11
10.74562132614288
 21
86.8465214453071
 31
0.0
  0
LINE
  5
806
330
1E
100
AcDbEntity
  8
0
100
AcDbLine
 10
10.74562132614288
 20
86.96463938010527
 30
0.0
 11
10.74562132614288
 21
86.96463938010527
 31
0.0
  0
LINE
  5
807
330
1E
100
AcDbEntity
  8
0
100
AcDbLine
 10
10.74562132614288
 20
86.92526673517255
 30
0.0
 11
10.74562132614288
 21
86.96463938010527
 31
0.0
  0
LINE
  5
808
330
1E
100
AcDbEntity
  8
0
100
AcDbLine
 10
10.74562132614288
 20
86.94495305763888
 30
0.0
 11
10.74562132614288
 21
86.92526673517255
 31
0.0
  0
LINE
  5
809
330
1E
100
AcDbEntity
  8
0
100
AcDbLine
 10
10.74562132614288
 20
86.96463938010527
 30
0.0
 11
10.74562132614288
 21
86.94495305763888
 31
0.0
  0
LINE
  5
80A
330
1E
100
AcDbEntity
  8
0
100
AcDbLine
 10
10.74562132614288
 20
86.98432570257159
 30
0.0
 11
10.74562132614288
 21
86.98432570257159
 31
0.0
  0
LINE
  5
80B
330
1E
100
AcDbEntity
  8
0
100
AcDbLine
 10
10.74562132614288
 20
86.96463938010527
 30
0.0
 11
10.74562132614288
 21
86.98432570257159
 31
0.0
  0
LINE
  5
80C
330
1E
100
AcDbEntity
  8
0
100
AcDbLine
 10
10.74562132614288
 20
86.98432570257159
 30
0.0
 11
10.74562132614288
 21
86.96463938010527
 31
0.0
  0
LINE
  5
80D
330
1E
100
AcDbEntity
  8
0
100
AcDbLine
 10
10.74562132614288
 20
86.98432570257159
 30
0.0
 11
10.6865623587438
 21
86.98432570257159
 31
0.0
  0
LINE
  5
80E
330
1E
100
AcDbEntity
  8
0
100
AcDbLine
 10
10.76530764860923
 20
86.98432570257159
 30
0.0
 11
10.74562132614288
 21
86.98432570257159
 31
0.0
  0
LINE
  5
80F
330
1E
100
AcDbEntity
  8
0
100
AcDbLine
 10
10.76530764860923
 20
86.98432570257159
 30
0.0
 11
10.74562132614288
 21
86.98432570257159
 31
0.0
  0
LINE
  5
810
330
1E
100
AcDbEntity
  8
0
100
AcDbLine
 10
10.72593500367651
 20
86.98432570257159
 30
0.0
 11
10.74562132614288
 21
86.98432570257159
 31
0.0
  0
LINE
  5
811
330
1E
100
AcDbEntity
  8
0
100
AcDbLine
 10
10.70624868121016
 20
86.98432570257159
 30
0.0
 11
10.72593500367651
 21
86.98432570257159
 31
0.0
  0
LINE
  5
812
330
1E
100
AcDbEntity
  8
0
100
AcDbLine
 10
10.6865623587438
 20
86.98432570257159
 30
0.0
 11
10.70624868121016
 21
86.98432570257159
 31
0.0
  0
LINE
  5
813
330
1E
100
AcDbEntity
  8
0
100
AcDbLine
 10
10.6865623587438
 20
86.98432570257159
 30
0.0
 11
10.6865623587438
 21
87.04338466997066
 31
0.0
  0
LINE
  5
814
330
1E
100
AcDbEntity
  8
0
100
AcDbLine
 10
10.6865623587438
 20
87.00401202503798
 30
0.0
 11
10.6865623587438
 21
86.98432570257159
 31
0.0
  0
LINE
  5
815
330
1E
100
AcDbEntity
  8
0
100
AcDbLine
 10
10.6865623587438
 20
87.04338466997066
 30
0.0
 11
10.6865623587438
 21
87.00401202503798
 31
0.0
  0
LINE
  5
816
330
1E
100
AcDbEntity
  8
0
100
AcDbLine
 10
10.6865623587438
 20
87.04338466997066
 30
0.0
 11
10.6865623587438
 21
87.04338466997066
 31
0.0
  0
LINE
  5
817
330
1E
100
AcDbEntity
  8
0
100
AcDbLine
 10
10.74562132614288
 20
87.06307099243701
 30
0.0
 11
10.74562132614288
 21
87.08275731490337
 31
0.0
  0
LINE
  5
818
330
1E
100
AcDbEntity
  8
0
100
AcDbLine
 10
10.74562132614288
 20
87.14181628230248
 30
0.0
 11
10.74562132614288
 21
87.24024789463427
 31
0.0
  0
LINE
  5
819
330
1E
100
AcDbEntity
  8
0
100
AcDbLine
 10
10.74562132614288
 20
87.08275731490337
 30
0.0
 11
10.74562132614288
 21
87.06307099243701
 31
0.0
  0
LINE
  5
81A
330
1E
100
AcDbEntity
  8
0
100
AcDbLine
 10
10.74562132614288
 20
87.24024789463427
 30
0.0
 11
10.74562132614288
 21
87.14181628230248
 31
0.0
  0
LINE
  5
81B
330
1E
100
AcDbEntity
  8
0
100
AcDbLine
 10
11.02122984067188
 20
87.25993421710061
 30
0.0
 11
11.02122984067188
 21
87.279620539567
 31
0.0
  0
LINE
  5
81C
330
1E
100
AcDbEntity
  8
0
100
AcDbLine
 10
11.02122984067188
 20
87.25993421710061
 30
0.0
 11
11.02122984067188
 21
87.25993421710061
 31
0.0
  0
LINE
  5
81D
330
1E
100
AcDbEntity
  8
0
100
AcDbLine
 10
11.02122984067188
 20
87.25993421710061
 30
0.0
 11
11.02122984067188
 21
87.279620539567
 31
0.0
  0
LINE
  5
81E
330
1E
100
AcDbEntity
  8
0
100
AcDbLine
 10
11.11966145300366
 20
87.25993421710061
 30
0.0
 11
11.0999751305373
 21
87.29930686203331
 31
0.0
  0
LINE
  5
81F
330
1E
100
AcDbEntity
  8
0
100
AcDbLine
 10
11.11966145300366
 20
87.25993421710061
 30
0.0
 11
11.11966145300366
 21
87.25993421710061
 31
0.0
  0
LINE
  5
820
330
1E
100
AcDbEntity
  8
0
100
AcDbLine
 10
11.11966145300366
 20
87.29930686203331
 30
0.0
 11
11.11966145300366
 21
87.25993421710061
 31
0.0
  0
LINE
  5
821
330
1E
100
AcDbEntity
  8
0
100
AcDbLine
 10
11.00154351820552
 20
87.24024789463427
 30
0.0
 11
11.0999751305373
 21
87.24024789463427
 31
0.0
  0
LINE
  5
822
330
1E
100
AcDbEntity
  8
0
100
AcDbLine
 10
11.00154351820552
 20
87.25993421710061
 30
0.0
 11
11.00154351820552
 21
87.24024789463427
 31
0.0
  0
LINE
  5
823
330
1E
100
AcDbEntity
  8
0
100
AcDbLine
 10
11.11966145300366
 20
87.24024789463427
 30
0.0
 11
11.11966145300366
 21
87.29930686203331
 31
0.0
  0
LINE
  5
824
330
1E
100
AcDbEntity
  8
0
100
AcDbLine
 10
10.76530764860923
 20
87.00401202503798
 30
0.0
 11
10.74562132614288
 21
87.00401202503798
 31
0.0
  0
LINE
  5
825
330
1E
100
AcDbEntity
  8
0
100
AcDbLine
 10
11.49370157986445
 20
87.20087524970153
 30
0.0
 11
10.76530764860923
 21
87.00401202503798
 31
0.0
  0
LINE
  5
826
330
1E
100
AcDbEntity
  8
0
100
AcDbLine
 10
10.74562132614288
 20
87.00401202503798
 30
0.0
 11
11.49370157986445
 21
87.22056157216792
 31
0.0
  0
LINE
  5
827
330
1E
100
AcDbEntity
  8
0
100
AcDbLine
 10
10.76530764860923
 20
86.96463938010527
 30
0.0
 11
11.4740152573981
 21
86.96463938010527
 31
0.0
  0
LINE
  5
828
330
1E
100
AcDbEntity
  8
0
100
AcDbLine
 10
11.4740152573981
 20
87.18118892723515
 30
0.0
 11
11.4740152573981
 21
86.96463938010527
 31
0.0
  0
LINE
  5
829
330
1E
100
AcDbEntity
  8
0
100
AcDbLine
 10
10.74562132614288
 20
86.98432570257159
 30
0.0
 11
11.4740152573981
 21
87.18118892723515
 31
0.0
  0
LINE
  5
82A
330
1E
100
AcDbEntity
  8
0
100
AcDbLine
 10
10.76530764860923
 20
86.96463938010527
 30
0.0
 11
10.76530764860923
 21
86.98432570257159
 31
0.0
  0
LINE
  5
82B
330
1E
100
AcDbEntity
  8
0
100
AcDbLine
 10
11.4740152573981
 20
86.94495305763888
 30
0.0
 11
10.76530764860923
 21
86.94495305763888
 31
0.0
  0
LINE
  5
82C
330
1E
100
AcDbEntity
  8
0
100
AcDbLine
 10
11.4740152573981
 20
86.96463938010527
 30
0.0
 11
11.4740152573981
 21
86.94495305763888
 31
0.0
  0
LINE
  5
82D
330
1E
100
AcDbEntity
  8
0
100
AcDbLine
 10
10.76530764860923
 20
86.94495305763888
 30
0.0
 11
10.76530764860923
 21
86.96463938010527
 31
0.0
  0
LINE
  5
82E
330
1E
100
AcDbEntity
  8
0
100
AcDbLine
 10
10.84405293847466
 20
86.74808983297532
 30
0.0
 11
11.39526996753267
 21
86.74808983297532
 31
0.0
  0
LINE
  5
82F
330
1E
100
AcDbEntity
  8
0
100
AcDbLine
 10
10.76530764860923
 20
86.8465214453071
 30
0.0
 11
10.76530764860923
 21
86.94495305763888
 31
0.0
  0
LWPOLYLINE
  5
830
330
1E
100
AcDbEntity
  8
0
100
AcDbPolyline
 90
        6
 70
     0
 43
0.0
 10
10.84405293847466
 20
86.76777615544166
 10
10.82436661600831
 20
86.76777615544166
 10
10.78499397107558
 20
86.76777615544166
 10
10.76530764860923
 20
86.78746247790801
 10
10.76530764860923
 20
86.82683512284075
 10
10.76530764860923
 20
86.8465214453071
  0
LINE
  5
838
330
1E
100
AcDbEntity
  8
0
100
AcDbLine
 10
11.39526996753267
 20
86.76777615544166
 30
0.0
 11
10.84405293847466
 21
86.76777615544166
 31
0.0
  0
LWPOLYLINE
  5
839
330
1E
100
AcDbEntity
  8
0
100
AcDbPolyline
 90
        6
 70
     0
 43
0.0
 10
11.4740152573981
 20
86.8465214453071
 10
11.4740152573981
 20
86.8071488003744
 10
11.45432893493174
 20
86.78746247790801
 10
11.43464261246537
 20
86.76777615544166
 10
11.41495628999902
 20
86.76777615544166
 10
11.39526996753267
 20
86.76777615544166
  0
LINE
  5
841
330
1E
100
AcDbEntity
  8
0
100
AcDbLine
 10
11.4740152573981
 20
86.94495305763888
 30
0.0
 11
11.4740152573981
 21
86.8465214453071
 31
0.0
  0
LINE
  5
842
330
1E
100
AcDbEntity
  8
0
100
AcDbLine
 10
10.84405293847466
 20
86.74808983297532
 30
0.0
 11
11.39526996753267
 21
86.74808983297532
 31
0.0
  0
LINE
  5
843
330
1E
100
AcDbEntity
  8
0
100
AcDbLine
 10
10.74562132614288
 20
87.02369834750431
 30
0.0
 11
10.74562132614288
 21
87.04338466997066
 31
0.0
  0
LINE
  5
844
330
1E
100
AcDbEntity
  8
0
100
AcDbLine
 10
10.74562132614288
 20
87.02369834750431
 30
0.0
 11
10.74562132614288
 21
87.02369834750431
 31
0.0
  0
LINE
  5
845
330
1E
100
AcDbEntity
  8
0
100
AcDbLine
 10
11.49370157986445
 20
87.24024789463427
 30
0.0
 11
10.74562132614288
 21
87.02369834750431
 31
0.0
  0
LWPOLYLINE
  5
846
330
1E
100
AcDbEntity
  8
0
100
AcDbPolyline
 90
        3
 70
     0
 43
0.0
 10
11.59213319219623
 20
87.35836582943239
 10
11.55276054726352
 20
87.27962053956696
 10
11.49370157986445
 20
87.24024789463426
  0
LINE
  5
84B
330
1E
100
AcDbEntity
  8
0
100
AcDbLine
 10
11.59213319219623
 20
87.39773847436508
 30
0.0
 11
11.59213319219623
 21
87.35836582943239
 31
0.0
  0
LINE
  5
84C
330
1E
100
AcDbEntity
  8
0
100
AcDbLine
 10
11.55276054726352
 20
87.39773847436508
 30
0.0
 11
11.59213319219623
 21
87.39773847436508
 31
0.0
  0
LINE
  5
84D
330
1E
100
AcDbEntity
  8
0
100
AcDbLine
 10
11.55276054726352
 20
87.35836582943239
 30
0.0
 11
11.55276054726352
 21
87.39773847436508
 31
0.0
  0
LWPOLYLINE
  5
84E
330
1E
100
AcDbEntity
  8
0
100
AcDbPolyline
 90
        3
 70
     0
 43
0.0
 10
11.4740152573981
 20
87.25993421710063
 10
11.53307422479717
 20
87.29930686203331
 10
11.55276054726352
 20
87.35836582943239
  0
LINE
  5
853
330
1E
100
AcDbEntity
  8
0
100
AcDbLine
 10
10.74562132614288
 20
87.04338466997066
 30
0.0
 11
11.4740152573981
 21
87.25993421710061
 31
0.0
  0
LWPOLYLINE
  5
854
330
1E
100
AcDbEntity
  8
0
100
AcDbPolyline
 90
        9
 70
     0
 43
0.0
 10
11.21809306533546
 20
88.02770079328853
 10
11.21809306533546
 20
87.9489555034231
 10
11.19840674286908
 20
87.88989653602405
 10
11.13934777547002
 20
87.83083756862495
 10
11.0606024856046
 20
87.8111512461586
 10
11.00154351820552
 20
87.83083756862495
 10
10.94248455080645
 20
87.88989653602405
 10
10.90311190587374
 20
87.9489555034231
 10
10.92279822834009
 20
88.02770079328853
  0
LINE
  5
85F
330
1E
100
AcDbEntity
  8
0
100
AcDbLine
 10
11.11966145300366
 20
87.25993421710061
 30
0.0
 11
11.02122984067188
 21
87.25993421710061
 31
0.0
  0
LWPOLYLINE
  5
860
330
1E
100
AcDbEntity
  8
0
100
AcDbPolyline
 90
        3
 70
     0
 43
0.0
 10
11.00154351820552
 20
87.24024789463426
 10
11.02122984067188
 20
87.24024789463426
 10
11.02122984067188
 20
87.25993421710063
  0
LINE
  5
865
330
1E
100
AcDbEntity
  8
0
100
AcDbLine
 10
11.11966145300366
 20
87.25993421710061
 30
0.0
 11
11.11966145300366
 21
87.24024789463427
 31
0.0
  0
LWPOLYLINE
  5
866
330
1E
100
AcDbEntity
  8
0
100
AcDbPolyline
 90
        9
 70
     0
 43
0.0
 10
11.21809306533546
 20
88.02770079328853
 10
11.21809306533546
 20
87.96864182588945
 10
11.19840674286908
 20
87.88989653602405
 10
11.13934777547002
 20
87.83083756862495
 10
11.0606024856046
 20
87.8111512461586
 10
11.00154351820552
 20
87.83083756862495
 10
10.94248455080645
 20
87.88989653602405
 10
10.90311190587374
 20
87.96864182588945
 10
10.92279822834009
 20
88.02770079328853
  0
LWPOLYLINE
  5
871
330
1E
100
AcDbEntity
  8
0
100
AcDbPolyline
 90
        3
 70
     0
 43
0.0
 10
11.59213319219623
 20
87.43711111929782
 10
11.59213319219623
 20
87.41742479683148
 10
11.59213319219623
 20
87.39773847436508
  0
LWPOLYLINE
  5
876
330
1E
100
AcDbEntity
  8
0
100
AcDbPolyline
 90
        3
 70
     0
 43
0.0
 10
11.55276054726352
 20
87.39773847436508
 10
11.55276054726352
 20
87.41742479683148
 10
11.55276054726352
 20
87.43711111929782
  0
LWPOLYLINE
  5
87B
330
1E
100
AcDbEntity
  8
0
100
AcDbPolyline
 90
        3
 70
     0
 43
0.0
 10
10.72593500367651
 20
87.00401202503796
 10
10.70624868121016
 20
87.00401202503796
 10
10.6865623587438
 20
87.00401202503796
  0
LWPOLYLINE
  5
880
330
1E
100
AcDbEntity
  8
0
100
AcDbPolyline
 90
        3
 70
     0
 43
0.0
 10
10.74562132614288
 20
87.02369834750431
 10
10.72593500367651
 20
87.02369834750431
 10
10.72593500367651
 20
87.00401202503796
  0
LWPOLYLINE
  5
885
330
1E
100
AcDbEntity
  8
0
100
AcDbPolyline
 90
        3
 70
     0
 43
0.0
 10
10.6865623587438
 20
87.04338466997066
 10
10.70624868121016
 20
87.04338466997066
 10
10.74562132614288
 20
87.04338466997066
  0
LINE
  5
88A
330
1E
100
AcDbEntity
  8
0
100
AcDbLine
 10
11.4740152573981
 20
87.20087524970153
 30
0.0
 11
11.4740152573981
 21
87.18118892723515
 31
0.0
  0
LINE
  5
88B
330
1E
100
AcDbEntity
  8
0
100
AcDbLine
 10
11.49370157986445
 20
87.20087524970153
 30
0.0
 11
11.4740152573981
 21
87.20087524970153
 31
0.0
  0
LINE
  5
88C
330
1E
100
AcDbEntity
  8
0
100
AcDbLine
 10
10.76530764860923
 20
86.98432570257159
 30
0.0
 11
10.76530764860923
 21
87.00401202503798
 31
0.0
  0
LINE
  5
88D
330
1E
100
AcDbEntity
  8
0
100
AcDbLine
 10
10.74562132614288
 20
86.98432570257159
 30
0.0
 11
10.76530764860923
 21
86.98432570257159
 31
0.0
  0
LINE
  5
88E
330
1E
100
AcDbEntity
  8
0
100
AcDbLine
 10
11.4740152573981
 20
87.20087524970153
 30
0.0
 11
11.49370157986445
 21
87.20087524970153
 31
0.0
  0
LINE
  5
88F
330
1E
100
AcDbEntity
  8
0
100
AcDbLine
 10
11.4740152573981
 20
87.18118892723515
 30
0.0
 11
11.49370157986445
 21
87.18118892723515
 31
0.0
  0
LINE
  5
890
330
1E
100
AcDbEntity
  8
0
100
AcDbLine
 10
11.4740152573981
 20
86.96463938010527
 30
0.0
 11
11.49370157986445
 21
86.96463938010527
 31
0.0
  0
LINE
  5
891
330
1E
100
AcDbEntity
  8
0
100
AcDbLine
 10
11.4740152573981
 20
86.94495305763888
 30
0.0
 11
11.49370157986445
 21
86.94495305763888
 31
0.0
  0
LINE
  5
892
330
1E
100
AcDbEntity
  8
0
100
AcDbLine
 10
11.4740152573981
 20
86.8465214453071
 30
0.0
 11
11.49370157986445
 21
86.8465214453071
 31
0.0
  0
LINE
  5
893
330
1E
100
AcDbEntity
  8
0
100
AcDbLine
 10
11.39526996753267
 20
86.76777615544166
 30
0.0
 11
11.39526996753267
 21
86.74808983297532
 31
0.0
  0
LINE
  5
894
330
1E
100
AcDbEntity
  8
0
100
AcDbLine
 10
10.84405293847466
 20
86.76777615544166
 30
0.0
 11
10.84405293847466
 21
86.74808983297532
 31
0.0
  0
LINE
  5
895
330
1E
100
AcDbEntity
  8
0
100
AcDbLine
 10
10.76530764860923
 20
86.8465214453071
 30
0.0
 11
10.74562132614288
 21
86.8465214453071
 31
0.0
  0
LINE
  5
896
330
1E
100
AcDbEntity
  8
0
100
AcDbLine
 10
10.76530764860923
 20
86.94495305763888
 30
0.0
 11
10.74562132614288
 21
86.94495305763888
 31
0.0
  0
LINE
  5
897
330
1E
100
AcDbEntity
  8
0
100
AcDbLine
 10
10.76530764860923
 20
86.96463938010527
 30
0.0
 11
10.74562132614288
 21
86.96463938010527
 31
0.0
  0
LINE
  5
898
330
1E
100
AcDbEntity
  8
0
100
AcDbLine
 10
10.76530764860923
 20
86.98432570257159
 30
0.0
 11
10.74562132614288
 21
87.00401202503798
 31
0.0
  0
LINE
  5
899
330
1E
100
AcDbEntity
  8
0
100
AcDbLine
 10
10.74562132614288
 20
87.00401202503798
 30
0.0
 11
10.74562132614288
 21
87.00401202503798
 31
0.0
  0
LINE
  5
89A
330
1E
100
AcDbEntity
  8
0
100
AcDbLine
 10
10.72593500367651
 20
86.98432570257159
 30
0.0
 11
10.74562132614288
 21
87.00401202503798
 31
0.0
  0
LINE
  5
89B
330
1E
100
AcDbEntity
  8
0
100
AcDbLine
 10
11.53307422479717
 20
87.43711111929782
 30
0.0
 11
11.55276054726352
 21
87.45679744176419
 31
0.0
  0
LINE
  5
89C
330
1E
100
AcDbEntity
  8
0
100
AcDbLine
 10
11.55276054726352
 20
87.41742479683148
 30
0.0
 11
11.55276054726352
 21
87.43711111929782
 31
0.0
  0
LINE
  5
89D
330
1E
100
AcDbEntity
  8
0
100
AcDbLine
 10
11.4740152573981
 20
87.279620539567
 30
0.0
 11
11.4740152573981
 21
87.25993421710061
 31
0.0
  0
LINE
  5
89E
330
1E
100
AcDbEntity
  8
0
100
AcDbLine
 10
10.74562132614288
 20
87.06307099243701
 30
0.0
 11
10.74562132614288
 21
87.04338466997066
 31
0.0
  0
LINE
  5
89F
330
1E
100
AcDbEntity
  8
0
100
AcDbLine
 10
10.70624868121016
 20
87.04338466997066
 30
0.0
 11
10.6865623587438
 21
87.04338466997066
 31
0.0
  0
LINE
  5
8A0
330
1E
100
AcDbEntity
  8
0
100
AcDbLine
 10
10.6865623587438
 20
87.04338466997066
 30
0.0
 11
10.6865623587438
 21
87.06307099243701
 31
0.0
  0
LINE
  5
8A1
330
1E
100
AcDbEntity
  8
0
100
AcDbLine
 10
11.59213319219623
 20
87.45679744176419
 30
0.0
 11
11.6118195146626
 21
87.43711111929782
 31
0.0
  0
LINE
  5
8A2
330
1E
100
AcDbEntity
  8
0
100
AcDbLine
 10
11.59213319219623
 20
87.43711111929782
 30
0.0
 11
11.59213319219623
 21
87.41742479683148
 31
0.0
  0
LINE
  5
8A3
330
1E
100
AcDbEntity
  8
0
100
AcDbLine
 10
11.49370157986445
 20
87.24024789463427
 30
0.0
 11
11.49370157986445
 21
87.22056157216792
 31
0.0
  0
LINE
  5
8A4
330
1E
100
AcDbEntity
  8
0
100
AcDbLine
 10
10.74562132614288
 20
87.02369834750431
 30
0.0
 11
10.74562132614288
 21
87.00401202503798
 31
0.0
  0
LINE
  5
8A5
330
1E
100
AcDbEntity
  8
0
100
AcDbLine
 10
10.74562132614288
 20
87.02369834750431
 30
0.0
 11
10.74562132614288
 21
87.00401202503798
 31
0.0
  0
LINE
  5
8A6
330
1E
100
AcDbEntity
  8
0
100
AcDbLine
 10
10.72593500367651
 20
87.00401202503798
 30
0.0
 11
10.74562132614288
 21
87.00401202503798
 31
0.0
  0
LINE
  5
8A7
330
1E
100
AcDbEntity
  8
0
100
AcDbLine
 10
10.72593500367651
 20
87.00401202503798
 30
0.0
 11
10.72593500367651
 21
86.98432570257159
 31
0.0
  0
LINE
  5
8A8
330
1E
100
AcDbEntity
  8
0
100
AcDbLine
 10
10.6865623587438
 20
87.00401202503798
 30
0.0
 11
10.70624868121016
 21
86.98432570257159
 31
0.0
  0
LINE
  5
8A9
330
1E
100
AcDbEntity
  8
0
100
AcDbLine
 10
10.6865623587438
 20
86.98432570257159
 30
0.0
 11
10.6865623587438
 21
86.98432570257159
 31
0.0
  0
LINE
  5
8AA
330
1E
100
AcDbEntity
  8
0
100
AcDbLine
 10
7.083965347400418
 20
86.70871718804262
 30
0.0
 11
7.083965347400418
 21
86.70871718804262
 31
0.0
  0
LINE
  5
8AB
330
1E
100
AcDbEntity
  8
0
100
AcDbLine
 10
7.241455927131276
 20
86.70871718804262
 30
0.0
 11
7.241455927131276
 21
86.70871718804262
 31
0.0
  0
LINE
  5
8AC
330
1E
100
AcDbEntity
  8
0
100
AcDbLine
 10
7.241455927131276
 20
86.70871718804262
 30
0.0
 11
7.083965347400418
 21
86.70871718804262
 31
0.0
  0
LINE
  5
8AD
330
1E
100
AcDbEntity
  8
0
100
AcDbLine
 10
6.768984187938701
 20
86.70871718804262
 30
0.0
 11
6.729611543005978
 21
86.70871718804262
 31
0.0
  0
LINE
  5
8AE
330
1E
100
AcDbEntity
  8
0
100
AcDbLine
 10
6.729611543005978
 20
86.70871718804262
 30
0.0
 11
6.611493608207843
 21
86.70871718804262
 31
0.0
  0
LINE
  5
8AF
330
1E
100
AcDbEntity
  8
0
100
AcDbLine
 10
6.611493608207843
 20
86.70871718804262
 30
0.0
 11
6.611493608207843
 21
86.70871718804262
 31
0.0
  0
LINE
  5
8B0
330
1E
100
AcDbEntity
  8
0
100
AcDbLine
 10
6.768984187938701
 20
86.70871718804262
 30
0.0
 11
6.768984187938701
 21
86.70871718804262
 31
0.0
  0
LINE
  5
8B1
330
1E
100
AcDbEntity
  8
0
100
AcDbLine
 10
6.729611543005978
 20
86.70871718804262
 30
0.0
 11
6.729611543005978
 21
86.70871718804262
 31
0.0
  0
LINE
  5
8B2
330
1E
100
AcDbEntity
  8
0
100
AcDbLine
 10
5.981531289284409
 20
86.70871718804262
 30
0.0
 11
5.981531289284409
 21
86.70871718804262
 31
0.0
  0
LINE
  5
8B3
330
1E
100
AcDbEntity
  8
0
100
AcDbLine
 10
6.985533735068618
 20
86.70871718804262
 30
0.0
 11
6.985533735068618
 21
86.70871718804262
 31
0.0
  0
LINE
  5
8B4
330
1E
100
AcDbEntity
  8
0
100
AcDbLine
 10
7.044592702467695
 20
86.70871718804262
 30
0.0
 11
7.044592702467695
 21
86.70871718804262
 31
0.0
  0
LINE
  5
8B5
330
1E
100
AcDbEntity
  8
0
100
AcDbLine
 10
7.044592702467695
 20
86.70871718804262
 30
0.0
 11
6.985533735068618
 21
86.70871718804262
 31
0.0
  0
LWPOLYLINE
  5
8B6
330
1E
100
AcDbEntity
  8
0
100
AcDbPolyline
 90
        4
 70
     0
 43
0.0
 10
5.961844966818038
 20
86.7087171880426
 10
5.942158644351686
 20
86.7087171880426
 10
5.88309967695261
 20
86.7087171880426
 10
5.82404070955355
 20
86.7087171880426
  0
LINE
  5
8BC
330
1E
100
AcDbEntity
  8
0
100
AcDbLine
 10
5.587804839957263
 20
86.70871718804262
 30
0.0
 11
5.824040709553551
 21
86.70871718804262
 31
0.0
  0
LINE
  5
8BD
330
1E
100
AcDbEntity
  8
0
100
AcDbLine
 10
5.587804839957263
 20
86.70871718804262
 30
0.0
 11
5.587804839957263
 21
86.70871718804262
 31
0.0
  0
LINE
  5
8BE
330
1E
100
AcDbEntity
  8
0
100
AcDbLine
 10
5.824040709553551
 20
86.70871718804262
 30
0.0
 11
5.824040709553551
 21
86.70871718804262
 31
0.0
  0
LINE
  5
8BF
330
1E
100
AcDbEntity
  8
0
100
AcDbLine
 10
6.57212096327512
 20
86.70871718804262
 30
0.0
 11
6.532748318342413
 21
86.70871718804262
 31
0.0
  0
LINE
  5
8C0
330
1E
100
AcDbEntity
  8
0
100
AcDbLine
 10
6.532748318342413
 20
86.70871718804262
 30
0.0
 11
6.49337567340969
 21
86.70871718804262
 31
0.0
  0
LINE
  5
8C1
330
1E
100
AcDbEntity
  8
0
100
AcDbLine
 10
6.49337567340969
 20
86.70871718804262
 30
0.0
 11
6.414630383544261
 21
86.70871718804262
 31
0.0
  0
LINE
  5
8C2
330
1E
100
AcDbEntity
  8
0
100
AcDbLine
 10
6.355571416145185
 20
86.70871718804262
 30
0.0
 11
6.414630383544261
 21
86.70871718804262
 31
0.0
  0
LINE
  5
8C3
330
1E
100
AcDbEntity
  8
0
100
AcDbLine
 10
6.355571416145185
 20
86.70871718804262
 30
0.0
 11
6.296512448746126
 21
86.70871718804262
 31
0.0
  0
LWPOLYLINE
  5
8C4
330
1E
100
AcDbEntity
  8
0
100
AcDbPolyline
 90
        3
 70
     0
 43
0.0
 10
6.296512448746127
 20
86.7087171880426
 10
6.257139803813403
 20
86.7087171880426
 10
6.217767158880698
 20
86.7087171880426
  0
LINE
  5
8C9
330
1E
100
AcDbEntity
  8
0
100
AcDbLine
 10
6.020903934217115
 20
86.70871718804262
 30
0.0
 11
6.217767158880697
 21
86.70871718804262
 31
0.0
  0
LINE
  5
8CA
330
1E
100
AcDbEntity
  8
0
100
AcDbLine
 10
6.020903934217115
 20
86.70871718804262
 30
0.0
 11
6.020903934217115
 21
86.70871718804262
 31
0.0
  0
LINE
  5
8CB
330
1E
100
AcDbEntity
  8
0
100
AcDbLine
 10
6.57212096327512
 20
86.70871718804262
 30
0.0
 11
6.57212096327512
 21
86.70871718804262
 31
0.0
  0
LINE
  5
8CC
330
1E
100
AcDbEntity
  8
0
100
AcDbLine
 10
6.532748318342413
 20
86.70871718804262
 30
0.0
 11
6.532748318342413
 21
86.70871718804262
 31
0.0
  0
LINE
  5
8CD
330
1E
100
AcDbEntity
  8
0
100
AcDbLine
 10
6.49337567340969
 20
86.70871718804262
 30
0.0
 11
6.49337567340969
 21
86.70871718804262
 31
0.0
  0
LINE
  5
8CE
330
1E
100
AcDbEntity
  8
0
100
AcDbLine
 10
6.414630383544261
 20
86.70871718804262
 30
0.0
 11
6.414630383544261
 21
86.70871718804262
 31
0.0
  0
LINE
  5
8CF
330
1E
100
AcDbEntity
  8
0
100
AcDbLine
 10
6.355571416145185
 20
86.70871718804262
 30
0.0
 11
6.355571416145185
 21
86.70871718804262
 31
0.0
  0
LINE
  5
8D0
330
1E
100
AcDbEntity
  8
0
100
AcDbLine
 10
6.296512448746126
 20
86.70871718804262
 30
0.0
 11
6.296512448746126
 21
86.70871718804262
 31
0.0
  0
LINE
  5
8D1
330
1E
100
AcDbEntity
  8
0
100
AcDbLine
 10
6.217767158880697
 20
86.70871718804262
 30
0.0
 11
6.217767158880697
 21
86.70871718804262
 31
0.0
  0
LINE
  5
8D2
330
1E
100
AcDbEntity
  8
0
100
AcDbLine
 10
6.867415800270483
 20
86.70871718804262
 30
0.0
 11
6.867415800270483
 21
86.70871718804262
 31
0.0
  0
LINE
  5
8D3
330
1E
100
AcDbEntity
  8
0
100
AcDbLine
 10
6.808356832871407
 20
86.70871718804262
 30
0.0
 11
6.808356832871407
 21
86.70871718804262
 31
0.0
  0
LINE
  5
8D4
330
1E
100
AcDbEntity
  8
0
100
AcDbLine
 10
6.867415800270483
 20
86.70871718804262
 30
0.0
 11
6.808356832871407
 21
86.70871718804262
 31
0.0
  0
LINE
  5
8D5
330
1E
100
AcDbEntity
  8
0
100
AcDbLine
 10
6.946161090135912
 20
86.70871718804262
 30
0.0
 11
6.946161090135912
 21
86.70871718804262
 31
0.0
  0
LINE
  5
8D6
330
1E
100
AcDbEntity
  8
0
100
AcDbLine
 10
6.906788445203189
 20
86.70871718804262
 30
0.0
 11
6.906788445203189
 21
86.70871718804262
 31
0.0
  0
LINE
  5
8D7
330
1E
100
AcDbEntity
  8
0
100
AcDbLine
 10
6.946161090135912
 20
86.70871718804262
 30
0.0
 11
6.906788445203189
 21
86.70871718804262
 31
0.0
  0
LINE
  5
8D8
330
1E
100
AcDbEntity
  8
0
100
AcDbLine
 10
6.906788445203189
 20
86.70871718804262
 30
0.0
 11
6.906788445203189
 21
86.70871718804262
 31
0.0
  0
LINE
  5
8D9
330
1E
100
AcDbEntity
  8
0
100
AcDbLine
 10
6.887102122736837
 20
86.70871718804262
 30
0.0
 11
6.887102122736837
 21
86.70871718804262
 31
0.0
  0
LINE
  5
8DA
330
1E
100
AcDbEntity
  8
0
100
AcDbLine
 10
6.906788445203189
 20
86.70871718804262
 30
0.0
 11
6.887102122736837
 21
86.70871718804262
 31
0.0
  0
LINE
  5
8DB
330
1E
100
AcDbEntity
  8
0
100
AcDbLine
 10
6.867415800270483
 20
86.70871718804262
 30
0.0
 11
6.887102122736837
 21
86.70871718804262
 31
0.0
  0
LINE
  5
8DC
330
1E
100
AcDbEntity
  8
0
100
AcDbLine
 10
7.320201216996705
 20
86.70871718804262
 30
0.0
 11
7.280828572063982
 21
86.70871718804262
 31
0.0
  0
LINE
  5
8DD
330
1E
100
AcDbEntity
  8
0
100
AcDbLine
 10
7.339887539463058
 20
86.70871718804262
 30
0.0
 11
7.320201216996705
 21
86.70871718804262
 31
0.0
  0
LINE
  5
8DE
330
1E
100
AcDbEntity
  8
0
100
AcDbLine
 10
5.528745872558187
 20
86.72840351050894
 30
0.0
 11
5.528745872558187
 21
86.72840351050894
 31
0.0
  0
LINE
  5
8DF
330
1E
100
AcDbEntity
  8
0
100
AcDbLine
 10
7.398946506862135
 20
86.72840351050894
 30
0.0
 11
7.398946506862135
 21
86.72840351050894
 31
0.0
  0
LINE
  5
8E0
330
1E
100
AcDbEntity
  8
0
100
AcDbLine
 10
5.528745872558187
 20
86.72840351050894
 30
0.0
 11
7.398946506862135
 21
86.72840351050894
 31
0.0
  0
LINE
  5
8E1
330
1E
100
AcDbEntity
  8
0
100
AcDbLine
 10
7.379260184395764
 20
86.70871718804262
 30
0.0
 11
5.54843219502454
 21
86.70871718804262
 31
0.0
  0
LINE
  5
8E2
330
1E
100
AcDbEntity
  8
0
100
AcDbLine
 10
5.528745872558187
 20
86.72840351050894
 30
0.0
 11
5.54843219502454
 21
86.70871718804262
 31
0.0
  0
LINE
  5
8E3
330
1E
100
AcDbEntity
  8
0
100
AcDbLine
 10
7.398946506862135
 20
86.72840351050894
 30
0.0
 11
7.379260184395764
 21
86.70871718804262
 31
0.0
  0
LINE
  5
8E4
330
1E
100
AcDbEntity
  8
0
100
AcDbLine
 10
34.48732622056979
 20
34.3824720724648
 30
0.0
 11
34.46763989810344
 21
34.3824720724648
 31
0.0
  0
LINE
  5
8E5
330
1E
100
AcDbEntity
  8
0
100
AcDbLine
 10
34.46763989810344
 20
34.12654988040215
 30
0.0
 11
34.48732622056979
 21
34.12654988040215
 31
0.0
  0
LINE
  5
8E6
330
1E
100
AcDbEntity
  8
0
100
AcDbLine
 10
33.99516815891086
 20
78.20422588257622
 30
0.0
 11
33.99516815891086
 21
77.79081311078272
 31
0.0
  0
LINE
  5
8E7
330
1E
100
AcDbEntity
  8
0
100
AcDbLine
 10
34.31014931837259
 20
77.79081311078272
 30
0.0
 11
34.31014931837259
 21
78.20422588257622
 31
0.0
  0
LINE
  5
8E8
330
1E
100
AcDbEntity
  8
0
100
AcDbLine
 10
34.29046299590623
 20
78.24359852750894
 30
0.0
 11
34.23140402850715
 21
78.32234381737436
 31
0.0
  0
LINE
  5
8E9
330
1E
100
AcDbEntity
  8
0
100
AcDbLine
 10
34.0739134487763
 20
78.32234381737436
 30
0.0
 11
34.01485448137722
 21
78.24359852750894
 31
0.0
  0
LINE
  5
8EA
330
1E
100
AcDbEntity
  8
0
100
AcDbLine
 10
34.48732622056979
 20
40.78052687403093
 30
0.0
 11
34.46763989810344
 21
40.78052687403093
 31
0.0
  0
LINE
  5
8EB
330
1E
100
AcDbEntity
  8
0
100
AcDbLine
 10
34.46763989810344
 20
40.52460468196828
 30
0.0
 11
34.48732622056979
 21
40.52460468196828
 31
0.0
  0
LINE
  5
8EC
330
1E
100
AcDbEntity
  8
0
100
AcDbLine
 10
34.48732622056979
 20
77.4167729839219
 30
0.0
 11
34.46763989810344
 21
77.4167729839219
 31
0.0
  0
LINE
  5
8ED
330
1E
100
AcDbEntity
  8
0
100
AcDbLine
 10
34.46763989810344
 20
77.1608507918593
 30
0.0
 11
34.48732622056979
 21
77.1608507918593
 31
0.0
  0
LINE
  5
8EE
330
1E
100
AcDbEntity
  8
0
100
AcDbLine
 10
34.31014931837259
 20
-3.316835450609497
 30
0.0
 11
34.31014931837259
 21
-2.883736356349628
 31
0.0
  0
LINE
  5
8EF
330
1E
100
AcDbEntity
  8
0
100
AcDbLine
 10
33.99516815891086
 20
-2.883736356349628
 30
0.0
 11
33.99516815891086
 21
-3.316835450609497
 31
0.0
  0
LINE
  5
8F0
330
1E
100
AcDbEntity
  8
0
100
AcDbLine
 10
34.01485448137722
 20
-3.356208095542203
 30
0.0
 11
34.0739134487763
 21
-3.415267062941279
 31
0.0
  0
LINE
  5
8F1
330
1E
100
AcDbEntity
  8
0
100
AcDbLine
 10
34.23140402850715
 20
-3.415267062941279
 30
0.0
 11
34.29046299590623
 21
-3.356208095542203
 31
0.0
  0
LINE
  5
8F2
330
1E
100
AcDbEntity
  8
0
100
AcDbLine
 10
34.48732622056979
 20
-2.273460359892565
 30
0.0
 11
34.46763989810344
 21
-2.273460359892565
 31
0.0
  0
LINE
  5
8F3
330
1E
100
AcDbEntity
  8
0
100
AcDbLine
 10
34.46763989810344
 20
-2.509696229488852
 30
0.0
 11
34.48732622056979
 21
-2.509696229488852
 31
0.0
  0
LINE
  5
8F4
330
1E
100
AcDbEntity
  8
0
100
AcDbLine
 10
32.87304777832851
 20
77.73175414338365
 30
0.0
 11
32.87304777832851
 21
77.73175414338365
 31
0.0
  0
LINE
  5
8F5
330
1E
100
AcDbEntity
  8
0
100
AcDbLine
 10
32.87304777832851
 20
77.81049943324908
 30
0.0
 11
32.87304777832851
 21
77.81049943324908
 31
0.0
  0
LWPOLYLINE
  5
8F6
330
1E
100
AcDbEntity
  8
0
100
AcDbPolyline
 90
        3
 70
     0
 43
0.0
 10
34.50701254303616
 20
34.34309942753208
 10
34.50701254303616
 20
34.36278574999843
 10
34.48732622056979
 20
34.3824720724648
  0
LWPOLYLINE
  5
8FB
330
1E
100
AcDbEntity
  8
0
100
AcDbPolyline
 90
        3
 70
     0
 43
0.0
 10
34.48732622056979
 20
34.12654988040215
 10
34.50701254303616
 20
34.12654988040215
 10
34.50701254303616
 20
34.1462362028685
  0
LWPOLYLINE
  5
900
330
1E
100
AcDbEntity
  8
0
100
AcDbPolyline
 90
        3
 70
     0
 43
0.0
 10
34.01485448137723
 20
78.24359852750895
 10
33.99516815891087
 20
78.22391220504261
 10
33.99516815891087
 20
78.20422588257625
  0
LWPOLYLINE
  5
905
330
1E
100
AcDbEntity
  8
0
100
AcDbPolyline
 90
        3
 70
     0
 43
0.0
 10
34.31014931837259
 20
78.20422588257625
 10
34.31014931837259
 20
78.22391220504261
 10
34.29046299590623
 20
78.24359852750895
  0
LWPOLYLINE
  5
90A
330
1E
100
AcDbEntity
  8
0
100
AcDbPolyline
 90
        3
 70
     0
 43
0.0
 10
34.11328609370903
 20
78.32234381737436
 10
34.09359977124266
 20
78.32234381737436
 10
34.0739134487763
 20
78.32234381737436
  0
LWPOLYLINE
  5
90F
330
1E
100
AcDbEntity
  8
0
100
AcDbPolyline
 90
        3
 70
     0
 43
0.0
 10
34.23140402850715
 20
78.32234381737436
 10
34.2117177060408
 20
78.32234381737436
 10
34.19203138357445
 20
78.32234381737436
  0
LWPOLYLINE
  5
914
330
1E
100
AcDbEntity
  8
0
100
AcDbPolyline
 90
        3
 70
     0
 43
0.0
 10
34.50701254303616
 20
40.74115422909822
 10
34.50701254303616
 20
40.76084055156457
 10
34.48732622056979
 20
40.78052687403093
  0
LWPOLYLINE
  5
919
330
1E
100
AcDbEntity
  8
0
100
AcDbPolyline
 90
        3
 70
     0
 43
0.0
 10
34.48732622056979
 20
40.52460468196828
 10
34.50701254303616
 20
40.54429100443463
 10
34.50701254303616
 20
40.563977326901
  0
LINE
  5
91E
330
1E
100
AcDbEntity
  8
0
100
AcDbLine
 10
33.16834261532386
 20
38.31973656573627
 30
0.0
 11
33.18802893779022
 21
38.31973656573627
 31
0.0
  0
LINE
  5
91F
330
1E
100
AcDbEntity
  8
0
100
AcDbLine
 10
33.18802893779022
 20
40.05213294277571
 30
0.0
 11
33.16834261532386
 21
40.05213294277571
 31
0.0
  0
LWPOLYLINE
  5
920
330
1E
100
AcDbEntity
  8
0
100
AcDbPolyline
 90
        3
 70
     0
 43
0.0
 10
34.50701254303616
 20
77.39708666145556
 10
34.50701254303616
 20
77.41677298392191
 10
34.48732622056979
 20
77.41677298392191
  0
LWPOLYLINE
  5
925
330
1E
100
AcDbEntity
  8
0
100
AcDbPolyline
 90
        3
 70
     0
 43
0.0
 10
34.48732622056979
 20
77.16085079185929
 10
34.50701254303616
 20
77.18053711432564
 10
34.50701254303616
 20
77.200223436792
  0
LWPOLYLINE
  5
92A
330
1E
100
AcDbEntity
  8
0
100
AcDbPolyline
 90
        3
 70
     0
 43
0.0
 10
34.29046299590623
 20
-3.356208095542204
 10
34.31014931837259
 20
-3.336521773075848
 10
34.31014931837259
 20
-3.316835450609496
  0
LWPOLYLINE
  5
92F
330
1E
100
AcDbEntity
  8
0
100
AcDbPolyline
 90
        3
 70
     0
 43
0.0
 10
33.99516815891087
 20
-3.316835450609496
 10
33.99516815891087
 20
-3.336521773075848
 10
34.01485448137723
 20
-3.356208095542204
  0
LWPOLYLINE
  5
934
330
1E
100
AcDbEntity
  8
0
100
AcDbPolyline
 90
        3
 70
     0
 43
0.0
 10
34.19203138357445
 20
-3.434953385407632
 10
34.2117177060408
 20
-3.434953385407632
 10
34.23140402850715
 20
-3.41526706294128
  0
LWPOLYLINE
  5
939
330
1E
100
AcDbEntity
  8
0
100
AcDbPolyline
 90
        3
 70
     0
 43
0.0
 10
34.0739134487763
 20
-3.41526706294128
 10
34.09359977124266
 20
-3.434953385407632
 10
34.11328609370903
 20
-3.434953385407632
  0
LWPOLYLINE
  5
93E
330
1E
100
AcDbEntity
  8
0
100
AcDbPolyline
 90
        3
 70
     0
 43
0.0
 10
33.18802893779023
 20
36.58734018869682
 10
33.16834261532387
 20
36.58734018869682
 10
33.16834261532387
 20
36.56765386623045
  0
LINE
  5
943
330
1E
100
AcDbEntity
  8
0
100
AcDbLine
 10
33.16834261532386
 20
34.85494381165738
 30
0.0
 11
33.18802893779022
 21
34.85494381165738
 31
0.0
  0
LWPOLYLINE
  5
944
330
1E
100
AcDbEntity
  8
0
100
AcDbPolyline
 90
        3
 70
     0
 43
0.0
 10
34.50701254303616
 20
-2.293146682358918
 10
34.50701254303616
 20
-2.273460359892563
 10
34.48732622056979
 20
-2.273460359892563
  0
LWPOLYLINE
  5
949
330
1E
100
AcDbEntity
  8
0
100
AcDbPolyline
 90
        3
 70
     0
 43
0.0
 10
34.48732622056979
 20
-2.509696229488853
 10
34.50701254303616
 20
-2.509696229488853
 10
34.50701254303616
 20
-2.490009907022479
  0
LINE
  5
94E
330
1E
100
AcDbEntity
  8
0
100
AcDbLine
 10
33.18802893779022
 20
38.31973656573627
 30
0.0
 11
33.18802893779022
 21
38.31973656573627
 31
0.0
  0
LINE
  5
94F
330
1E
100
AcDbEntity
  8
0
100
AcDbLine
 10
33.20771526025657
 20
40.05213294277571
 30
0.0
 11
33.18802893779022
 21
40.05213294277571
 31
0.0
  0
LINE
  5
950
330
1E
100
AcDbEntity
  8
0
100
AcDbLine
 10
33.20771526025657
 20
36.58734018869682
 30
0.0
 11
33.18802893779022
 21
36.58734018869682
 31
0.0
  0
LWPOLYLINE
  5
951
330
1E
100
AcDbEntity
  8
0
100
AcDbPolyline
 90
        3
 70
     0
 43
0.0
 10
33.18802893779023
 20
34.85494381165738
 10
33.18802893779023
 20
34.83525748919101
 10
33.20771526025657
 20
34.83525748919101
  0
LWPOLYLINE
  5
956
330
1E
100
AcDbEntity
  8
0
100
AcDbPolyline
 90
        3
 70
     0
 43
0.0
 10
34.38889460823801
 20
37.94569643887547
 10
34.38889460823801
 20
37.96538276134183
 10
34.38889460823801
 20
37.9850690838082
  0
LINE
  5
95B
330
1E
100
AcDbEntity
  8
0
100
AcDbLine
 10
34.46763989810344
 20
-2.844363711416922
 30
0.0
 11
34.46763989810344
 21
37.94569643887547
 31
0.0
  0
LWPOLYLINE
  5
95C
330
1E
100
AcDbEntity
  8
0
100
AcDbPolyline
 90
        3
 70
     0
 43
0.0
 10
34.38889460823801
 20
37.94569643887547
 10
34.44795357563709
 20
37.94569643887547
 10
34.46763989810344
 20
37.94569643887547
  0
LINE
  5
961
330
1E
100
AcDbEntity
  8
0
100
AcDbLine
 10
34.38889460823801
 20
-2.844363711416922
 30
0.0
 11
34.38889460823801
 21
37.94569643887547
 31
0.0
  0
LWPOLYLINE
  5
962
330
1E
100
AcDbEntity
  8
0
100
AcDbPolyline
 90
        3
 70
     0
 43
0.0
 10
34.38889460823801
 20
-2.84436371141692
 10
34.44795357563709
 20
-2.84436371141692
 10
34.46763989810344
 20
-2.84436371141692
  0
LINE
  5
967
330
1E
100
AcDbEntity
  8
0
100
AcDbLine
 10
34.46763989810344
 20
38.06381437367363
 30
0.0
 11
34.46763989810344
 21
77.75144046584998
 31
0.0
  0
LINE
  5
968
330
1E
100
AcDbEntity
  8
0
100
AcDbLine
 10
33.71955964438187
 20
77.75144046584998
 30
0.0
 11
33.71955964438187
 21
78.73575658916786
 31
0.0
  0
LWPOLYLINE
  5
969
330
1E
100
AcDbEntity
  8
0
100
AcDbPolyline
 90
        4
 70
     0
 43
0.0
 10
33.71955964438187
 20
78.73575658916788
 10
33.6998733219155
 20
78.81450187903329
 10
33.6605006769828
 20
78.85387452396603
 10
33.58175538711737
 20
78.87356084643238
  0
LINE
  5
96F
330
1E
100
AcDbEntity
  8
0
100
AcDbLine
 10
33.54238274218465
 20
78.87356084643238
 30
0.0
 11
33.58175538711737
 21
78.87356084643238
 31
0.0
  0
LINE
  5
970
330
1E
100
AcDbEntity
  8
0
100
AcDbLine
 10
33.54238274218465
 20
40.05213294277571
 30
0.0
 11
33.54238274218465
 21
78.87356084643238
 31
0.0
  0
LINE
  5
971
330
1E
100
AcDbEntity
  8
0
100
AcDbLine
 10
33.54238274218465
 20
36.58734018869682
 30
0.0
 11
33.54238274218465
 21
38.30005024326991
 31
0.0
  0
LINE
  5
972
330
1E
100
AcDbEntity
  8
0
100
AcDbLine
 10
33.54238274218465
 20
-3.966484091999284
 30
0.0
 11
33.54238274218465
 21
34.83525748919101
 31
0.0
  0
LINE
  5
973
330
1E
100
AcDbEntity
  8
0
100
AcDbLine
 10
33.54238274218465
 20
-3.966484091999284
 30
0.0
 11
33.58175538711737
 21
-3.966484091999284
 31
0.0
  0
LWPOLYLINE
  5
974
330
1E
100
AcDbEntity
  8
0
100
AcDbPolyline
 90
        4
 70
     0
 43
0.0
 10
33.58175538711737
 20
-3.966484091999282
 10
33.6605006769828
 20
-3.94679776953293
 10
33.6998733219155
 20
-3.907425124600223
 10
33.71955964438187
 20
-3.848366157201149
  0
LINE
  5
97A
330
1E
100
AcDbEntity
  8
0
100
AcDbLine
 10
33.71955964438187
 20
-2.844363711416922
 30
0.0
 11
33.71955964438187
 21
-3.848366157201148
 31
0.0
  0
LINE
  5
97B
330
1E
100
AcDbEntity
  8
0
100
AcDbLine
 10
34.38889460823801
 20
-2.844363711416922
 30
0.0
 11
33.71955964438187
 21
-2.844363711416922
 31
0.0
  0
LINE
  5
97C
330
1E
100
AcDbEntity
  8
0
100
AcDbLine
 10
34.38889460823801
 20
38.06381437367363
 30
0.0
 11
34.38889460823801
 21
37.94569643887547
 31
0.0
  0
LINE
  5
97D
330
1E
100
AcDbEntity
  8
0
100
AcDbLine
 10
34.38889460823801
 20
38.06381437367363
 30
0.0
 11
34.38889460823801
 21
77.75144046584998
 31
0.0
  0
LINE
  5
97E
330
1E
100
AcDbEntity
  8
0
100
AcDbLine
 10
34.38889460823801
 20
77.75144046584998
 30
0.0
 11
33.71955964438187
 21
77.75144046584998
 31
0.0
  0
LINE
  5
97F
330
1E
100
AcDbEntity
  8
0
100
AcDbLine
 10
33.46363745231921
 20
36.58734018869682
 30
0.0
 11
33.46363745231921
 21
38.30005024326991
 31
0.0
  0
LINE
  5
980
330
1E
100
AcDbEntity
  8
0
100
AcDbLine
 10
33.46363745231921
 20
40.05213294277571
 30
0.0
 11
33.46363745231921
 21
78.87356084643238
 31
0.0
  0
LINE
  5
981
330
1E
100
AcDbEntity
  8
0
100
AcDbLine
 10
32.91242042326121
 20
78.87356084643238
 30
0.0
 11
33.46363745231921
 21
78.87356084643238
 31
0.0
  0
LINE
  5
982
330
1E
100
AcDbEntity
  8
0
100
AcDbLine
 10
32.91242042326121
 20
-3.966484091999284
 30
0.0
 11
32.91242042326121
 21
78.87356084643238
 31
0.0
  0
LINE
  5
983
330
1E
100
AcDbEntity
  8
0
100
AcDbLine
 10
32.91242042326121
 20
-3.966484091999284
 30
0.0
 11
33.46363745231921
 21
-3.966484091999284
 31
0.0
  0
LINE
  5
984
330
1E
100
AcDbEntity
  8
0
100
AcDbLine
 10
33.46363745231921
 20
-3.966484091999284
 30
0.0
 11
33.46363745231921
 21
34.83525748919101
 31
0.0
  0
LWPOLYLINE
  5
985
330
1E
100
AcDbEntity
  8
0
100
AcDbPolyline
 90
        3
 70
     0
 43
0.0
 10
33.46363745231922
 20
78.87356084643238
 10
33.50301009725194
 20
78.87356084643238
 10
33.54238274218465
 20
78.87356084643238
  0
LWPOLYLINE
  5
98A
330
1E
100
AcDbEntity
  8
0
100
AcDbPolyline
 90
        3
 70
     0
 43
0.0
 10
33.46363745231922
 20
-3.966484091999282
 10
33.50301009725194
 20
-3.966484091999282
 10
33.54238274218465
 20
-3.966484091999282
  0
LINE
  5
98F
330
1E
100
AcDbEntity
  8
0
100
AcDbLine
 10
32.91242042326121
 20
-3.966484091999284
 30
0.0
 11
32.91242042326121
 21
78.87356084643238
 31
0.0
  0
LWPOLYLINE
  5
990
330
1E
100
AcDbEntity
  8
0
100
AcDbPolyline
 90
        3
 70
     0
 43
0.0
 10
34.38889460823801
 20
77.75144046584998
 10
34.44795357563709
 20
77.75144046584998
 10
34.46763989810344
 20
77.75144046584998
  0
LWPOLYLINE
  5
995
330
1E
100
AcDbEntity
  8
0
100
AcDbPolyline
 90
        3
 70
     0
 43
0.0
 10
34.46763989810344
 20
38.06381437367363
 10
34.44795357563709
 20
38.06381437367363
 10
34.38889460823801
 20
38.06381437367363
  0
LWPOLYLINE
  5
99A
330
1E
100
AcDbEntity
  8
0
100
AcDbPolyline
 90
        3
 70
     0
 43
0.0
 10
34.40858093070437
 20
77.75144046584998
 10
34.38889460823801
 20
77.79081311078272
 10
34.34952196330531
 20
77.79081311078272
  0
LINE
  5
99F
330
1E
100
AcDbEntity
  8
0
100
AcDbLine
 10
34.3495219633053
 20
77.79081311078272
 30
0.0
 11
34.3495219633053
 21
77.75144046584998
 31
0.0
  0
LINE
  5
9A0
330
1E
100
AcDbEntity
  8
0
100
AcDbLine
 10
34.3495219633053
 20
77.79081311078272
 30
0.0
 11
33.73924596684823
 21
77.79081311078272
 31
0.0
  0
LINE
  5
9A1
330
1E
100
AcDbEntity
  8
0
100
AcDbLine
 10
33.73924596684823
 20
77.79081311078272
 30
0.0
 11
33.73924596684823
 21
77.75144046584998
 31
0.0
  0
LINE
  5
9A2
330
1E
100
AcDbEntity
  8
0
100
AcDbLine
 10
33.71955964438187
 20
77.79081311078272
 30
0.0
 11
33.73924596684823
 21
77.79081311078272
 31
0.0
  0
LINE
  5
9A3
330
1E
100
AcDbEntity
  8
0
100
AcDbLine
 10
34.3495219633053
 20
-2.844363711416922
 30
0.0
 11
34.3495219633053
 21
-2.883736356349628
 31
0.0
  0
LWPOLYLINE
  5
9A4
330
1E
100
AcDbEntity
  8
0
100
AcDbPolyline
 90
        3
 70
     0
 43
0.0
 10
34.40858093070437
 20
-2.84436371141692
 10
34.38889460823801
 20
-2.883736356349627
 10
34.34952196330531
 20
-2.883736356349627
  0
LINE
  5
9A9
330
1E
100
AcDbEntity
  8
0
100
AcDbLine
 10
33.73924596684823
 20
-2.844363711416922
 30
0.0
 11
33.73924596684823
 21
-2.883736356349628
 31
0.0
  0
LINE
  5
9AA
330
1E
100
AcDbEntity
  8
0
100
AcDbLine
 10
34.3495219633053
 20
-2.883736356349628
 30
0.0
 11
33.73924596684823
 21
-2.883736356349628
 31
0.0
  0
LINE
  5
9AB
330
1E
100
AcDbEntity
  8
0
100
AcDbLine
 10
33.73924596684823
 20
-2.883736356349628
 30
0.0
 11
33.71955964438187
 21
-2.883736356349628
 31
0.0
  0
LWPOLYLINE
  5
9AC
330
1E
100
AcDbEntity
  8
0
100
AcDbPolyline
 90
        6
 70
     0
 43
0.0
 10
34.50701254303616
 20
77.39708666145556
 10
34.50701254303616
 20
77.3774003389892
 10
34.50701254303616
 20
77.31834137159015
 10
34.50701254303616
 20
77.25928240419108
 10
34.50701254303616
 20
77.21990975925834
 10
34.50701254303616
 20
77.200223436792
  0
LWPOLYLINE
  5
9B4
330
1E
100
AcDbEntity
  8
0
100
AcDbPolyline
 90
        7
 70
     0
 43
0.0
 10
34.48732622056979
 20
77.16085079185929
 10
34.48732622056979
 20
77.18053711432564
 10
34.48732622056979
 20
77.2395960817247
 10
34.48732622056979
 20
77.29865504912379
 10
34.48732622056979
 20
77.35771401652286
 10
34.48732622056979
 20
77.39708666145556
 10
34.48732622056979
 20
77.41677298392191
  0
LWPOLYLINE
  5
9BD
330
1E
100
AcDbEntity
  8
0
100
AcDbPolyline
 90
        6
 70
     0
 43
0.0
 10
34.50701254303616
 20
40.74115422909822
 10
34.50701254303616
 20
40.72146790663186
 10
34.50701254303616
 20
40.68209526169914
 10
34.50701254303616
 20
40.62303629430006
 10
34.50701254303616
 20
40.58366364936736
 10
34.50701254303616
 20
40.563977326901
  0
LWPOLYLINE
  5
9C5
330
1E
100
AcDbEntity
  8
0
100
AcDbPolyline
 90
        7
 70
     0
 43
0.0
 10
34.48732622056979
 20
40.52460468196828
 10
34.48732622056979
 20
40.54429100443463
 10
34.48732622056979
 20
40.58366364936736
 10
34.48732622056979
 20
40.66240893923279
 10
34.48732622056979
 20
40.72146790663186
 10
34.48732622056979
 20
40.76084055156457
 10
34.48732622056979
 20
40.78052687403093
  0
LWPOLYLINE
  5
9CE
330
1E
100
AcDbEntity
  8
0
100
AcDbPolyline
 90
        6
 70
     0
 43
0.0
 10
34.50701254303616
 20
34.34309942753208
 10
34.50701254303616
 20
34.32341310506572
 10
34.50701254303616
 20
34.284040460133
 10
34.50701254303616
 20
34.22498149273392
 10
34.50701254303616
 20
34.16592252533487
 10
34.50701254303616
 20
34.1462362028685
  0
LWPOLYLINE
  5
9D6
330
1E
100
AcDbEntity
  8
0
100
AcDbPolyline
 90
        7
 70
     0
 43
0.0
 10
34.48732622056979
 20
34.12654988040215
 10
34.48732622056979
 20
34.1462362028685
 10
34.48732622056979
 20
34.18560884780122
 10
34.48732622056979
 20
34.24466781520029
 10
34.48732622056979
 20
34.30372678259937
 10
34.48732622056979
 20
34.36278574999843
 10
34.48732622056979
 20
34.3824720724648
  0
LWPOLYLINE
  5
9DF
330
1E
100
AcDbEntity
  8
0
100
AcDbPolyline
 90
        6
 70
     0
 43
0.0
 10
34.50701254303616
 20
-2.293146682358918
 10
34.50701254303616
 20
-2.31283300482527
 10
34.50701254303616
 20
-2.352205649757992
 10
34.50701254303616
 20
-2.411264617157051
 10
34.50701254303616
 20
-2.470323584556128
 10
34.50701254303616
 20
-2.490009907022479
  0
LWPOLYLINE
  5
9E7
330
1E
100
AcDbEntity
  8
0
100
AcDbPolyline
 90
        6
 70
     0
 43
0.0
 10
34.48732622056979
 20
-2.509696229488853
 10
34.48732622056979
 20
-2.490009907022479
 10
34.48732622056979
 20
-2.450637262089776
 10
34.48732622056979
 20
-2.391578294690699
 10
34.48732622056979
 20
-2.332519327291622
 10
34.48732622056979
 20
-2.273460359892563
  0
LWPOLYLINE
  5
9EF
330
1E
100
AcDbEntity
  8
0
100
AcDbPolyline
 90
        4
 70
     0
 43
0.0
 10
34.19203138357445
 20
-3.434953385407632
 10
34.17234506110808
 20
-3.434953385407632
 10
34.13297241617538
 20
-3.434953385407632
 10
34.11328609370903
 20
-3.434953385407632
  0
LWPOLYLINE
  5
9F5
330
1E
100
AcDbEntity
  8
0
100
AcDbPolyline
 90
        4
 70
     0
 43
0.0
 10
34.15265873864172
 20
-3.316835450609496
 10
34.23140402850715
 20
-3.316835450609496
 10
34.29046299590623
 20
-3.316835450609496
 10
34.31014931837259
 20
-3.316835450609496
  0
LWPOLYLINE
  5
9FB
330
1E
100
AcDbEntity
  8
0
100
AcDbPolyline
 90
        4
 70
     0
 43
0.0
 10
33.99516815891087
 20
-3.316835450609496
 10
34.01485448137723
 20
-3.316835450609496
 10
34.0739134487763
 20
-3.316835450609496
 10
34.15265873864172
 20
-3.316835450609496
  0
LWPOLYLINE
  5
A01
330
1E
100
AcDbEntity
  8
0
100
AcDbPolyline
 90
        3
 70
     0
 43
0.0
 10
34.15265873864172
 20
-3.41526706294128
 10
34.2117177060408
 20
-3.41526706294128
 10
34.23140402850715
 20
-3.41526706294128
  0
LWPOLYLINE
  5
A06
330
1E
100
AcDbEntity
  8
0
100
AcDbPolyline
 90
        3
 70
     0
 43
0.0
 10
34.0739134487763
 20
-3.41526706294128
 10
34.09359977124266
 20
-3.41526706294128
 10
34.15265873864172
 20
-3.41526706294128
  0
LWPOLYLINE
  5
A0B
330
1E
100
AcDbEntity
  8
0
100
AcDbPolyline
 90
        7
 70
     0
 43
0.0
 10
34.29046299590623
 20
-3.356208095542204
 10
34.27077667343988
 20
-3.356208095542204
 10
34.23140402850715
 20
-3.356208095542204
 10
34.15265873864172
 20
-3.356208095542204
 10
34.0739134487763
 20
-3.356208095542204
 10
34.0345408038436
 20
-3.356208095542204
 10
34.01485448137723
 20
-3.356208095542204
  0
LWPOLYLINE
  5
A14
330
1E
100
AcDbEntity
  8
0
100
AcDbPolyline
 90
        3
 70
     0
 43
0.0
 10
34.15265873864172
 20
78.32234381737436
 10
34.17234506110808
 20
78.32234381737436
 10
34.19203138357445
 20
78.32234381737436
  0
LWPOLYLINE
  5
A19
330
1E
100
AcDbEntity
  8
0
100
AcDbPolyline
 90
        3
 70
     0
 43
0.0
 10
34.11328609370903
 20
78.32234381737436
 10
34.13297241617538
 20
78.32234381737436
 10
34.15265873864172
 20
78.32234381737436
  0
LWPOLYLINE
  5
A1E
330
1E
100
AcDbEntity
  8
0
100
AcDbPolyline
 90
        7
 70
     0
 43
0.0
 10
34.31014931837259
 20
78.20422588257625
 10
34.29046299590623
 20
78.20422588257625
 10
34.23140402850715
 20
78.20422588257625
 10
34.15265873864172
 20
78.20422588257625
 10
34.0739134487763
 20
78.20422588257625
 10
34.01485448137723
 20
78.20422588257625
 10
33.99516815891087
 20
78.20422588257625
  0
LWPOLYLINE
  5
A27
330
1E
100
AcDbEntity
  8
0
100
AcDbPolyline
 90
        5
 70
     0
 43
0.0
 10
34.23140402850715
 20
78.32234381737436
 10
34.2117177060408
 20
78.32234381737436
 10
34.15265873864172
 20
78.32234381737436
 10
34.09359977124266
 20
78.32234381737436
 10
34.0739134487763
 20
78.32234381737436
  0
LWPOLYLINE
  5
A2E
330
1E
100
AcDbEntity
  8
0
100
AcDbPolyline
 90
        4
 70
     0
 43
0.0
 10
34.15265873864172
 20
78.24359852750895
 10
34.23140402850715
 20
78.24359852750895
 10
34.27077667343988
 20
78.24359852750895
 10
34.29046299590623
 20
78.24359852750895
  0
LWPOLYLINE
  5
A34
330
1E
100
AcDbEntity
  8
0
100
AcDbPolyline
 90
        4
 70
     0
 43
0.0
 10
34.01485448137723
 20
78.24359852750895
 10
34.0345408038436
 20
78.24359852750895
 10
34.0739134487763
 20
78.24359852750895
 10
34.15265873864172
 20
78.24359852750895
  0
LINE
  5
A3A
330
1E
100
AcDbEntity
  8
0
100
AcDbLine
 10
33.64081435451645
 20
35.7211420001771
 30
0.0
 11
33.62112803205008
 21
34.89431645659008
 31
0.0
  0
LINE
  5
A3B
330
1E
100
AcDbEntity
  8
0
100
AcDbLine
 10
33.54238274218465
 20
34.85494381165738
 30
0.0
 11
33.54238274218465
 21
35.7211420001771
 31
0.0
  0
LINE
  5
A3C
330
1E
100
AcDbEntity
  8
0
100
AcDbLine
 10
33.54238274218465
 20
34.85494381165738
 30
0.0
 11
33.56206906465102
 21
34.85494381165738
 31
0.0
  0
LWPOLYLINE
  5
A3D
330
1E
100
AcDbEntity
  8
0
100
AcDbPolyline
 90
        3
 70
     0
 43
0.0
 10
33.56206906465102
 20
34.85494381165738
 10
33.58175538711737
 20
34.87463013412373
 10
33.60144170958373
 20
34.89431645659009
  0
LINE
  5
A42
330
1E
100
AcDbEntity
  8
0
100
AcDbLine
 10
33.60144170958372
 20
34.89431645659008
 30
0.0
 11
33.62112803205008
 21
35.7211420001771
 31
0.0
  0
LINE
  5
A43
330
1E
100
AcDbEntity
  8
0
100
AcDbLine
 10
33.54238274218465
 20
35.7211420001771
 30
0.0
 11
33.62112803205008
 21
35.7211420001771
 31
0.0
  0
LINE
  5
A44
330
1E
100
AcDbEntity
  8
0
100
AcDbLine
 10
33.40457848492016
 20
34.85494381165738
 30
0.0
 11
33.38489216245379
 21
35.68176935524437
 31
0.0
  0
LWPOLYLINE
  5
A45
330
1E
100
AcDbEntity
  8
0
100
AcDbPolyline
 90
        3
 70
     0
 43
0.0
 10
33.40457848492015
 20
34.85494381165738
 10
33.46363745231922
 20
34.85494381165738
 10
33.54238274218465
 20
34.85494381165738
  0
LWPOLYLINE
  5
A4A
330
1E
100
AcDbEntity
  8
0
100
AcDbPolyline
 90
        3
 70
     0
 43
0.0
 10
33.54238274218465
 20
35.7211420001771
 10
33.44395112985287
 20
35.7211420001771
 10
33.38489216245378
 20
35.7211420001771
  0
LWPOLYLINE
  5
A4F
330
1E
100
AcDbEntity
  8
0
100
AcDbPolyline
 90
        3
 70
     0
 43
0.0
 10
33.38489216245378
 20
35.68176935524437
 10
33.38489216245378
 20
35.70145567771073
 10
33.38489216245378
 20
35.7211420001771
  0
LINE
  5
A54
330
1E
100
AcDbEntity
  8
0
100
AcDbLine
 10
33.38489216245379
 20
35.68176935524437
 30
0.0
 11
33.38489216245379
 21
35.68176935524437
 31
0.0
  0
LINE
  5
A55
330
1E
100
AcDbEntity
  8
0
100
AcDbLine
 10
33.01085203559301
 20
35.7211420001771
 30
0.0
 11
33.01085203559301
 21
35.64239671031168
 31
0.0
  0
LINE
  5
A56
330
1E
100
AcDbEntity
  8
0
100
AcDbLine
 10
33.01085203559301
 20
35.64239671031168
 30
0.0
 11
33.10928364792479
 21
35.68176935524437
 31
0.0
  0
LINE
  5
A57
330
1E
100
AcDbEntity
  8
0
100
AcDbLine
 10
33.10928364792479
 20
35.68176935524437
 30
0.0
 11
33.12896997039115
 21
35.68176935524437
 31
0.0
  0
LINE
  5
A58
330
1E
100
AcDbEntity
  8
0
100
AcDbLine
 10
33.12896997039115
 20
35.68176935524437
 30
0.0
 11
33.36520583998744
 21
35.68176935524437
 31
0.0
  0
LINE
  5
A59
330
1E
100
AcDbEntity
  8
0
100
AcDbLine
 10
33.36520583998744
 20
35.68176935524437
 30
0.0
 11
33.38489216245379
 21
35.68176935524437
 31
0.0
  0
LINE
  5
A5A
330
1E
100
AcDbEntity
  8
0
100
AcDbLine
 10
33.38489216245379
 20
35.7211420001771
 30
0.0
 11
33.01085203559301
 21
35.7211420001771
 31
0.0
  0
LINE
  5
A5B
330
1E
100
AcDbEntity
  8
0
100
AcDbLine
 10
32.91242042326121
 20
35.62271038784531
 30
0.0
 11
32.91242042326121
 21
35.7211420001771
 31
0.0
  0
LWPOLYLINE
  5
A5C
330
1E
100
AcDbEntity
  8
0
100
AcDbPolyline
 90
        5
 70
     0
 43
0.0
 10
32.91242042326121
 20
35.6227103878453
 10
32.93210674572758
 20
35.6227103878453
 10
32.95179306819394
 20
35.6227103878453
 10
32.97147939066029
 20
35.64239671031167
 10
33.01085203559301
 20
35.64239671031167
  0
LWPOLYLINE
  5
A63
330
1E
100
AcDbEntity
  8
0
100
AcDbPolyline
 90
        5
 70
     0
 43
0.0
 10
33.01085203559301
 20
35.7211420001771
 10
32.97147939066029
 20
35.7211420001771
 10
32.95179306819394
 20
35.7211420001771
 10
32.93210674572758
 20
35.7211420001771
 10
32.91242042326121
 20
35.7211420001771
  0
LINE
  5
A6A
330
1E
100
AcDbEntity
  8
0
100
AcDbLine
 10
33.16834261532386
 20
34.85494381165738
 30
0.0
 11
33.14865629285749
 21
35.68176935524437
 31
0.0
  0
LINE
  5
A6B
330
1E
100
AcDbEntity
  8
0
100
AcDbLine
 10
33.18802893779022
 20
35.66208303277802
 30
0.0
 11
33.18802893779022
 21
34.85494381165738
 31
0.0
  0
LINE
  5
A6C
330
1E
100
AcDbEntity
  8
0
100
AcDbLine
 10
33.18802893779022
 20
34.85494381165738
 30
0.0
 11
33.40457848492016
 21
34.85494381165738
 31
0.0
  0
LINE
  5
A6D
330
1E
100
AcDbEntity
  8
0
100
AcDbLine
 10
33.38489216245379
 20
35.68176935524437
 30
0.0
 11
33.38489216245379
 21
35.66208303277802
 31
0.0
  0
LINE
  5
A6E
330
1E
100
AcDbEntity
  8
0
100
AcDbLine
 10
33.38489216245379
 20
35.66208303277802
 30
0.0
 11
33.18802893779022
 21
35.66208303277802
 31
0.0
  0
LINE
  5
A6F
330
1E
100
AcDbEntity
  8
0
100
AcDbLine
 10
33.36520583998744
 20
35.68176935524437
 30
0.0
 11
33.12896997039115
 21
35.68176935524437
 31
0.0
  0
LINE
  5
A70
330
1E
100
AcDbEntity
  8
0
100
AcDbLine
 10
33.36520583998744
 20
35.79988729004253
 30
0.0
 11
33.12896997039115
 21
35.79988729004253
 31
0.0
  0
LINE
  5
A71
330
1E
100
AcDbEntity
  8
0
100
AcDbLine
 10
33.12896997039115
 20
35.79988729004253
 30
0.0
 11
33.08959732545844
 21
35.78020096757616
 31
0.0
  0
LINE
  5
A72
330
1E
100
AcDbEntity
  8
0
100
AcDbLine
 10
33.12896997039115
 20
35.68176935524437
 30
0.0
 11
33.12896997039115
 21
35.66208303277802
 31
0.0
  0
LWPOLYLINE
  5
A73
330
1E
100
AcDbEntity
  8
0
100
AcDbPolyline
 90
        6
 70
     0
 43
0.0
 10
32.91242042326121
 20
35.7211420001771
 10
32.93210674572758
 20
35.7211420001771
 10
32.93210674572758
 20
35.74082832264345
 10
32.97147939066029
 20
35.74082832264345
 10
32.99116571312664
 20
35.7605146451098
 10
33.01085203559301
 20
35.7605146451098
  0
LINE
  5
A7B
330
1E
100
AcDbEntity
  8
0
100
AcDbLine
 10
33.08959732545844
 20
35.78020096757616
 30
0.0
 11
33.01085203559301
 21
35.7605146451098
 31
0.0
  0
LINE
  5
A7C
330
1E
100
AcDbEntity
  8
0
100
AcDbLine
 10
33.12896997039115
 20
35.66208303277802
 30
0.0
 11
33.03053835805936
 21
35.64239671031168
 31
0.0
  0
LWPOLYLINE
  5
A7D
330
1E
100
AcDbEntity
  8
0
100
AcDbPolyline
 90
        5
 70
     0
 43
0.0
 10
33.03053835805937
 20
35.64239671031167
 10
32.99116571312664
 20
35.6227103878453
 10
32.97147939066029
 20
35.6227103878453
 10
32.95179306819394
 20
35.60302406537894
 10
32.93210674572758
 20
35.60302406537894
  0
LINE
  5
A84
330
1E
100
AcDbEntity
  8
0
100
AcDbLine
 10
33.20771526025657
 20
36.58734018869682
 30
0.0
 11
33.20771526025657
 21
36.58734018869682
 31
0.0
  0
LINE
  5
A85
330
1E
100
AcDbEntity
  8
0
100
AcDbLine
 10
33.20771526025657
 20
36.58734018869682
 30
0.0
 11
33.42426480738651
 21
36.58734018869682
 31
0.0
  0
LWPOLYLINE
  5
A86
330
1E
100
AcDbEntity
  8
0
100
AcDbPolyline
 90
        3
 70
     0
 43
0.0
 10
33.42426480738651
 20
36.58734018869682
 10
33.46363745231922
 20
36.58734018869682
 10
33.54238274218465
 20
36.58734018869682
  0
LINE
  5
A8B
330
1E
100
AcDbEntity
  8
0
100
AcDbLine
 10
33.54238274218465
 20
36.58734018869682
 30
0.0
 11
33.56206906465102
 21
36.58734018869682
 31
0.0
  0
LINE
  5
A8C
330
1E
100
AcDbEntity
  8
0
100
AcDbLine
 10
33.56206906465102
 20
34.83525748919101
 30
0.0
 11
33.54238274218465
 21
34.83525748919101
 31
0.0
  0
LWPOLYLINE
  5
A8D
330
1E
100
AcDbEntity
  8
0
100
AcDbPolyline
 90
        3
 70
     0
 43
0.0
 10
33.54238274218465
 20
34.83525748919101
 10
33.46363745231922
 20
34.83525748919101
 10
33.42426480738651
 20
34.83525748919101
  0
LINE
  5
A92
330
1E
100
AcDbEntity
  8
0
100
AcDbLine
 10
33.42426480738651
 20
34.83525748919101
 30
0.0
 11
33.20771526025657
 21
34.83525748919101
 31
0.0
  0
LINE
  5
A93
330
1E
100
AcDbEntity
  8
0
100
AcDbLine
 10
33.20771526025657
 20
34.83525748919101
 30
0.0
 11
33.20771526025657
 21
34.83525748919101
 31
0.0
  0
LINE
  5
A94
330
1E
100
AcDbEntity
  8
0
100
AcDbLine
 10
33.62112803205008
 20
36.5479675437641
 30
0.0
 11
33.64081435451645
 21
35.7211420001771
 31
0.0
  0
LINE
  5
A95
330
1E
100
AcDbEntity
  8
0
100
AcDbLine
 10
33.14865629285749
 20
35.79988729004253
 30
0.0
 11
33.16834261532386
 21
36.56765386623045
 31
0.0
  0
LINE
  5
A96
330
1E
100
AcDbEntity
  8
0
100
AcDbLine
 10
33.38489216245379
 20
35.79988729004253
 30
0.0
 11
33.40457848492016
 21
36.58734018869682
 31
0.0
  0
LINE
  5
A97
330
1E
100
AcDbEntity
  8
0
100
AcDbLine
 10
33.40457848492016
 20
36.58734018869682
 30
0.0
 11
33.18802893779022
 21
36.58734018869682
 31
0.0
  0
LINE
  5
A98
330
1E
100
AcDbEntity
  8
0
100
AcDbLine
 10
33.18802893779022
 20
36.58734018869682
 30
0.0
 11
33.18802893779022
 21
35.79988729004253
 31
0.0
  0
LINE
  5
A99
330
1E
100
AcDbEntity
  8
0
100
AcDbLine
 10
33.18802893779022
 20
35.79988729004253
 30
0.0
 11
33.38489216245379
 21
35.79988729004253
 31
0.0
  0
LINE
  5
A9A
330
1E
100
AcDbEntity
  8
0
100
AcDbLine
 10
33.38489216245379
 20
35.79988729004253
 30
0.0
 11
33.38489216245379
 21
35.79988729004253
 31
0.0
  0
LINE
  5
A9B
330
1E
100
AcDbEntity
  8
0
100
AcDbLine
 10
33.62112803205008
 20
35.7211420001771
 30
0.0
 11
33.60144170958372
 21
36.5479675437641
 31
0.0
  0
LWPOLYLINE
  5
A9C
330
1E
100
AcDbEntity
  8
0
100
AcDbPolyline
 90
        3
 70
     0
 43
0.0
 10
33.60144170958373
 20
36.5479675437641
 10
33.58175538711737
 20
36.56765386623045
 10
33.56206906465102
 20
36.58734018869682
  0
LINE
  5
AA1
330
1E
100
AcDbEntity
  8
0
100
AcDbLine
 10
33.56206906465102
 20
36.58734018869682
 30
0.0
 11
33.54238274218465
 21
36.58734018869682
 31
0.0
  0
LINE
  5
AA2
330
1E
100
AcDbEntity
  8
0
100
AcDbLine
 10
33.54238274218465
 20
35.7211420001771
 30
0.0
 11
33.54238274218465
 21
36.58734018869682
 31
0.0
  0
LWPOLYLINE
  5
AA3
330
1E
100
AcDbEntity
  8
0
100
AcDbPolyline
 90
        3
 70
     0
 43
0.0
 10
33.54238274218465
 20
36.58734018869682
 10
33.46363745231922
 20
36.58734018869682
 10
33.40457848492015
 20
36.58734018869682
  0
LWPOLYLINE
  5
AA8
330
1E
100
AcDbEntity
  8
0
100
AcDbPolyline
 90
        3
 70
     0
 43
0.0
 10
33.38489216245378
 20
35.7211420001771
 10
33.38489216245378
 20
35.7605146451098
 10
33.38489216245378
 20
35.79988729004253
  0
LINE
  5
AAD
330
1E
100
AcDbEntity
  8
0
100
AcDbLine
 10
33.38489216245379
 20
35.79988729004253
 30
0.0
 11
33.36520583998744
 21
35.79988729004253
 31
0.0
  0
LINE
  5
AAE
330
1E
100
AcDbEntity
  8
0
100
AcDbLine
 10
33.01085203559301
 20
35.7605146451098
 30
0.0
 11
33.01085203559301
 21
35.7211420001771
 31
0.0
  0
LWPOLYLINE
  5
AAF
330
1E
100
AcDbEntity
  8
0
100
AcDbPolyline
 90
        3
 70
     0
 43
0.0
 10
33.62112803205007
 20
34.89431645659009
 10
33.60144170958373
 20
34.85494381165738
 10
33.56206906465102
 20
34.83525748919101
  0
LWPOLYLINE
  5
AB4
330
1E
100
AcDbEntity
  8
0
100
AcDbPolyline
 90
        3
 70
     0
 43
0.0
 10
33.56206906465102
 20
36.58734018869682
 10
33.60144170958373
 20
36.58734018869682
 10
33.62112803205007
 20
36.5479675437641
  0
LINE
  5
AB9
330
1E
100
AcDbEntity
  8
0
100
AcDbLine
 10
33.16834261532386
 20
35.68176935524437
 30
0.0
 11
33.18802893779022
 21
35.66208303277802
 31
0.0
  0
LINE
  5
ABA
330
1E
100
AcDbEntity
  8
0
100
AcDbLine
 10
33.38489216245379
 20
35.66208303277802
 30
0.0
 11
33.36520583998744
 21
35.68176935524437
 31
0.0
  0
LINE
  5
ABB
330
1E
100
AcDbEntity
  8
0
100
AcDbLine
 10
33.18802893779022
 20
35.79988729004253
 30
0.0
 11
33.16834261532386
 21
35.79988729004253
 31
0.0
  0
LINE
  5
ABC
330
1E
100
AcDbEntity
  8
0
100
AcDbLine
 10
33.38489216245379
 20
35.66208303277802
 30
0.0
 11
33.38489216245379
 21
35.68176935524437
 31
0.0
  0
LWPOLYLINE
  5
ABD
330
1E
100
AcDbEntity
  8
0
100
AcDbPolyline
 90
        3
 70
     0
 43
0.0
 10
33.12896997039114
 20
35.66208303277802
 10
33.12896997039114
 20
35.68176935524437
 10
33.10928364792479
 20
35.68176935524437
  0
LINE
  5
AC2
330
1E
100
AcDbEntity
  8
0
100
AcDbLine
 10
33.03053835805936
 20
35.64239671031168
 30
0.0
 11
33.01085203559301
 21
35.64239671031168
 31
0.0
  0
LINE
  5
AC3
330
1E
100
AcDbEntity
  8
0
100
AcDbLine
 10
32.93210674572758
 20
35.60302406537895
 30
0.0
 11
32.91242042326121
 21
35.62271038784531
 31
0.0
  0
LINE
  5
AC4
330
1E
100
AcDbEntity
  8
0
100
AcDbLine
 10
33.16834261532386
 20
35.68176935524437
 30
0.0
 11
33.18802893779022
 21
34.85494381165738
 31
0.0
  0
LINE
  5
AC5
330
1E
100
AcDbEntity
  8
0
100
AcDbLine
 10
33.18802893779022
 20
34.85494381165738
 30
0.0
 11
33.18802893779022
 21
34.85494381165738
 31
0.0
  0
LINE
  5
AC6
330
1E
100
AcDbEntity
  8
0
100
AcDbLine
 10
33.18802893779022
 20
36.58734018869682
 30
0.0
 11
33.18802893779022
 21
36.58734018869682
 31
0.0
  0
LINE
  5
AC7
330
1E
100
AcDbEntity
  8
0
100
AcDbLine
 10
33.18802893779022
 20
36.58734018869682
 30
0.0
 11
33.16834261532386
 21
35.79988729004253
 31
0.0
  0
LINE
  5
AC8
330
1E
100
AcDbEntity
  8
0
100
AcDbLine
 10
33.16834261532386
 20
34.85494381165738
 30
0.0
 11
33.18802893779022
 21
34.85494381165738
 31
0.0
  0
LWPOLYLINE
  5
AC9
330
1E
100
AcDbEntity
  8
0
100
AcDbPolyline
 90
        3
 70
     0
 43
0.0
 10
33.18802893779023
 20
36.58734018869682
 10
33.16834261532387
 20
36.58734018869682
 10
33.16834261532387
 20
36.56765386623045
  0
LINE
  5
ACE
330
1E
100
AcDbEntity
  8
0
100
AcDbLine
 10
33.60144170958372
 20
36.5479675437641
 30
0.0
 11
33.62112803205008
 21
36.5479675437641
 31
0.0
  0
LINE
  5
ACF
330
1E
100
AcDbEntity
  8
0
100
AcDbLine
 10
33.64081435451645
 20
35.7211420001771
 30
0.0
 11
33.62112803205008
 21
35.7211420001771
 31
0.0
  0
LINE
  5
AD0
330
1E
100
AcDbEntity
  8
0
100
AcDbLine
 10
33.62112803205008
 20
34.89431645659008
 30
0.0
 11
33.60144170958372
 21
34.89431645659008
 31
0.0
  0
LINE
  5
AD1
330
1E
100
AcDbEntity
  8
0
100
AcDbLine
 10
33.56206906465102
 20
34.83525748919101
 30
0.0
 11
33.56206906465102
 21
34.85494381165738
 31
0.0
  0
LINE
  5
AD2
330
1E
100
AcDbEntity
  8
0
100
AcDbLine
 10
33.54238274218465
 20
34.83525748919101
 30
0.0
 11
33.54238274218465
 21
34.85494381165738
 31
0.0
  0
LINE
  5
AD3
330
1E
100
AcDbEntity
  8
0
100
AcDbLine
 10
33.40457848492016
 20
36.58734018869682
 30
0.0
 11
33.42426480738651
 21
36.58734018869682
 31
0.0
  0
LINE
  5
AD4
330
1E
100
AcDbEntity
  8
0
100
AcDbLine
 10
33.42426480738651
 20
34.83525748919101
 30
0.0
 11
33.40457848492016
 21
34.85494381165738
 31
0.0
  0
LINE
  5
AD5
330
1E
100
AcDbEntity
  8
0
100
AcDbLine
 10
33.18802893779022
 20
36.58734018869682
 30
0.0
 11
33.20771526025657
 21
36.58734018869682
 31
0.0
  0
LINE
  5
AD6
330
1E
100
AcDbEntity
  8
0
100
AcDbLine
 10
33.20771526025657
 20
34.83525748919101
 30
0.0
 11
33.18802893779022
 21
34.85494381165738
 31
0.0
  0
LINE
  5
AD7
330
1E
100
AcDbEntity
  8
0
100
AcDbLine
 10
33.18802893779022
 20
36.58734018869682
 30
0.0
 11
33.20771526025657
 21
36.58734018869682
 31
0.0
  0
LINE
  5
AD8
330
1E
100
AcDbEntity
  8
0
100
AcDbLine
 10
33.20771526025657
 20
34.83525748919101
 30
0.0
 11
33.18802893779022
 21
34.85494381165738
 31
0.0
  0
LINE
  5
AD9
330
1E
100
AcDbEntity
  8
0
100
AcDbLine
 10
33.64081435451645
 20
39.18593475425598
 30
0.0
 11
33.62112803205008
 21
40.01276029784301
 31
0.0
  0
LINE
  5
ADA
330
1E
100
AcDbEntity
  8
0
100
AcDbLine
 10
33.54238274218465
 20
40.05213294277571
 30
0.0
 11
33.54238274218465
 21
39.18593475425598
 31
0.0
  0
LINE
  5
ADB
330
1E
100
AcDbEntity
  8
0
100
AcDbLine
 10
33.54238274218465
 20
39.18593475425598
 30
0.0
 11
33.62112803205008
 21
39.18593475425598
 31
0.0
  0
LINE
  5
ADC
330
1E
100
AcDbEntity
  8
0
100
AcDbLine
 10
33.60144170958372
 20
40.01276029784301
 30
0.0
 11
33.62112803205008
 21
39.18593475425598
 31
0.0
  0
LWPOLYLINE
  5
ADD
330
1E
100
AcDbEntity
  8
0
100
AcDbPolyline
 90
        3
 70
     0
 43
0.0
 10
33.56206906465102
 20
40.0521329427757
 10
33.58175538711737
 20
40.03244662030935
 10
33.60144170958373
 20
40.012760297843
  0
LINE
  5
AE2
330
1E
100
AcDbEntity
  8
0
100
AcDbLine
 10
33.54238274218465
 20
40.05213294277571
 30
0.0
 11
33.56206906465102
 21
40.05213294277571
 31
0.0
  0
LINE
  5
AE3
330
1E
100
AcDbEntity
  8
0
100
AcDbLine
 10
33.40457848492016
 20
40.05213294277571
 30
0.0
 11
33.38489216245379
 21
39.2253073991887
 31
0.0
  0
LINE
  5
AE4
330
1E
100
AcDbEntity
  8
0
100
AcDbLine
 10
33.38489216245379
 20
39.2253073991887
 30
0.0
 11
33.38489216245379
 21
39.2253073991887
 31
0.0
  0
LWPOLYLINE
  5
AE5
330
1E
100
AcDbEntity
  8
0
100
AcDbPolyline
 90
        3
 70
     0
 43
0.0
 10
33.38489216245378
 20
39.22530739918869
 10
33.38489216245378
 20
39.20562107672234
 10
33.38489216245378
 20
39.18593475425598
  0
LWPOLYLINE
  5
AEA
330
1E
100
AcDbEntity
  8
0
100
AcDbPolyline
 90
        3
 70
     0
 43
0.0
 10
33.54238274218465
 20
39.18593475425598
 10
33.44395112985287
 20
39.18593475425598
 10
33.38489216245378
 20
39.18593475425598
  0
LWPOLYLINE
  5
AEF
330
1E
100
AcDbEntity
  8
0
100
AcDbPolyline
 90
        3
 70
     0
 43
0.0
 10
33.40457848492015
 20
40.0521329427757
 10
33.46363745231922
 20
40.0521329427757
 10
33.54238274218465
 20
40.0521329427757
  0
LINE
  5
AF4
330
1E
100
AcDbEntity
  8
0
100
AcDbLine
 10
33.01085203559301
 20
39.18593475425598
 30
0.0
 11
33.01085203559301
 21
39.26468004412141
 31
0.0
  0
LINE
  5
AF5
330
1E
100
AcDbEntity
  8
0
100
AcDbLine
 10
33.38489216245379
 20
39.18593475425598
 30
0.0
 11
33.01085203559301
 21
39.18593475425598
 31
0.0
  0
LINE
  5
AF6
330
1E
100
AcDbEntity
  8
0
100
AcDbLine
 10
33.36520583998744
 20
39.20562107672234
 30
0.0
 11
33.38489216245379
 21
39.2253073991887
 31
0.0
  0
LINE
  5
AF7
330
1E
100
AcDbEntity
  8
0
100
AcDbLine
 10
33.12896997039115
 20
39.20562107672234
 30
0.0
 11
33.36520583998744
 21
39.20562107672234
 31
0.0
  0
LINE
  5
AF8
330
1E
100
AcDbEntity
  8
0
100
AcDbLine
 10
33.10928364792479
 20
39.2253073991887
 30
0.0
 11
33.12896997039115
 21
39.20562107672234
 31
0.0
  0
LINE
  5
AF9
330
1E
100
AcDbEntity
  8
0
100
AcDbLine
 10
33.01085203559301
 20
39.26468004412141
 30
0.0
 11
33.10928364792479
 21
39.2253073991887
 31
0.0
  0
LINE
  5
AFA
330
1E
100
AcDbEntity
  8
0
100
AcDbLine
 10
32.91242042326121
 20
39.28436636658776
 30
0.0
 11
32.91242042326121
 21
39.18593475425598
 31
0.0
  0
LWPOLYLINE
  5
AFB
330
1E
100
AcDbEntity
  8
0
100
AcDbPolyline
 90
        5
 70
     0
 43
0.0
 10
33.01085203559301
 20
39.18593475425598
 10
32.97147939066029
 20
39.18593475425598
 10
32.95179306819394
 20
39.18593475425598
 10
32.93210674572758
 20
39.18593475425598
 10
32.91242042326121
 20
39.18593475425598
  0
LWPOLYLINE
  5
B02
330
1E
100
AcDbEntity
  8
0
100
AcDbPolyline
 90
        5
 70
     0
 43
0.0
 10
32.91242042326121
 20
39.28436636658776
 10
32.93210674572758
 20
39.28436636658776
 10
32.95179306819394
 20
39.28436636658776
 10
32.97147939066029
 20
39.26468004412141
 10
33.01085203559301
 20
39.26468004412141
  0
LINE
  5
B09
330
1E
100
AcDbEntity
  8
0
100
AcDbLine
 10
33.16834261532386
 20
40.05213294277571
 30
0.0
 11
33.14865629285749
 21
39.2253073991887
 31
0.0
  0
LINE
  5
B0A
330
1E
100
AcDbEntity
  8
0
100
AcDbLine
 10
33.18802893779022
 20
39.24499372165506
 30
0.0
 11
33.18802893779022
 21
40.05213294277571
 31
0.0
  0
LINE
  5
B0B
330
1E
100
AcDbEntity
  8
0
100
AcDbLine
 10
33.38489216245379
 20
39.24499372165506
 30
0.0
 11
33.18802893779022
 21
39.24499372165506
 31
0.0
  0
LINE
  5
B0C
330
1E
100
AcDbEntity
  8
0
100
AcDbLine
 10
33.38489216245379
 20
39.2253073991887
 30
0.0
 11
33.38489216245379
 21
39.24499372165506
 31
0.0
  0
LINE
  5
B0D
330
1E
100
AcDbEntity
  8
0
100
AcDbLine
 10
33.18802893779022
 20
40.05213294277571
 30
0.0
 11
33.40457848492016
 21
40.05213294277571
 31
0.0
  0
LINE
  5
B0E
330
1E
100
AcDbEntity
  8
0
100
AcDbLine
 10
33.36520583998744
 20
39.2253073991887
 30
0.0
 11
33.12896997039115
 21
39.2253073991887
 31
0.0
  0
LINE
  5
B0F
330
1E
100
AcDbEntity
  8
0
100
AcDbLine
 10
33.36520583998744
 20
39.10718946439056
 30
0.0
 11
33.12896997039115
 21
39.10718946439056
 31
0.0
  0
LINE
  5
B10
330
1E
100
AcDbEntity
  8
0
100
AcDbLine
 10
33.12896997039115
 20
39.10718946439056
 30
0.0
 11
33.08959732545844
 21
39.12687578685691
 31
0.0
  0
LINE
  5
B11
330
1E
100
AcDbEntity
  8
0
100
AcDbLine
 10
33.12896997039115
 20
39.2253073991887
 30
0.0
 11
33.12896997039115
 21
39.2253073991887
 31
0.0
  0
LINE
  5
B12
330
1E
100
AcDbEntity
  8
0
100
AcDbLine
 10
33.08959732545844
 20
39.12687578685691
 30
0.0
 11
33.01085203559301
 21
39.14656210932326
 31
0.0
  0
LWPOLYLINE
  5
B13
330
1E
100
AcDbEntity
  8
0
100
AcDbPolyline
 90
        6
 70
     0
 43
0.0
 10
32.91242042326121
 20
39.18593475425598
 10
32.93210674572758
 20
39.18593475425598
 10
32.93210674572758
 20
39.16624843178963
 10
32.97147939066029
 20
39.16624843178963
 10
32.99116571312664
 20
39.14656210932326
 10
33.01085203559301
 20
39.14656210932326
  0
LWPOLYLINE
  5
B1B
330
1E
100
AcDbEntity
  8
0
100
AcDbPolyline
 90
        5
 70
     0
 43
0.0
 10
33.03053835805937
 20
39.26468004412141
 10
32.99116571312664
 20
39.28436636658776
 10
32.97147939066029
 20
39.28436636658776
 10
32.95179306819394
 20
39.30405268905412
 10
32.93210674572758
 20
39.30405268905412
  0
LINE
  5
B22
330
1E
100
AcDbEntity
  8
0
100
AcDbLine
 10
33.12896997039115
 20
39.2253073991887
 30
0.0
 11
33.03053835805936
 21
39.26468004412141
 31
0.0
  0
LINE
  5
B23
330
1E
100
AcDbEntity
  8
0
100
AcDbLine
 10
33.54238274218465
 20
38.30005024326991
 30
0.0
 11
33.56206906465102
 21
38.30005024326991
 31
0.0
  0
LWPOLYLINE
  5
B24
330
1E
100
AcDbEntity
  8
0
100
AcDbPolyline
 90
        3
 70
     0
 43
0.0
 10
33.42426480738651
 20
38.30005024326991
 10
33.46363745231922
 20
38.30005024326991
 10
33.54238274218465
 20
38.30005024326991
  0
LINE
  5
B29
330
1E
100
AcDbEntity
  8
0
100
AcDbLine
 10
33.20771526025657
 20
38.30005024326991
 30
0.0
 11
33.42426480738651
 21
38.30005024326991
 31
0.0
  0
LINE
  5
B2A
330
1E
100
AcDbEntity
  8
0
100
AcDbLine
 10
33.20771526025657
 20
38.30005024326991
 30
0.0
 11
33.20771526025657
 21
38.30005024326991
 31
0.0
  0
LINE
  5
B2B
330
1E
100
AcDbEntity
  8
0
100
AcDbLine
 10
33.20771526025657
 20
40.05213294277571
 30
0.0
 11
33.20771526025657
 21
40.05213294277571
 31
0.0
  0
LINE
  5
B2C
330
1E
100
AcDbEntity
  8
0
100
AcDbLine
 10
33.42426480738651
 20
40.05213294277571
 30
0.0
 11
33.20771526025657
 21
40.05213294277571
 31
0.0
  0
LWPOLYLINE
  5
B2D
330
1E
100
AcDbEntity
  8
0
100
AcDbPolyline
 90
        3
 70
     0
 43
0.0
 10
33.54238274218465
 20
40.0521329427757
 10
33.46363745231922
 20
40.0521329427757
 10
33.42426480738651
 20
40.0521329427757
  0
LINE
  5
B32
330
1E
100
AcDbEntity
  8
0
100
AcDbLine
 10
33.56206906465102
 20
40.05213294277571
 30
0.0
 11
33.54238274218465
 21
40.05213294277571
 31
0.0
  0
LINE
  5
B33
330
1E
100
AcDbEntity
  8
0
100
AcDbLine
 10
33.62112803205008
 20
38.35910921066897
 30
0.0
 11
33.64081435451645
 21
39.18593475425598
 31
0.0
  0
LINE
  5
B34
330
1E
100
AcDbEntity
  8
0
100
AcDbLine
 10
33.14865629285749
 20
39.10718946439056
 30
0.0
 11
33.16834261532386
 21
38.31973656573627
 31
0.0
  0
LINE
  5
B35
330
1E
100
AcDbEntity
  8
0
100
AcDbLine
 10
33.38489216245379
 20
39.10718946439056
 30
0.0
 11
33.40457848492016
 21
38.31973656573627
 31
0.0
  0
LINE
  5
B36
330
1E
100
AcDbEntity
  8
0
100
AcDbLine
 10
33.38489216245379
 20
39.0875031419242
 30
0.0
 11
33.38489216245379
 21
39.10718946439056
 31
0.0
  0
LINE
  5
B37
330
1E
100
AcDbEntity
  8
0
100
AcDbLine
 10
33.18802893779022
 20
39.0875031419242
 30
0.0
 11
33.38489216245379
 21
39.0875031419242
 31
0.0
  0
LINE
  5
B38
330
1E
100
AcDbEntity
  8
0
100
AcDbLine
 10
33.18802893779022
 20
38.31973656573627
 30
0.0
 11
33.18802893779022
 21
39.0875031419242
 31
0.0
  0
LINE
  5
B39
330
1E
100
AcDbEntity
  8
0
100
AcDbLine
 10
33.40457848492016
 20
38.31973656573627
 30
0.0
 11
33.18802893779022
 21
38.31973656573627
 31
0.0
  0
LINE
  5
B3A
330
1E
100
AcDbEntity
  8
0
100
AcDbLine
 10
33.54238274218465
 20
39.18593475425598
 30
0.0
 11
33.54238274218465
 21
38.31973656573627
 31
0.0
  0
LINE
  5
B3B
330
1E
100
AcDbEntity
  8
0
100
AcDbLine
 10
33.56206906465102
 20
38.31973656573627
 30
0.0
 11
33.54238274218465
 21
38.31973656573627
 31
0.0
  0
LWPOLYLINE
  5
B3C
330
1E
100
AcDbEntity
  8
0
100
AcDbPolyline
 90
        3
 70
     0
 43
0.0
 10
33.60144170958373
 20
38.35910921066897
 10
33.58175538711737
 20
38.33942288820261
 10
33.56206906465102
 20
38.31973656573627
  0
LINE
  5
B41
330
1E
100
AcDbEntity
  8
0
100
AcDbLine
 10
33.62112803205008
 20
39.18593475425598
 30
0.0
 11
33.60144170958372
 21
38.35910921066897
 31
0.0
  0
LWPOLYLINE
  5
B42
330
1E
100
AcDbEntity
  8
0
100
AcDbPolyline
 90
        3
 70
     0
 43
0.0
 10
33.38489216245378
 20
39.18593475425598
 10
33.38489216245378
 20
39.14656210932326
 10
33.38489216245378
 20
39.10718946439056
  0
LWPOLYLINE
  5
B47
330
1E
100
AcDbEntity
  8
0
100
AcDbPolyline
 90
        3
 70
     0
 43
0.0
 10
33.54238274218465
 20
38.31973656573627
 10
33.46363745231922
 20
38.31973656573627
 10
33.40457848492015
 20
38.31973656573627
  0
LINE
  5
B4C
330
1E
100
AcDbEntity
  8
0
100
AcDbLine
 10
33.01085203559301
 20
39.14656210932326
 30
0.0
 11
33.01085203559301
 21
39.18593475425598
 31
0.0
  0
LINE
  5
B4D
330
1E
100
AcDbEntity
  8
0
100
AcDbLine
 10
33.38489216245379
 20
39.0875031419242
 30
0.0
 11
33.36520583998744
 21
39.10718946439056
 31
0.0
  0
LWPOLYLINE
  5
B4E
330
1E
100
AcDbEntity
  8
0
100
AcDbPolyline
 90
        3
 70
     0
 43
0.0
 10
33.62112803205007
 20
40.012760297843
 10
33.60144170958373
 20
40.0521329427757
 10
33.56206906465102
 20
40.0521329427757
  0
LWPOLYLINE
  5
B53
330
1E
100
AcDbEntity
  8
0
100
AcDbPolyline
 90
        3
 70
     0
 43
0.0
 10
33.56206906465102
 20
38.30005024326991
 10
33.60144170958373
 20
38.31973656573627
 10
33.62112803205007
 20
38.35910921066897
  0
LINE
  5
B58
330
1E
100
AcDbEntity
  8
0
100
AcDbLine
 10
33.38489216245379
 20
39.2253073991887
 30
0.0
 11
33.36520583998744
 21
39.2253073991887
 31
0.0
  0
LINE
  5
B59
330
1E
100
AcDbEntity
  8
0
100
AcDbLine
 10
33.38489216245379
 20
39.24499372165506
 30
0.0
 11
33.38489216245379
 21
39.2253073991887
 31
0.0
  0
LINE
  5
B5A
330
1E
100
AcDbEntity
  8
0
100
AcDbLine
 10
33.16834261532386
 20
39.2253073991887
 30
0.0
 11
33.18802893779022
 21
39.24499372165506
 31
0.0
  0
LINE
  5
B5B
330
1E
100
AcDbEntity
  8
0
100
AcDbLine
 10
33.18802893779022
 20
39.0875031419242
 30
0.0
 11
33.16834261532386
 21
39.10718946439056
 31
0.0
  0
LINE
  5
B5C
330
1E
100
AcDbEntity
  8
0
100
AcDbLine
 10
33.36520583998744
 20
39.2253073991887
 30
0.0
 11
33.36520583998744
 21
39.20562107672234
 31
0.0
  0
LINE
  5
B5D
330
1E
100
AcDbEntity
  8
0
100
AcDbLine
 10
33.12896997039115
 20
39.2253073991887
 30
0.0
 11
33.12896997039115
 21
39.20562107672234
 31
0.0
  0
LINE
  5
B5E
330
1E
100
AcDbEntity
  8
0
100
AcDbLine
 10
33.12896997039115
 20
39.2253073991887
 30
0.0
 11
33.10928364792479
 21
39.2253073991887
 31
0.0
  0
LINE
  5
B5F
330
1E
100
AcDbEntity
  8
0
100
AcDbLine
 10
33.03053835805936
 20
39.26468004412141
 30
0.0
 11
33.01085203559301
 21
39.26468004412141
 31
0.0
  0
LINE
  5
B60
330
1E
100
AcDbEntity
  8
0
100
AcDbLine
 10
32.93210674572758
 20
39.30405268905412
 30
0.0
 11
32.91242042326121
 21
39.28436636658776
 31
0.0
  0
LINE
  5
B61
330
1E
100
AcDbEntity
  8
0
100
AcDbLine
 10
33.16834261532386
 20
39.2253073991887
 30
0.0
 11
33.18802893779022
 21
40.05213294277571
 31
0.0
  0
LINE
  5
B62
330
1E
100
AcDbEntity
  8
0
100
AcDbLine
 10
33.18802893779022
 20
40.05213294277571
 30
0.0
 11
33.18802893779022
 21
40.05213294277571
 31
0.0
  0
LINE
  5
B63
330
1E
100
AcDbEntity
  8
0
100
AcDbLine
 10
33.18802893779022
 20
38.31973656573627
 30
0.0
 11
33.16834261532386
 21
39.10718946439056
 31
0.0
  0
LINE
  5
B64
330
1E
100
AcDbEntity
  8
0
100
AcDbLine
 10
33.18802893779022
 20
38.31973656573627
 30
0.0
 11
33.18802893779022
 21
38.31973656573627
 31
0.0
  0
LINE
  5
B65
330
1E
100
AcDbEntity
  8
0
100
AcDbLine
 10
33.16834261532386
 20
40.05213294277571
 30
0.0
 11
33.18802893779022
 21
40.05213294277571
 31
0.0
  0
LINE
  5
B66
330
1E
100
AcDbEntity
  8
0
100
AcDbLine
 10
33.18802893779022
 20
38.31973656573627
 30
0.0
 11
33.16834261532386
 21
38.31973656573627
 31
0.0
  0
LINE
  5
B67
330
1E
100
AcDbEntity
  8
0
100
AcDbLine
 10
33.60144170958372
 20
38.35910921066897
 30
0.0
 11
33.62112803205008
 21
38.35910921066897
 31
0.0
  0
LINE
  5
B68
330
1E
100
AcDbEntity
  8
0
100
AcDbLine
 10
33.64081435451645
 20
39.18593475425598
 30
0.0
 11
33.62112803205008
 21
39.18593475425598
 31
0.0
  0
LINE
  5
B69
330
1E
100
AcDbEntity
  8
0
100
AcDbLine
 10
33.62112803205008
 20
40.01276029784301
 30
0.0
 11
33.60144170958372
 21
40.01276029784301
 31
0.0
  0
LINE
  5
B6A
330
1E
100
AcDbEntity
  8
0
100
AcDbLine
 10
33.56206906465102
 20
38.31973656573627
 30
0.0
 11
33.56206906465102
 21
38.30005024326991
 31
0.0
  0
LINE
  5
B6B
330
1E
100
AcDbEntity
  8
0
100
AcDbLine
 10
33.54238274218465
 20
38.31973656573627
 30
0.0
 11
33.54238274218465
 21
38.30005024326991
 31
0.0
  0
LINE
  5
B6C
330
1E
100
AcDbEntity
  8
0
100
AcDbLine
 10
33.40457848492016
 20
38.31973656573627
 30
0.0
 11
33.42426480738651
 21
38.30005024326991
 31
0.0
  0
LINE
  5
B6D
330
1E
100
AcDbEntity
  8
0
100
AcDbLine
 10
33.42426480738651
 20
40.05213294277571
 30
0.0
 11
33.40457848492016
 21
40.05213294277571
 31
0.0
  0
LINE
  5
B6E
330
1E
100
AcDbEntity
  8
0
100
AcDbLine
 10
33.18802893779022
 20
38.31973656573627
 30
0.0
 11
33.20771526025657
 21
38.30005024326991
 31
0.0
  0
LINE
  5
B6F
330
1E
100
AcDbEntity
  8
0
100
AcDbLine
 10
33.20771526025657
 20
40.05213294277571
 30
0.0
 11
33.18802893779022
 21
40.05213294277571
 31
0.0
  0
LINE
  5
B70
330
1E
100
AcDbEntity
  8
0
100
AcDbLine
 10
33.18802893779022
 20
38.31973656573627
 30
0.0
 11
33.20771526025657
 21
38.30005024326991
 31
0.0
  0
LINE
  5
B71
330
1E
100
AcDbEntity
  8
0
100
AcDbLine
 10
33.20771526025657
 20
40.05213294277571
 30
0.0
 11
33.18802893779022
 21
40.05213294277571
 31
0.0
  0
LINE
  5
B72
330
1E
100
AcDbEntity
  8
0
100
AcDbLine
 10
34.38889460823801
 20
37.96538276134183
 30
0.0
 11
34.38889460823801
 21
37.94569643887547
 31
0.0
  0
LINE
  5
B73
330
1E
100
AcDbEntity
  8
0
100
AcDbLine
 10
32.87304777832851
 20
77.5742635636528
 30
0.0
 11
32.87304777832851
 21
77.5742635636528
 31
0.0
  0
LINE
  5
B74
330
1E
100
AcDbEntity
  8
0
100
AcDbLine
 10
32.87304777832851
 20
77.73175414338365
 30
0.0
 11
32.87304777832851
 21
77.5742635636528
 31
0.0
  0
LINE
  5
B75
330
1E
100
AcDbEntity
  8
0
100
AcDbLine
 10
32.87304777832851
 20
77.96799001297995
 30
0.0
 11
32.87304777832851
 21
77.84987207818179
 31
0.0
  0
LINE
  5
B76
330
1E
100
AcDbEntity
  8
0
100
AcDbLine
 10
32.87304777832851
 20
77.5742635636528
 30
0.0
 11
32.87304777832851
 21
77.49551827378735
 31
0.0
  0
LINE
  5
B77
330
1E
100
AcDbEntity
  8
0
100
AcDbLine
 10
32.87304777832851
 20
77.96799001297995
 30
0.0
 11
32.87304777832851
 21
77.96799001297995
 31
0.0
  0
LINE
  5
B78
330
1E
100
AcDbEntity
  8
0
100
AcDbLine
 10
32.87304777832851
 20
77.49551827378735
 30
0.0
 11
32.87304777832851
 21
77.49551827378735
 31
0.0
  0
LINE
  5
B79
330
1E
100
AcDbEntity
  8
0
100
AcDbLine
 10
32.87304777832851
 20
77.81049943324908
 30
0.0
 11
32.87304777832851
 21
77.84987207818179
 31
0.0
  0
LINE
  5
B7A
330
1E
100
AcDbEntity
  8
0
100
AcDbLine
 10
32.87304777832851
 20
77.84987207818179
 30
0.0
 11
32.87304777832851
 21
77.84987207818179
 31
0.0
  0
LWPOLYLINE
  5
B7B
330
1E
100
AcDbEntity
  8
0
100
AcDbPolyline
 90
        4
 70
     0
 43
0.0
 10
32.8730477783285
 20
77.73175414338362
 10
32.8730477783285
 20
77.75144046584998
 10
32.8730477783285
 20
77.79081311078272
 10
32.8730477783285
 20
77.81049943324908
  0
LINE
  5
B81
330
1E
100
AcDbEntity
  8
0
100
AcDbLine
 10
32.91242042326121
 20
77.47583195132103
 30
0.0
 11
32.89273410079486
 21
77.47583195132103
 31
0.0
  0
LINE
  5
B82
330
1E
100
AcDbEntity
  8
0
100
AcDbLine
 10
32.91242042326121
 20
77.96799001297995
 30
0.0
 11
32.89273410079486
 21
77.96799001297995
 31
0.0
  0
LINE
  5
B83
330
1E
100
AcDbEntity
  8
0
100
AcDbLine
 10
32.89273410079486
 20
77.96799001297995
 30
0.0
 11
32.89273410079486
 21
77.47583195132103
 31
0.0
  0
LINE
  5
B84
330
1E
100
AcDbEntity
  8
0
100
AcDbLine
 10
32.87304777832851
 20
77.49551827378735
 30
0.0
 11
32.87304777832851
 21
77.96799001297995
 31
0.0
  0
LINE
  5
B85
330
1E
100
AcDbEntity
  8
0
100
AcDbLine
 10
32.89273410079486
 20
77.96799001297995
 30
0.0
 11
32.87304777832851
 21
77.96799001297995
 31
0.0
  0
LINE
  5
B86
330
1E
100
AcDbEntity
  8
0
100
AcDbLine
 10
32.87304777832851
 20
77.49551827378735
 30
0.0
 11
32.89273410079486
 21
77.47583195132103
 31
0.0
  0
ENDSEC
  0
SECTION
  2
OBJECTS
  0
DICTIONARY
  5
C
330
0
100
AcDbDictionary
  3
ACAD_GROUP
350
D
  3
ACAD_LAYOUT
350
19
  3
ACAD_MLINESTYLE
350
16
  3
ACAD_PLOTSETTINGS
350
18
  3
ACAD_PLOTSTYLENAME
350
E
  3
ACDBHEADERROUNDTRIPXREC
350
B8C
  0
DICTIONARY
  5
BAF
330
1E
100
AcDbDictionary
280
     1
  3
ACAD_LAYOUTSELFREF
360
BB0
  0
DICTIONARY
  5
BAD
330
1A
100
AcDbDictionary
280
     1
  3
ACAD_LAYOUTSELFREF
360
BAE
  0
DICTIONARY
  5
D
102
{ACAD_REACTORS
330
C
102
}
330
C
100
AcDbDictionary
  0
DICTIONARY
  5
19
102
{ACAD_REACTORS
330
C
102
}
330
C
100
AcDbDictionary
  0
DICTIONARY
  5
16
102
{ACAD_REACTORS
330
C
102
}
330
C
100
AcDbDictionary
  3
STANDARD
350
17
  0
DICTIONARY
  5
18
102
{ACAD_REACTORS
330
C
102
}
330
C
100
AcDbDictionary
  0
ACDBDICTIONARYWDFLT
  5
E
102
{ACAD_REACTORS
330
C
102
}
330
C
100
AcDbDictionary
281
     1
  3
Normal
350
F
100
AcDbDictionaryWithDefault
340
F
  0
DICTIONARY
  5
B8C
102
{ACAD_REACTORS
330
C
102
}
330
C
100
AcDbDictionary
  3
CEPSNTYPE
350
B96
  3
DIMSTYLEDATA
350
B9A
  3
FINGERPRINTGUID
350
B97
  3
HYPERLINKBASE
350
B8F
  3
INSUNITS
350
B95
  3
LAYOUTDICT
350
B91
  3
LWETCUNION
350
B94
  3
PLOTSETDICT
350
B92
  3
PLOTSTYLNAMDICT
350
B93
  3
PSVPSCALE
350
B99
  3
PUCSBASE
350
B9D
  3
PUCSORGBACK
350
BA3
  3
PUCSORGBOTTOM
350
B9F
  3
PUCSORGFRONT
350
BA2
  3
PUCSORGLEFT
350
BA0
  3
PUCSORGRIGHT
350
BA1
  3
PUCSORGTOP
350
B9E
  3
PUCSORTHOREF
350
B9B
  3
PUCSORTHOVIEW
350
B9C
  3
STYLESHEET
350
B90
  3
TSTACKALIGN
350
B8D
  3
TSTACKSIZE
350
B8E
  3
UCSBASE
350
BA6
  3
UCSORGBACK
350
BAC
  3
UCSORGBOTTOM
350
BA8
  3
UCSORGFRONT
350
BAB
  3
UCSORGLEFT
350
BA9
  3
UCSORGRIGHT
350
BAA
  3
UCSORGTOP
350
BA7
  3
UCSORTHOREF
350
BA4
  3
UCSORTHOVIEW
350
BA5
  3
VERSIONGUID
350
B98
  0
XRECORD
  5
BB0
102
{ACAD_REACTORS
330
BAF
102
}
330
BAF
100
AcDbXrecord
340
1E
  0
XRECORD
  5
BAE
102
{ACAD_REACTORS
330
BAD
102
}
330
BAD
100
AcDbXrecord
340
1A
  0
MLINESTYLE
  5
17
102
{ACAD_REACTORS
330
16
102
}
330
16
100
AcDbMlineStyle
  2
STANDARD
 70
     0
  3

 62
   256
 51
90.0
 52
90.0
 71
     2
 49
0.5
 62
   256
  6
BYLAYER
 49
-0.5
 62
   256
  6
BYLAYER
  0
ACDBPLACEHOLDER
  5
F
102
{ACAD_REACTORS
330
E
102
}
330
E
100
AcDbPlaceHolder
280
     0
  0
XRECORD
  5
B96
102
{ACAD_REACTORS
330
B8C
102
}
330
B8C
100
AcDbXrecord
 90
        0
  0
XRECORD
  5
B9A
102
{ACAD_REACTORS
330
B8C
102
}
330
B8C
100
AcDbXrecord
1000
DSTYLE
1002
{
1070
   279
 70
     2
1002
}
  0
XRECORD
  5
B97
102
{ACAD_REACTORS
330
B8C
102
}
330
B8C
100
AcDbXrecord
  1
{16401559-C860-42F1-91CC-EDD520804C26}
  0
XRECORD
  5
B8F
102
{ACAD_REACTORS
330
B8C
102
}
330
B8C
100
AcDbXrecord
  1

  0
XRECORD
  5
B95
102
{ACAD_REACTORS
330
B8C
102
}
330
B8C
100
AcDbXrecord
 90
        0
  0
XRECORD
  5
B91
102
{ACAD_REACTORS
330
B8C
102
}
330
B8C
100
AcDbXrecord
340
19
  0
XRECORD
  5
B94
102
{ACAD_REACTORS
330
B8C
102
}
330
B8C
100
AcDbXrecord
 90
    14877
  0
XRECORD
  5
B92
102
{ACAD_REACTORS
330
B8C
102
}
330
B8C
100
AcDbXrecord
340
18
  0
XRECORD
  5
B93
102
{ACAD_REACTORS
330
B8C
102
}
330
B8C
100
AcDbXrecord
340
E
  0
XRECORD
  5
B99
102
{ACAD_REACTORS
330
B8C
102
}
330
B8C
100
AcDbXrecord
 40
0.0
  0
XRECORD
  5
B9D
102
{ACAD_REACTORS
330
B8C
102
}
330
B8C
100
AcDbXrecord
340
0
  0
XRECORD
  5
BA3
102
{ACAD_REACTORS
330
B8C
102
}
330
B8C
100
AcDbXrecord
 10
0.0
 20
0.0
 30
0.0
  0
XRECORD
  5
B9F
102
{ACAD_REACTORS
330
B8C
102
}
330
B8C
100
AcDbXrecord
 10
0.0
 20
0.0
 30
0.0
  0
XRECORD
  5
BA2
102
{ACAD_REACTORS
330
B8C
102
}
330
B8C
100
AcDbXrecord
 10
0.0
 20
0.0
 30
0.0
  0
XRECORD
  5
BA0
102
{ACAD_REACTORS
330
B8C
102
}
330
B8C
100
AcDbXrecord
 10
0.0
 20
0.0
 30
0.0
  0
XRECORD
  5
BA1
102
{ACAD_REACTORS
330
B8C
102
}
330
B8C
100
AcDbXrecord
 10
0.0
 20
0.0
 30
0.0
  0
XRECORD
  5
B9E
102
{ACAD_REACTORS
330
B8C
102
}
330
B8C
100
AcDbXrecord
 10
0.0
 20
0.0
 30
0.0
  0
XRECORD
  5
B9B
102
{ACAD_REACTORS
330
B8C
102
}
330
B8C
100
AcDbXrecord
340
0
  0
XRECORD
  5
B9C
102
{ACAD_REACTORS
330
B8C
102
}
330
B8C
100
AcDbXrecord
 70
     0
  0
XRECORD
  5
B90
102
{ACAD_REACTORS
330
B8C
102
}
330
B8C
100
AcDbXrecord
  1

  0
XRECORD
  5
B8D
102
{ACAD_REACTORS
330
B8C
102
}
330
B8C
100
AcDbXrecord
 90
        1
  0
XRECORD
  5
B8E
102
{ACAD_REACTORS
330
B8C
102
}
330
B8C
100
AcDbXrecord
 90
       70
  0
XRECORD
  5
BA6
102
{ACAD_REACTORS
330
B8C
102
}
330
B8C
100
AcDbXrecord
340
0
  0
XRECORD
  5
BAC
102
{ACAD_REACTORS
330
B8C
102
}
330
B8C
100
AcDbXrecord
 10
0.0
 20
0.0
 30
0.0
  0
XRECORD
  5
BA8
102
{ACAD_REACTORS
330
B8C
102
}
330
B8C
100
AcDbXrecord
 10
0.0
 20
0.0
 30
0.0
  0
XRECORD
  5
BAB
102
{ACAD_REACTORS
330
B8C
102
}
330
B8C
100
AcDbXrecord
 10
0.0
 20
0.0
 30
0.0
  0
XRECORD
  5
BA9
102
{ACAD_REACTORS
330
B8C
102
}
330
B8C
100
AcDbXrecord
 10
0.0
 20
0.0
 30
0.0
  0
XRECORD
  5
BAA
102
{ACAD_REACTORS
330
B8C
102
}
330
B8C
100
AcDbXrecord
 10
0.0
 20
0.0
 30
0.0
  0
XRECORD
  5
BA7
102
{ACAD_REACTORS
330
B8C
102
}
330
B8C
100
AcDbXrecord
 10
0.0
 20
0.0
 30
0.0
  0
XRECORD
  5
BA4
102
{ACAD_REACTORS
330
B8C
102
}
330
B8C
100
AcDbXrecord
340
0
  0
XRECORD
  5
BA5
102
{ACAD_REACTORS
330
B8C
102
}
330
B8C
100
AcDbXrecord
 70
     0
  0
XRECORD
  5
B98
102
{ACAD_REACTORS
330
B8C
102
}
330
B8C
100
AcDbXrecord
  1
{43F3BA05-6B7B-43D0-8245-4463931BF5C2}
  0
ENDSEC
  0
EOF
