  0
SECTION
  2
HEADER
  9
$ACADVER
  1
AC1012
  9
$DWGCODEPAGE
  3
ANSI_1252
  9
$INSBASE
 10
0.0
 20
0.0
 30
0.0
  9
$EXTMIN
 10
-0.8376659609718988
 20
2.547252116866023
 30
0.0
  9
$EXTMAX
 10
4.44579860595723
 20
7.07743584390014
 30
0.0
  9
$LIMMIN
 10
0.0
 20
0.0
  9
$LIMMAX
 10
12.0
 20
9.0
  9
$ORTHOMODE
 70
     0
  9
$REGENMODE
 70
     1
  9
$FILLMODE
 70
     1
  9
$QTEXTMODE
 70
     0
  9
$MIRRTEXT
 70
     1
  9
$DRAGMODE
 70
     2
  9
$LTSCALE
 40
1.0
  9
$OSMODE
 70
   547
  9
$ATTMODE
 70
     1
  9
$TEXTSIZE
 40
0.2
  9
$TRACEWID
 40
0.05
  9
$TEXTSTYLE
  7
STANDARD
  9
$CLAYER
  8
0
  9
$CELTYPE
  6
BYLAYER
  9
$CECOLOR
 62
   256
  9
$CELTSCALE
 40
1.0
  9
$DELOBJ
 70
     1
  9
$DISPSILH
 70
     0
  9
$DIMSCALE
 40
1.0
  9
$DIMASZ
 40
0.18
  9
$DIMEXO
 40
0.0625
  9
$DIMDLI
 40
0.38
  9
$DIMRND
 40
0.0
  9
$DIMDLE
 40
0.0
  9
$DIMEXE
 40
0.18
  9
$DIMTP
 40
0.0
  9
$DIMTM
 40
0.0
  9
$DIMTXT
 40
0.18
  9
$DIMCEN
 40
0.09
  9
$DIMTSZ
 40
0.0
  9
$DIMTOL
 70
     0
  9
$DIMLIM
 70
     0
  9
$DIMTIH
 70
     1
  9
$DIMTOH
 70
     1
  9
$DIMSE1
 70
     0
  9
$DIMSE2
 70
     0
  9
$DIMTAD
 70
     0
  9
$DIMZIN
 70
     0
  9
$DIMBLK
  1

  9
$DIMASO
 70
     1
  9
$DIMSHO
 70
     1
  9
$DIMPOST
  1

  9
$DIMAPOST
  1

  9
$DIMALT
 70
     0
  9
$DIMALTD
 70
     2
  9
$DIMALTF
 40
25.4
  9
$DIMLFAC
 40
1.0
  9
$DIMTOFL
 70
     0
  9
$DIMTVP
 40
0.0
  9
$DIMTIX
 70
     0
  9
$DIMSOXD
 70
     0
  9
$DIMSAH
 70
     0
  9
$DIMBLK1
  1

  9
$DIMBLK2
  1

  9
$DIMSTYLE
  2
STANDARD
  9
$DIMCLRD
 70
     0
  9
$DIMCLRE
 70
     0
  9
$DIMCLRT
 70
     0
  9
$DIMTFAC
 40
1.0
  9
$DIMGAP
 40
0.09
  9
$DIMJUST
 70
     0
  9
$DIMSD1
 70
     0
  9
$DIMSD2
 70
     0
  9
$DIMTOLJ
 70
     1
  9
$DIMTZIN
 70
     0
  9
$DIMALTZ
 70
     0
  9
$DIMALTTZ
 70
     0
  9
$DIMFIT
 70
     5
  9
$DIMUPT
 70
     0
  9
$DIMUNIT
 70
     2
  9
$DIMDEC
 70
     4
  9
$DIMTDEC
 70
     4
  9
$DIMALTU
 70
     2
  9
$DIMALTTD
 70
     2
  9
$DIMTXSTY
  7
STANDARD
  9
$DIMAUNIT
 70
     0
  9
$LUNITS
 70
     2
  9
$LUPREC
 70
     4
  9
$SKETCHINC
 40
0.1
  9
$FILLETRAD
 40
0.0
  9
$AUNITS
 70
     0
  9
$AUPREC
 70
     0
  9
$MENU
  1
acad
  9
$ELEVATION
 40
0.0
  9
$PELEVATION
 40
0.0
  9
$THICKNESS
 40
0.0
  9
$LIMCHECK
 70
     0
  9
$BLIPMODE
 70
     0
  9
$CHAMFERA
 40
0.0
  9
$CHAMFERB
 40
0.0
  9
$CHAMFERC
 40
0.0
  9
$CHAMFERD
 40
0.0
  9
$SKPOLY
 70
     0
  9
$TDCREATE
 40
2452569.366643519
  9
$TDUPDATE
 40
2453776.652379942
  9
$TDINDWG
 40
0.0038626042
  9
$TDUSRTIMER
 40
0.0038626042
  9
$USRTIMER
 70
     1
  9
$ANGBASE
 50
0.0
  9
$ANGDIR
 70
     0
  9
$PDMODE
 70
     0
  9
$PDSIZE
 40
0.0
  9
$PLINEWID
 40
0.0
  9
$COORDS
 70
     1
  9
$SPLFRAME
 70
     0
  9
$SPLINETYPE
 70
     6
  9
$SPLINESEGS
 70
     8
  9
$ATTDIA
 70
     0
  9
$ATTREQ
 70
     1
  9
$HANDLING
 70
  4097
  9
$HANDSEED
  5
4158
  9
$SURFTAB1
 70
     6
  9
$SURFTAB2
 70
     6
  9
$SURFTYPE
 70
     6
  9
$SURFU
 70
     6
  9
$SURFV
 70
     6
  9
$UCSNAME
  2

  9
$UCSORG
 10
0.0
 20
0.0
 30
0.0
  9
$UCSXDIR
 10
1.0
 20
0.0
 30
0.0
  9
$UCSYDIR
 10
0.0
 20
1.0
 30
0.0
  9
$PUCSNAME
  2

  9
$PUCSORG
 10
0.0
 20
0.0
 30
0.0
  9
$PUCSXDIR
 10
1.0
 20
0.0
 30
0.0
  9
$PUCSYDIR
 10
0.0
 20
1.0
 30
0.0
  9
$USERI1
 70
     0
  9
$USERI2
 70
     0
  9
$USERI3
 70
     0
  9
$USERI4
 70
     0
  9
$USERI5
 70
     0
  9
$USERR1
 40
0.0
  9
$USERR2
 40
0.0
  9
$USERR3
 40
0.0
  9
$USERR4
 40
0.0
  9
$USERR5
 40
0.0
  9
$WORLDVIEW
 70
     1
  9
$SHADEDGE
 70
     3
  9
$SHADEDIF
 70
    70
  9
$TILEMODE
 70
     1
  9
$MAXACTVP
 70
    16
  9
$PINSBASE
 10
0.0
 20
0.0
 30
0.0
  9
$PLIMCHECK
 70
     0
  9
$PEXTMIN
 10
1.000000000000000E+20
 20
1.000000000000000E+20
 30
1.000000000000000E+20
  9
$PEXTMAX
 10
-1.000000000000000E+20
 20
-1.000000000000000E+20
 30
-1.000000000000000E+20
  9
$PLIMMIN
 10
0.0
 20
0.0
  9
$PLIMMAX
 10
12.0
 20
9.0
  9
$UNITMODE
 70
     0
  9
$VISRETAIN
 70
     0
  9
$PLINEGEN
 70
     0
  9
$PSLTSCALE
 70
     1
  9
$TREEDEPTH
 70
  3020
  9
$PICKSTYLE
 70
     1
  9
$CMLSTYLE
  2
STANDARD
  9
$CMLJUST
 70
     0
  9
$CMLSCALE
 40
1.0
  9
$SAVEIMAGES
 70
     1
  0
ENDSEC
  0
SECTION
  2
CLASSES
  0
CLASS
  1
ACDBDICTIONARYWDFLT
  2
AcDbDictionaryWithDefault
  3
AutoCAD 2000
 90
    32768
280
     0
281
     0
  0
CLASS
  1
ACDBPLACEHOLDER
  2
AcDbPlaceHolder
  3
AutoCAD 2000
 90
    32768
280
     0
281
     0
  0
CLASS
  1
LAYOUT
  2
AcDbLayout
  3
AutoCAD 2000
 90
    32768
280
     0
281
     0
  0
CLASS
  1
LONG_TRANSACTION
  2
AcDbLongTransaction
  3
AutoCAD 2000
 90
    32768
280
     0
281
     0
  0
CLASS
  1
LWPOLYLINE
  2
AcDbPolyline
  3
AutoCAD 2000
 90
    32768
280
     0
281
     1
  0
CLASS
  1
HATCH
  2
AcDbHatch
  3
AutoCAD 2000
 90
    32768
280
     0
281
     1
  0
CLASS
  1
XRECORD
  2
AcDbXrecord
  3
AutoCAD 2000
 90
    32768
280
     0
281
     0
  0
CLASS
  1
LONG_TRANSACTION
  2
AcDbLongTransaction
  3
AutoCAD 2000
 90
    32768
280
     0
281
     0
  0
CLASS
  1
LWPOLYLINE
  2
AcDbPolyline
  3
AutoCAD 2000
 90
    32768
280
     0
281
     1
  0
CLASS
  1
HATCH
  2
AcDbHatch
  3
AutoCAD 2000
 90
    32768
280
     0
281
     1
  0
CLASS
  1
XRECORD
  2
AcDbXrecord
  3
AutoCAD 2000
 90
    32768
280
     0
281
     0
  0
ENDSEC
  0
SECTION
  2
TABLES
  0
TABLE
  2
VPORT
  5
8
330
0
100
AcDbSymbolTable
 70
     2
  0
VPORT
  5
4155
330
8
100
AcDbSymbolTableRecord
100
AcDbViewportTableRecord
  2
*ACTIVE
 70
     0
 10
0.0
 20
0.0
 11
1.0
 21
1.0
 12
2.075483187163571
 22
4.812423727373154
 13
0.0
 23
0.0
 14
1.0
 24
1.0
 15
0.0
 25
0.0
 16
0.0
 26
0.0
 36
1.0
 17
0.0
 27
0.0
 37
0.0
 40
4.56867328348966
 41
1.740671641791044
 42
50.0
 43
0.0
 44
0.0
 50
0.0
 51
0.0
 71
     0
 72
   100
 73
     1
 74
     1
 75
     0
 76
     0
 77
     0
 78
     0
  0
ENDTAB
  0
TABLE
  2
LTYPE
  5
5
330
0
100
AcDbSymbolTable
 70
    25
  0
LTYPE
  5
13
330
5
100
AcDbSymbolTableRecord
100
AcDbLinetypeTableRecord
  2
BYBLOCK
 70
     0
  3

 72
    65
 73
     0
 40
0.0
  0
LTYPE
  5
14
330
5
100
AcDbSymbolTableRecord
100
AcDbLinetypeTableRecord
  2
BYLAYER
 70
     0
  3

 72
    65
 73
     0
 40
0.0
  0
LTYPE
  5
15
330
5
100
AcDbSymbolTableRecord
100
AcDbLinetypeTableRecord
  2
CONTINUOUS
 70
     0
  3
Solid line
 72
    65
 73
     0
 40
0.0
  0
LTYPE
  5
22
330
5
100
AcDbSymbolTableRecord
100
AcDbLinetypeTableRecord
  2
BORDER
 70
     0
  3
__ __ . __ __ . __ __ . __ __ . __ __ . __ __ .
 72
    65
 73
     6
 40
1.75
 49
0.5
 74
     0
 49
-0.25
 74
     0
 49
0.5
 74
     0
 49
-0.25
 74
     0
 49
0.5
 74
     0
 49
-0.25
 74
     0
  0
LTYPE
  5
23
330
5
100
AcDbSymbolTableRecord
100
AcDbLinetypeTableRecord
  2
BORDER2
 70
     0
  3
__.__.__.__.__.__.__.__.__.__.__.__.__.__.__.__
 72
    65
 73
     6
 40
0.875
 49
0.25
 74
     0
 49
-0.125
 74
     0
 49
0.25
 74
     0
 49
-0.125
 74
     0
 49
0.25
 74
     0
 49
-0.125
 74
     0
  0
LTYPE
  5
24
330
5
100
AcDbSymbolTableRecord
100
AcDbLinetypeTableRecord
  2
BORDERX2
 70
     0
  3
____  ____  .  ____  ____  .  
 72
    65
 73
     6
 40
3.5
 49
1.0
 74
     0
 49
-0.5
 74
     0
 49
1.0
 74
     0
 49
-0.5
 74
     0
 49
1.0
 74
     0
 49
-0.5
 74
     0
  0
LTYPE
  5
25
330
5
100
AcDbSymbolTableRecord
100
AcDbLinetypeTableRecord
  2
CENTER
 70
     0
  3
____ _ ____ _ ____ _ ____ _ ____ _ ____ _ ____
 72
    65
 73
     4
 40
2.0
 49
1.25
 74
     0
 49
-0.25
 74
     0
 49
0.25
 74
     0
 49
-0.25
 74
     0
  0
LTYPE
  5
26
330
5
100
AcDbSymbolTableRecord
100
AcDbLinetypeTableRecord
  2
CENTER2
 70
     0
  3
____ _ ____ _ ____ _ ____ _ ____ _ ____ _ ____
 72
    65
 73
     4
 40
1.125
 49
0.75
 74
     0
 49
-0.125
 74
     0
 49
0.125
 74
     0
 49
-0.125
 74
     0
  0
LTYPE
  5
27
330
5
100
AcDbSymbolTableRecord
100
AcDbLinetypeTableRecord
  2
CENTERX2
 70
     0
  3
________  __  ________  __  ________  __  
 72
    65
 73
     4
 40
4.0
 49
2.5
 74
     0
 49
-0.5
 74
     0
 49
0.5
 74
     0
 49
-0.5
 74
     0
  0
LTYPE
  5
28
330
5
100
AcDbSymbolTableRecord
100
AcDbLinetypeTableRecord
  2
DASHDOT
 70
     0
  3
__ . __ . __ . __ . __ . __ . __ . 
 72
    65
 73
     4
 40
1.0
 49
0.5
 74
     0
 49
-0.25
 74
     0
 49
0.0
 74
     0
 49
-0.25
 74
     0
  0
LTYPE
  5
29
330
5
100
AcDbSymbolTableRecord
100
AcDbLinetypeTableRecord
  2
DASHDOT2
 70
     0
  3
_._._._._._._._._._._._._._._._.
 72
    65
 73
     4
 40
0.5
 49
0.25
 74
     0
 49
-0.125
 74
     0
 49
0.0
 74
     0
 49
-0.125
 74
     0
  0
LTYPE
  5
2A
330
5
100
AcDbSymbolTableRecord
100
AcDbLinetypeTableRecord
  2
DASHDOTX2
 70
     0
  3
____  .  ____  .  ____  .  ____  .  
 72
    65
 73
     4
 40
2.0
 49
1.0
 74
     0
 49
-0.5
 74
     0
 49
0.0
 74
     0
 49
-0.5
 74
     0
  0
LTYPE
  5
2B
330
5
100
AcDbSymbolTableRecord
100
AcDbLinetypeTableRecord
  2
DASHED
 70
     0
  3
__ __ __ __ __ __ __ __ __ __ __ __ 
 72
    65
 73
     2
 40
0.75
 49
0.5
 74
     0
 49
-0.25
 74
     0
  0
LTYPE
  5
2C
330
5
100
AcDbSymbolTableRecord
100
AcDbLinetypeTableRecord
  2
DASHED2
 70
     0
  3
_ _ _ _ _ _ _ _ _ _ _ _ _ _ _ _ _ _ 
 72
    65
 73
     2
 40
0.375
 49
0.25
 74
     0
 49
-0.125
 74
     0
  0
LTYPE
  5
2D
330
5
100
AcDbSymbolTableRecord
100
AcDbLinetypeTableRecord
  2
DASHEDX2
 70
     0
  3
____  ____  ____  ____  ____  ____  
 72
    65
 73
     2
 40
1.5
 49
1.0
 74
     0
 49
-0.5
 74
     0
  0
LTYPE
  5
2E
330
5
100
AcDbSymbolTableRecord
100
AcDbLinetypeTableRecord
  2
DIVIDE
 70
     0
  3
____ . . ____ . . ____ . . ____ . . 
 72
    65
 73
     6
 40
1.25
 49
0.5
 74
     0
 49
-0.25
 74
     0
 49
0.0
 74
     0
 49
-0.25
 74
     0
 49
0.0
 74
     0
 49
-0.25
 74
     0
  0
LTYPE
  5
2F
330
5
100
AcDbSymbolTableRecord
100
AcDbLinetypeTableRecord
  2
DIVIDE2
 70
     0
  3
__..__..__..__..__..__..__..__..__..
 72
    65
 73
     6
 40
0.625
 49
0.25
 74
     0
 49
-0.125
 74
     0
 49
0.0
 74
     0
 49
-0.125
 74
     0
 49
0.0
 74
     0
 49
-0.125
 74
     0
  0
LTYPE
  5
30
330
5
100
AcDbSymbolTableRecord
100
AcDbLinetypeTableRecord
  2
DIVIDEX2
 70
     0
  3
________  .  .  ________  .  .  ________  .  . 
 72
    65
 73
     6
 40
2.5
 49
1.0
 74
     0
 49
-0.5
 74
     0
 49
0.0
 74
     0
 49
-0.5
 74
     0
 49
0.0
 74
     0
 49
-0.5
 74
     0
  0
LTYPE
  5
31
330
5
100
AcDbSymbolTableRecord
100
AcDbLinetypeTableRecord
  2
DOT
 70
     0
  3
. . . . . . . . . . . . . . . . . . 
 72
    65
 73
     2
 40
0.25
 49
0.0
 74
     0
 49
-0.25
 74
     0
  0
LTYPE
  5
32
330
5
100
AcDbSymbolTableRecord
100
AcDbLinetypeTableRecord
  2
DOT2
 70
     0
  3
....................................
 72
    65
 73
     2
 40
0.125
 49
0.0
 74
     0
 49
-0.125
 74
     0
  0
LTYPE
  5
33
330
5
100
AcDbSymbolTableRecord
100
AcDbLinetypeTableRecord
  2
DOTX2
 70
     0
  3
.  .  .  .  .  .  .  .  .  .  .  .  .  
 72
    65
 73
     2
 40
0.5
 49
0.0
 74
     0
 49
-0.5
 74
     0
  0
LTYPE
  5
34
330
5
100
AcDbSymbolTableRecord
100
AcDbLinetypeTableRecord
  2
HIDDEN
 70
     0
  3
__ __ __ __ __ __ __ __ __ __ __ __ 
 72
    65
 73
     2
 40
0.375
 49
0.25
 74
     0
 49
-0.125
 74
     0
  0
LTYPE
  5
35
330
5
100
AcDbSymbolTableRecord
100
AcDbLinetypeTableRecord
  2
HIDDEN2
 70
     0
  3
_ _ _ _ _ _ _ _ _ _ _ _ _ _ _ _ _ _ 
 72
    65
 73
     2
 40
0.1875
 49
0.125
 74
     0
 49
-0.0625
 74
     0
  0
LTYPE
  5
36
330
5
100
AcDbSymbolTableRecord
100
AcDbLinetypeTableRecord
  2
HIDDENX2
 70
     0
  3
____ ____ ____ ____ ____ ____ ____ 
 72
    65
 73
     2
 40
0.75
 49
0.5
 74
     0
 49
-0.25
 74
     0
  0
LTYPE
  5
37
330
5
100
AcDbSymbolTableRecord
100
AcDbLinetypeTableRecord
  2
PHANTOM
 70
     0
  3
______  __  __  ______  __  __  
 72
    65
 73
     6
 40
2.5
 49
1.25
 74
     0
 49
-0.25
 74
     0
 49
0.25
 74
     0
 49
-0.25
 74
     0
 49
0.25
 74
     0
 49
-0.25
 74
     0
  0
LTYPE
  5
38
330
5
100
AcDbSymbolTableRecord
100
AcDbLinetypeTableRecord
  2
PHANTOM2
 70
     0
  3
___ _ _ ___ _ _ ___ _ _ ___ _ _ 
 72
    65
 73
     6
 40
1.25
 49
0.625
 74
     0
 49
-0.125
 74
     0
 49
0.125
 74
     0
 49
-0.125
 74
     0
 49
0.125
 74
     0
 49
-0.125
 74
     0
  0
LTYPE
  5
39
330
5
100
AcDbSymbolTableRecord
100
AcDbLinetypeTableRecord
  2
PHANTOMX2
 70
     0
  3
___ _ _ ___ _ _ ___ _ _ ___ _ _ 
 72
    65
 73
     6
 40
5.0
 49
2.5
 74
     0
 49
-0.5
 74
     0
 49
0.5
 74
     0
 49
-0.5
 74
     0
 49
0.5
 74
     0
 49
-0.5
 74
     0
  0
ENDTAB
  0
TABLE
  2
LAYER
  5
2
330
0
100
AcDbSymbolTable
 70
   257
  0
LAYER
  5
10
330
2
100
AcDbSymbolTableRecord
100
AcDbLayerTableRecord
  2
0
 70
     0
 62
     7
  6
CONTINUOUS
  0
LAYER
  5
3A
330
2
100
AcDbSymbolTableRecord
100
AcDbLayerTableRecord
  2
1
 70
     0
 62
     1
  6
CONTINUOUS
  0
LAYER
  5
3B
330
2
100
AcDbSymbolTableRecord
100
AcDbLayerTableRecord
  2
2
 70
     0
 62
     2
  6
CONTINUOUS
  0
LAYER
  5
3C
330
2
100
AcDbSymbolTableRecord
100
AcDbLayerTableRecord
  2
3
 70
     0
 62
     3
  6
CONTINUOUS
  0
LAYER
  5
3D
330
2
100
AcDbSymbolTableRecord
100
AcDbLayerTableRecord
  2
4
 70
     0
 62
     4
  6
CONTINUOUS
  0
LAYER
  5
3E
330
2
100
AcDbSymbolTableRecord
100
AcDbLayerTableRecord
  2
5
 70
     0
 62
     5
  6
CONTINUOUS
  0
LAYER
  5
3F
330
2
100
AcDbSymbolTableRecord
100
AcDbLayerTableRecord
  2
6
 70
     0
 62
     6
  6
CONTINUOUS
  0
LAYER
  5
40
330
2
100
AcDbSymbolTableRecord
100
AcDbLayerTableRecord
  2
7
 70
     0
 62
     7
  6
CONTINUOUS
  0
LAYER
  5
41
330
2
100
AcDbSymbolTableRecord
100
AcDbLayerTableRecord
  2
8
 70
     0
 62
     8
  6
CONTINUOUS
  0
LAYER
  5
42
330
2
100
AcDbSymbolTableRecord
100
AcDbLayerTableRecord
  2
9
 70
     0
 62
     9
  6
CONTINUOUS
  0
LAYER
  5
43
330
2
100
AcDbSymbolTableRecord
100
AcDbLayerTableRecord
  2
10
 70
     0
 62
    10
  6
CONTINUOUS
  0
LAYER
  5
44
330
2
100
AcDbSymbolTableRecord
100
AcDbLayerTableRecord
  2
11
 70
     0
 62
    11
  6
CONTINUOUS
  0
LAYER
  5
45
330
2
100
AcDbSymbolTableRecord
100
AcDbLayerTableRecord
  2
12
 70
     0
 62
    12
  6
CONTINUOUS
  0
LAYER
  5
46
330
2
100
AcDbSymbolTableRecord
100
AcDbLayerTableRecord
  2
13
 70
     0
 62
    13
  6
CONTINUOUS
  0
LAYER
  5
47
330
2
100
AcDbSymbolTableRecord
100
AcDbLayerTableRecord
  2
14
 70
     0
 62
    14
  6
CONTINUOUS
  0
LAYER
  5
48
330
2
100
AcDbSymbolTableRecord
100
AcDbLayerTableRecord
  2
15
 70
     0
 62
    15
  6
CONTINUOUS
  0
LAYER
  5
49
330
2
100
AcDbSymbolTableRecord
100
AcDbLayerTableRecord
  2
16
 70
     0
 62
    16
  6
CONTINUOUS
  0
LAYER
  5
4A
330
2
100
AcDbSymbolTableRecord
100
AcDbLayerTableRecord
  2
17
 70
     0
 62
    17
  6
CONTINUOUS
  0
LAYER
  5
4B
330
2
100
AcDbSymbolTableRecord
100
AcDbLayerTableRecord
  2
18
 70
     0
 62
    18
  6
CONTINUOUS
  0
LAYER
  5
4C
330
2
100
AcDbSymbolTableRecord
100
AcDbLayerTableRecord
  2
19
 70
     0
 62
    19
  6
CONTINUOUS
  0
LAYER
  5
4D
330
2
100
AcDbSymbolTableRecord
100
AcDbLayerTableRecord
  2
20
 70
     0
 62
    20
  6
CONTINUOUS
  0
LAYER
  5
4E
330
2
100
AcDbSymbolTableRecord
100
AcDbLayerTableRecord
  2
21
 70
     0
 62
    21
  6
CONTINUOUS
  0
LAYER
  5
4F
330
2
100
AcDbSymbolTableRecord
100
AcDbLayerTableRecord
  2
22
 70
     0
 62
    22
  6
CONTINUOUS
  0
LAYER
  5
50
330
2
100
AcDbSymbolTableRecord
100
AcDbLayerTableRecord
  2
23
 70
     0
 62
    23
  6
CONTINUOUS
  0
LAYER
  5
51
330
2
100
AcDbSymbolTableRecord
100
AcDbLayerTableRecord
  2
24
 70
     0
 62
    24
  6
CONTINUOUS
  0
LAYER
  5
52
330
2
100
AcDbSymbolTableRecord
100
AcDbLayerTableRecord
  2
25
 70
     0
 62
    25
  6
CONTINUOUS
  0
LAYER
  5
53
330
2
100
AcDbSymbolTableRecord
100
AcDbLayerTableRecord
  2
26
 70
     0
 62
    26
  6
CONTINUOUS
  0
LAYER
  5
54
330
2
100
AcDbSymbolTableRecord
100
AcDbLayerTableRecord
  2
27
 70
     0
 62
    27
  6
CONTINUOUS
  0
LAYER
  5
55
330
2
100
AcDbSymbolTableRecord
100
AcDbLayerTableRecord
  2
28
 70
     0
 62
    28
  6
CONTINUOUS
  0
LAYER
  5
56
330
2
100
AcDbSymbolTableRecord
100
AcDbLayerTableRecord
  2
29
 70
     0
 62
    29
  6
CONTINUOUS
  0
LAYER
  5
57
330
2
100
AcDbSymbolTableRecord
100
AcDbLayerTableRecord
  2
30
 70
     0
 62
    30
  6
CONTINUOUS
  0
LAYER
  5
58
330
2
100
AcDbSymbolTableRecord
100
AcDbLayerTableRecord
  2
31
 70
     0
 62
    31
  6
CONTINUOUS
  0
LAYER
  5
59
330
2
100
AcDbSymbolTableRecord
100
AcDbLayerTableRecord
  2
32
 70
     0
 62
    32
  6
CONTINUOUS
  0
LAYER
  5
5A
330
2
100
AcDbSymbolTableRecord
100
AcDbLayerTableRecord
  2
33
 70
     0
 62
    33
  6
CONTINUOUS
  0
LAYER
  5
5B
330
2
100
AcDbSymbolTableRecord
100
AcDbLayerTableRecord
  2
34
 70
     0
 62
    34
  6
CONTINUOUS
  0
LAYER
  5
5C
330
2
100
AcDbSymbolTableRecord
100
AcDbLayerTableRecord
  2
35
 70
     0
 62
    35
  6
CONTINUOUS
  0
LAYER
  5
5D
330
2
100
AcDbSymbolTableRecord
100
AcDbLayerTableRecord
  2
36
 70
     0
 62
    36
  6
CONTINUOUS
  0
LAYER
  5
5E
330
2
100
AcDbSymbolTableRecord
100
AcDbLayerTableRecord
  2
37
 70
     0
 62
    37
  6
CONTINUOUS
  0
LAYER
  5
5F
330
2
100
AcDbSymbolTableRecord
100
AcDbLayerTableRecord
  2
38
 70
     0
 62
    38
  6
CONTINUOUS
  0
LAYER
  5
60
330
2
100
AcDbSymbolTableRecord
100
AcDbLayerTableRecord
  2
39
 70
     0
 62
    39
  6
CONTINUOUS
  0
LAYER
  5
61
330
2
100
AcDbSymbolTableRecord
100
AcDbLayerTableRecord
  2
40
 70
     0
 62
    40
  6
CONTINUOUS
  0
LAYER
  5
62
330
2
100
AcDbSymbolTableRecord
100
AcDbLayerTableRecord
  2
41
 70
     0
 62
    41
  6
CONTINUOUS
  0
LAYER
  5
63
330
2
100
AcDbSymbolTableRecord
100
AcDbLayerTableRecord
  2
42
 70
     0
 62
    42
  6
CONTINUOUS
  0
LAYER
  5
64
330
2
100
AcDbSymbolTableRecord
100
AcDbLayerTableRecord
  2
43
 70
     0
 62
    43
  6
CONTINUOUS
  0
LAYER
  5
65
330
2
100
AcDbSymbolTableRecord
100
AcDbLayerTableRecord
  2
44
 70
     0
 62
    44
  6
CONTINUOUS
  0
LAYER
  5
66
330
2
100
AcDbSymbolTableRecord
100
AcDbLayerTableRecord
  2
45
 70
     0
 62
    45
  6
CONTINUOUS
  0
LAYER
  5
67
330
2
100
AcDbSymbolTableRecord
100
AcDbLayerTableRecord
  2
46
 70
     0
 62
    46
  6
CONTINUOUS
  0
LAYER
  5
68
330
2
100
AcDbSymbolTableRecord
100
AcDbLayerTableRecord
  2
47
 70
     0
 62
    47
  6
CONTINUOUS
  0
LAYER
  5
69
330
2
100
AcDbSymbolTableRecord
100
AcDbLayerTableRecord
  2
48
 70
     0
 62
    48
  6
CONTINUOUS
  0
LAYER
  5
6A
330
2
100
AcDbSymbolTableRecord
100
AcDbLayerTableRecord
  2
49
 70
     0
 62
    49
  6
CONTINUOUS
  0
LAYER
  5
6B
330
2
100
AcDbSymbolTableRecord
100
AcDbLayerTableRecord
  2
50
 70
     0
 62
    50
  6
CONTINUOUS
  0
LAYER
  5
6C
330
2
100
AcDbSymbolTableRecord
100
AcDbLayerTableRecord
  2
51
 70
     0
 62
    51
  6
CONTINUOUS
  0
LAYER
  5
6D
330
2
100
AcDbSymbolTableRecord
100
AcDbLayerTableRecord
  2
52
 70
     0
 62
    52
  6
CONTINUOUS
  0
LAYER
  5
6E
330
2
100
AcDbSymbolTableRecord
100
AcDbLayerTableRecord
  2
53
 70
     0
 62
    53
  6
CONTINUOUS
  0
LAYER
  5
6F
330
2
100
AcDbSymbolTableRecord
100
AcDbLayerTableRecord
  2
54
 70
     0
 62
    54
  6
CONTINUOUS
  0
LAYER
  5
70
330
2
100
AcDbSymbolTableRecord
100
AcDbLayerTableRecord
  2
55
 70
     0
 62
    55
  6
CONTINUOUS
  0
LAYER
  5
71
330
2
100
AcDbSymbolTableRecord
100
AcDbLayerTableRecord
  2
56
 70
     0
 62
    56
  6
CONTINUOUS
  0
LAYER
  5
72
330
2
100
AcDbSymbolTableRecord
100
AcDbLayerTableRecord
  2
57
 70
     0
 62
    57
  6
CONTINUOUS
  0
LAYER
  5
73
330
2
100
AcDbSymbolTableRecord
100
AcDbLayerTableRecord
  2
58
 70
     0
 62
    58
  6
CONTINUOUS
  0
LAYER
  5
74
330
2
100
AcDbSymbolTableRecord
100
AcDbLayerTableRecord
  2
59
 70
     0
 62
    59
  6
CONTINUOUS
  0
LAYER
  5
75
330
2
100
AcDbSymbolTableRecord
100
AcDbLayerTableRecord
  2
60
 70
     0
 62
    60
  6
CONTINUOUS
  0
LAYER
  5
76
330
2
100
AcDbSymbolTableRecord
100
AcDbLayerTableRecord
  2
61
 70
     0
 62
    61
  6
CONTINUOUS
  0
LAYER
  5
77
330
2
100
AcDbSymbolTableRecord
100
AcDbLayerTableRecord
  2
62
 70
     0
 62
    62
  6
CONTINUOUS
  0
LAYER
  5
78
330
2
100
AcDbSymbolTableRecord
100
AcDbLayerTableRecord
  2
63
 70
     0
 62
    63
  6
CONTINUOUS
  0
LAYER
  5
79
330
2
100
AcDbSymbolTableRecord
100
AcDbLayerTableRecord
  2
64
 70
     0
 62
    64
  6
CONTINUOUS
  0
LAYER
  5
7A
330
2
100
AcDbSymbolTableRecord
100
AcDbLayerTableRecord
  2
65
 70
     0
 62
    65
  6
CONTINUOUS
  0
LAYER
  5
7B
330
2
100
AcDbSymbolTableRecord
100
AcDbLayerTableRecord
  2
66
 70
     0
 62
    66
  6
CONTINUOUS
  0
LAYER
  5
7C
330
2
100
AcDbSymbolTableRecord
100
AcDbLayerTableRecord
  2
67
 70
     0
 62
    67
  6
CONTINUOUS
  0
LAYER
  5
7D
330
2
100
AcDbSymbolTableRecord
100
AcDbLayerTableRecord
  2
68
 70
     0
 62
    68
  6
CONTINUOUS
  0
LAYER
  5
7E
330
2
100
AcDbSymbolTableRecord
100
AcDbLayerTableRecord
  2
69
 70
     0
 62
    69
  6
CONTINUOUS
  0
LAYER
  5
7F
330
2
100
AcDbSymbolTableRecord
100
AcDbLayerTableRecord
  2
70
 70
     0
 62
    70
  6
CONTINUOUS
  0
LAYER
  5
80
330
2
100
AcDbSymbolTableRecord
100
AcDbLayerTableRecord
  2
71
 70
     0
 62
    71
  6
CONTINUOUS
  0
LAYER
  5
81
330
2
100
AcDbSymbolTableRecord
100
AcDbLayerTableRecord
  2
72
 70
     0
 62
    72
  6
CONTINUOUS
  0
LAYER
  5
82
330
2
100
AcDbSymbolTableRecord
100
AcDbLayerTableRecord
  2
73
 70
     0
 62
    73
  6
CONTINUOUS
  0
LAYER
  5
83
330
2
100
AcDbSymbolTableRecord
100
AcDbLayerTableRecord
  2
74
 70
     0
 62
    74
  6
CONTINUOUS
  0
LAYER
  5
84
330
2
100
AcDbSymbolTableRecord
100
AcDbLayerTableRecord
  2
75
 70
     0
 62
    75
  6
CONTINUOUS
  0
LAYER
  5
85
330
2
100
AcDbSymbolTableRecord
100
AcDbLayerTableRecord
  2
76
 70
     0
 62
    76
  6
CONTINUOUS
  0
LAYER
  5
86
330
2
100
AcDbSymbolTableRecord
100
AcDbLayerTableRecord
  2
77
 70
     0
 62
    77
  6
CONTINUOUS
  0
LAYER
  5
87
330
2
100
AcDbSymbolTableRecord
100
AcDbLayerTableRecord
  2
78
 70
     0
 62
    78
  6
CONTINUOUS
  0
LAYER
  5
88
330
2
100
AcDbSymbolTableRecord
100
AcDbLayerTableRecord
  2
79
 70
     0
 62
    79
  6
CONTINUOUS
  0
LAYER
  5
89
330
2
100
AcDbSymbolTableRecord
100
AcDbLayerTableRecord
  2
80
 70
     0
 62
    80
  6
CONTINUOUS
  0
LAYER
  5
8A
330
2
100
AcDbSymbolTableRecord
100
AcDbLayerTableRecord
  2
81
 70
     0
 62
    81
  6
CONTINUOUS
  0
LAYER
  5
8B
330
2
100
AcDbSymbolTableRecord
100
AcDbLayerTableRecord
  2
82
 70
     0
 62
    82
  6
CONTINUOUS
  0
LAYER
  5
8C
330
2
100
AcDbSymbolTableRecord
100
AcDbLayerTableRecord
  2
83
 70
     0
 62
    83
  6
CONTINUOUS
  0
LAYER
  5
8D
330
2
100
AcDbSymbolTableRecord
100
AcDbLayerTableRecord
  2
84
 70
     0
 62
    84
  6
CONTINUOUS
  0
LAYER
  5
8E
330
2
100
AcDbSymbolTableRecord
100
AcDbLayerTableRecord
  2
85
 70
     0
 62
    85
  6
CONTINUOUS
  0
LAYER
  5
8F
330
2
100
AcDbSymbolTableRecord
100
AcDbLayerTableRecord
  2
86
 70
     0
 62
    86
  6
CONTINUOUS
  0
LAYER
  5
90
330
2
100
AcDbSymbolTableRecord
100
AcDbLayerTableRecord
  2
87
 70
     0
 62
    87
  6
CONTINUOUS
  0
LAYER
  5
91
330
2
100
AcDbSymbolTableRecord
100
AcDbLayerTableRecord
  2
88
 70
     0
 62
    88
  6
CONTINUOUS
  0
LAYER
  5
92
330
2
100
AcDbSymbolTableRecord
100
AcDbLayerTableRecord
  2
89
 70
     0
 62
    89
  6
CONTINUOUS
  0
LAYER
  5
93
330
2
100
AcDbSymbolTableRecord
100
AcDbLayerTableRecord
  2
90
 70
     0
 62
    90
  6
CONTINUOUS
  0
LAYER
  5
94
330
2
100
AcDbSymbolTableRecord
100
AcDbLayerTableRecord
  2
91
 70
     0
 62
    91
  6
CONTINUOUS
  0
LAYER
  5
95
330
2
100
AcDbSymbolTableRecord
100
AcDbLayerTableRecord
  2
92
 70
     0
 62
    92
  6
CONTINUOUS
  0
LAYER
  5
96
330
2
100
AcDbSymbolTableRecord
100
AcDbLayerTableRecord
  2
93
 70
     0
 62
    93
  6
CONTINUOUS
  0
LAYER
  5
97
330
2
100
AcDbSymbolTableRecord
100
AcDbLayerTableRecord
  2
94
 70
     0
 62
    94
  6
CONTINUOUS
  0
LAYER
  5
98
330
2
100
AcDbSymbolTableRecord
100
AcDbLayerTableRecord
  2
95
 70
     0
 62
    95
  6
CONTINUOUS
  0
LAYER
  5
99
330
2
100
AcDbSymbolTableRecord
100
AcDbLayerTableRecord
  2
96
 70
     0
 62
    96
  6
CONTINUOUS
  0
LAYER
  5
9A
330
2
100
AcDbSymbolTableRecord
100
AcDbLayerTableRecord
  2
97
 70
     0
 62
    97
  6
CONTINUOUS
  0
LAYER
  5
9B
330
2
100
AcDbSymbolTableRecord
100
AcDbLayerTableRecord
  2
98
 70
     0
 62
    98
  6
CONTINUOUS
  0
LAYER
  5
9C
330
2
100
AcDbSymbolTableRecord
100
AcDbLayerTableRecord
  2
99
 70
     0
 62
    99
  6
CONTINUOUS
  0
LAYER
  5
9D
330
2
100
AcDbSymbolTableRecord
100
AcDbLayerTableRecord
  2
100
 70
     0
 62
   100
  6
CONTINUOUS
  0
LAYER
  5
9E
330
2
100
AcDbSymbolTableRecord
100
AcDbLayerTableRecord
  2
101
 70
     0
 62
   101
  6
CONTINUOUS
  0
LAYER
  5
9F
330
2
100
AcDbSymbolTableRecord
100
AcDbLayerTableRecord
  2
102
 70
     0
 62
   102
  6
CONTINUOUS
  0
LAYER
  5
A0
330
2
100
AcDbSymbolTableRecord
100
AcDbLayerTableRecord
  2
103
 70
     0
 62
   103
  6
CONTINUOUS
  0
LAYER
  5
A1
330
2
100
AcDbSymbolTableRecord
100
AcDbLayerTableRecord
  2
104
 70
     0
 62
   104
  6
CONTINUOUS
  0
LAYER
  5
A2
330
2
100
AcDbSymbolTableRecord
100
AcDbLayerTableRecord
  2
105
 70
     0
 62
   105
  6
CONTINUOUS
  0
LAYER
  5
A3
330
2
100
AcDbSymbolTableRecord
100
AcDbLayerTableRecord
  2
106
 70
     0
 62
   106
  6
CONTINUOUS
  0
LAYER
  5
A4
330
2
100
AcDbSymbolTableRecord
100
AcDbLayerTableRecord
  2
107
 70
     0
 62
   107
  6
CONTINUOUS
  0
LAYER
  5
A5
330
2
100
AcDbSymbolTableRecord
100
AcDbLayerTableRecord
  2
108
 70
     0
 62
   108
  6
CONTINUOUS
  0
LAYER
  5
A6
330
2
100
AcDbSymbolTableRecord
100
AcDbLayerTableRecord
  2
109
 70
     0
 62
   109
  6
CONTINUOUS
  0
LAYER
  5
A7
330
2
100
AcDbSymbolTableRecord
100
AcDbLayerTableRecord
  2
110
 70
     0
 62
   110
  6
CONTINUOUS
  0
LAYER
  5
A8
330
2
100
AcDbSymbolTableRecord
100
AcDbLayerTableRecord
  2
111
 70
     0
 62
   111
  6
CONTINUOUS
  0
LAYER
  5
A9
330
2
100
AcDbSymbolTableRecord
100
AcDbLayerTableRecord
  2
112
 70
     0
 62
   112
  6
CONTINUOUS
  0
LAYER
  5
AA
330
2
100
AcDbSymbolTableRecord
100
AcDbLayerTableRecord
  2
113
 70
     0
 62
   113
  6
CONTINUOUS
  0
LAYER
  5
AB
330
2
100
AcDbSymbolTableRecord
100
AcDbLayerTableRecord
  2
114
 70
     0
 62
   114
  6
CONTINUOUS
  0
LAYER
  5
AC
330
2
100
AcDbSymbolTableRecord
100
AcDbLayerTableRecord
  2
115
 70
     0
 62
   115
  6
CONTINUOUS
  0
LAYER
  5
AD
330
2
100
AcDbSymbolTableRecord
100
AcDbLayerTableRecord
  2
116
 70
     0
 62
   116
  6
CONTINUOUS
  0
LAYER
  5
AE
330
2
100
AcDbSymbolTableRecord
100
AcDbLayerTableRecord
  2
117
 70
     0
 62
   117
  6
CONTINUOUS
  0
LAYER
  5
AF
330
2
100
AcDbSymbolTableRecord
100
AcDbLayerTableRecord
  2
118
 70
     0
 62
   118
  6
CONTINUOUS
  0
LAYER
  5
B0
330
2
100
AcDbSymbolTableRecord
100
AcDbLayerTableRecord
  2
119
 70
     0
 62
   119
  6
CONTINUOUS
  0
LAYER
  5
B1
330
2
100
AcDbSymbolTableRecord
100
AcDbLayerTableRecord
  2
120
 70
     0
 62
   120
  6
CONTINUOUS
  0
LAYER
  5
B2
330
2
100
AcDbSymbolTableRecord
100
AcDbLayerTableRecord
  2
121
 70
     0
 62
   121
  6
CONTINUOUS
  0
LAYER
  5
B3
330
2
100
AcDbSymbolTableRecord
100
AcDbLayerTableRecord
  2
122
 70
     0
 62
   122
  6
CONTINUOUS
  0
LAYER
  5
B4
330
2
100
AcDbSymbolTableRecord
100
AcDbLayerTableRecord
  2
123
 70
     0
 62
   123
  6
CONTINUOUS
  0
LAYER
  5
B5
330
2
100
AcDbSymbolTableRecord
100
AcDbLayerTableRecord
  2
124
 70
     0
 62
   124
  6
CONTINUOUS
  0
LAYER
  5
B6
330
2
100
AcDbSymbolTableRecord
100
AcDbLayerTableRecord
  2
125
 70
     0
 62
   125
  6
CONTINUOUS
  0
LAYER
  5
B7
330
2
100
AcDbSymbolTableRecord
100
AcDbLayerTableRecord
  2
126
 70
     0
 62
   126
  6
CONTINUOUS
  0
LAYER
  5
B8
330
2
100
AcDbSymbolTableRecord
100
AcDbLayerTableRecord
  2
127
 70
     0
 62
   127
  6
CONTINUOUS
  0
LAYER
  5
B9
330
2
100
AcDbSymbolTableRecord
100
AcDbLayerTableRecord
  2
128
 70
     0
 62
   128
  6
CONTINUOUS
  0
LAYER
  5
BA
330
2
100
AcDbSymbolTableRecord
100
AcDbLayerTableRecord
  2
129
 70
     0
 62
   129
  6
CONTINUOUS
  0
LAYER
  5
BB
330
2
100
AcDbSymbolTableRecord
100
AcDbLayerTableRecord
  2
130
 70
     0
 62
   130
  6
CONTINUOUS
  0
LAYER
  5
BC
330
2
100
AcDbSymbolTableRecord
100
AcDbLayerTableRecord
  2
131
 70
     0
 62
   131
  6
CONTINUOUS
  0
LAYER
  5
BD
330
2
100
AcDbSymbolTableRecord
100
AcDbLayerTableRecord
  2
132
 70
     0
 62
   132
  6
CONTINUOUS
  0
LAYER
  5
BE
330
2
100
AcDbSymbolTableRecord
100
AcDbLayerTableRecord
  2
133
 70
     0
 62
   133
  6
CONTINUOUS
  0
LAYER
  5
BF
330
2
100
AcDbSymbolTableRecord
100
AcDbLayerTableRecord
  2
134
 70
     0
 62
   134
  6
CONTINUOUS
  0
LAYER
  5
C0
330
2
100
AcDbSymbolTableRecord
100
AcDbLayerTableRecord
  2
135
 70
     0
 62
   135
  6
CONTINUOUS
  0
LAYER
  5
C1
330
2
100
AcDbSymbolTableRecord
100
AcDbLayerTableRecord
  2
136
 70
     0
 62
   136
  6
CONTINUOUS
  0
LAYER
  5
C2
330
2
100
AcDbSymbolTableRecord
100
AcDbLayerTableRecord
  2
137
 70
     0
 62
   137
  6
CONTINUOUS
  0
LAYER
  5
C3
330
2
100
AcDbSymbolTableRecord
100
AcDbLayerTableRecord
  2
138
 70
     0
 62
   138
  6
CONTINUOUS
  0
LAYER
  5
C4
330
2
100
AcDbSymbolTableRecord
100
AcDbLayerTableRecord
  2
139
 70
     0
 62
   139
  6
CONTINUOUS
  0
LAYER
  5
C5
330
2
100
AcDbSymbolTableRecord
100
AcDbLayerTableRecord
  2
140
 70
     0
 62
   140
  6
CONTINUOUS
  0
LAYER
  5
C6
330
2
100
AcDbSymbolTableRecord
100
AcDbLayerTableRecord
  2
141
 70
     0
 62
   141
  6
CONTINUOUS
  0
LAYER
  5
C7
330
2
100
AcDbSymbolTableRecord
100
AcDbLayerTableRecord
  2
142
 70
     0
 62
   142
  6
CONTINUOUS
  0
LAYER
  5
C8
330
2
100
AcDbSymbolTableRecord
100
AcDbLayerTableRecord
  2
143
 70
     0
 62
   143
  6
CONTINUOUS
  0
LAYER
  5
C9
330
2
100
AcDbSymbolTableRecord
100
AcDbLayerTableRecord
  2
144
 70
     0
 62
   144
  6
CONTINUOUS
  0
LAYER
  5
CA
330
2
100
AcDbSymbolTableRecord
100
AcDbLayerTableRecord
  2
145
 70
     0
 62
   145
  6
CONTINUOUS
  0
LAYER
  5
CB
330
2
100
AcDbSymbolTableRecord
100
AcDbLayerTableRecord
  2
146
 70
     0
 62
   146
  6
CONTINUOUS
  0
LAYER
  5
CC
330
2
100
AcDbSymbolTableRecord
100
AcDbLayerTableRecord
  2
147
 70
     0
 62
   147
  6
CONTINUOUS
  0
LAYER
  5
CD
330
2
100
AcDbSymbolTableRecord
100
AcDbLayerTableRecord
  2
148
 70
     0
 62
   148
  6
CONTINUOUS
  0
LAYER
  5
CE
330
2
100
AcDbSymbolTableRecord
100
AcDbLayerTableRecord
  2
149
 70
     0
 62
   149
  6
CONTINUOUS
  0
LAYER
  5
CF
330
2
100
AcDbSymbolTableRecord
100
AcDbLayerTableRecord
  2
150
 70
     0
 62
   150
  6
CONTINUOUS
  0
LAYER
  5
D0
330
2
100
AcDbSymbolTableRecord
100
AcDbLayerTableRecord
  2
151
 70
     0
 62
   151
  6
CONTINUOUS
  0
LAYER
  5
D1
330
2
100
AcDbSymbolTableRecord
100
AcDbLayerTableRecord
  2
152
 70
     0
 62
   152
  6
CONTINUOUS
  0
LAYER
  5
D2
330
2
100
AcDbSymbolTableRecord
100
AcDbLayerTableRecord
  2
153
 70
     0
 62
   153
  6
CONTINUOUS
  0
LAYER
  5
D3
330
2
100
AcDbSymbolTableRecord
100
AcDbLayerTableRecord
  2
154
 70
     0
 62
   154
  6
CONTINUOUS
  0
LAYER
  5
D4
330
2
100
AcDbSymbolTableRecord
100
AcDbLayerTableRecord
  2
155
 70
     0
 62
   155
  6
CONTINUOUS
  0
LAYER
  5
D5
330
2
100
AcDbSymbolTableRecord
100
AcDbLayerTableRecord
  2
156
 70
     0
 62
   156
  6
CONTINUOUS
  0
LAYER
  5
D6
330
2
100
AcDbSymbolTableRecord
100
AcDbLayerTableRecord
  2
157
 70
     0
 62
   157
  6
CONTINUOUS
  0
LAYER
  5
D7
330
2
100
AcDbSymbolTableRecord
100
AcDbLayerTableRecord
  2
158
 70
     0
 62
   158
  6
CONTINUOUS
  0
LAYER
  5
D8
330
2
100
AcDbSymbolTableRecord
100
AcDbLayerTableRecord
  2
159
 70
     0
 62
   159
  6
CONTINUOUS
  0
LAYER
  5
D9
330
2
100
AcDbSymbolTableRecord
100
AcDbLayerTableRecord
  2
160
 70
     0
 62
   160
  6
CONTINUOUS
  0
LAYER
  5
DA
330
2
100
AcDbSymbolTableRecord
100
AcDbLayerTableRecord
  2
161
 70
     0
 62
   161
  6
CONTINUOUS
  0
LAYER
  5
DB
330
2
100
AcDbSymbolTableRecord
100
AcDbLayerTableRecord
  2
162
 70
     0
 62
   162
  6
CONTINUOUS
  0
LAYER
  5
DC
330
2
100
AcDbSymbolTableRecord
100
AcDbLayerTableRecord
  2
163
 70
     0
 62
   163
  6
CONTINUOUS
  0
LAYER
  5
DD
330
2
100
AcDbSymbolTableRecord
100
AcDbLayerTableRecord
  2
164
 70
     0
 62
   164
  6
CONTINUOUS
  0
LAYER
  5
DE
330
2
100
AcDbSymbolTableRecord
100
AcDbLayerTableRecord
  2
165
 70
     0
 62
   165
  6
CONTINUOUS
  0
LAYER
  5
DF
330
2
100
AcDbSymbolTableRecord
100
AcDbLayerTableRecord
  2
166
 70
     0
 62
   166
  6
CONTINUOUS
  0
LAYER
  5
E0
330
2
100
AcDbSymbolTableRecord
100
AcDbLayerTableRecord
  2
167
 70
     0
 62
   167
  6
CONTINUOUS
  0
LAYER
  5
E1
330
2
100
AcDbSymbolTableRecord
100
AcDbLayerTableRecord
  2
168
 70
     0
 62
   168
  6
CONTINUOUS
  0
LAYER
  5
E2
330
2
100
AcDbSymbolTableRecord
100
AcDbLayerTableRecord
  2
169
 70
     0
 62
   169
  6
CONTINUOUS
  0
LAYER
  5
E3
330
2
100
AcDbSymbolTableRecord
100
AcDbLayerTableRecord
  2
170
 70
     0
 62
   170
  6
CONTINUOUS
  0
LAYER
  5
E4
330
2
100
AcDbSymbolTableRecord
100
AcDbLayerTableRecord
  2
171
 70
     0
 62
   171
  6
CONTINUOUS
  0
LAYER
  5
E5
330
2
100
AcDbSymbolTableRecord
100
AcDbLayerTableRecord
  2
172
 70
     0
 62
   172
  6
CONTINUOUS
  0
LAYER
  5
E6
330
2
100
AcDbSymbolTableRecord
100
AcDbLayerTableRecord
  2
173
 70
     0
 62
   173
  6
CONTINUOUS
  0
LAYER
  5
E7
330
2
100
AcDbSymbolTableRecord
100
AcDbLayerTableRecord
  2
174
 70
     0
 62
   174
  6
CONTINUOUS
  0
LAYER
  5
E8
330
2
100
AcDbSymbolTableRecord
100
AcDbLayerTableRecord
  2
175
 70
     0
 62
   175
  6
CONTINUOUS
  0
LAYER
  5
E9
330
2
100
AcDbSymbolTableRecord
100
AcDbLayerTableRecord
  2
176
 70
     0
 62
   176
  6
CONTINUOUS
  0
LAYER
  5
EA
330
2
100
AcDbSymbolTableRecord
100
AcDbLayerTableRecord
  2
177
 70
     0
 62
   177
  6
CONTINUOUS
  0
LAYER
  5
EB
330
2
100
AcDbSymbolTableRecord
100
AcDbLayerTableRecord
  2
178
 70
     0
 62
   178
  6
CONTINUOUS
  0
LAYER
  5
EC
330
2
100
AcDbSymbolTableRecord
100
AcDbLayerTableRecord
  2
179
 70
     0
 62
   179
  6
CONTINUOUS
  0
LAYER
  5
ED
330
2
100
AcDbSymbolTableRecord
100
AcDbLayerTableRecord
  2
180
 70
     0
 62
   180
  6
CONTINUOUS
  0
LAYER
  5
EE
330
2
100
AcDbSymbolTableRecord
100
AcDbLayerTableRecord
  2
181
 70
     0
 62
   181
  6
CONTINUOUS
  0
LAYER
  5
EF
330
2
100
AcDbSymbolTableRecord
100
AcDbLayerTableRecord
  2
182
 70
     0
 62
   182
  6
CONTINUOUS
  0
LAYER
  5
F0
330
2
100
AcDbSymbolTableRecord
100
AcDbLayerTableRecord
  2
183
 70
     0
 62
   183
  6
CONTINUOUS
  0
LAYER
  5
F1
330
2
100
AcDbSymbolTableRecord
100
AcDbLayerTableRecord
  2
184
 70
     0
 62
   184
  6
CONTINUOUS
  0
LAYER
  5
F2
330
2
100
AcDbSymbolTableRecord
100
AcDbLayerTableRecord
  2
185
 70
     0
 62
   185
  6
CONTINUOUS
  0
LAYER
  5
F3
330
2
100
AcDbSymbolTableRecord
100
AcDbLayerTableRecord
  2
186
 70
     0
 62
   186
  6
CONTINUOUS
  0
LAYER
  5
F4
330
2
100
AcDbSymbolTableRecord
100
AcDbLayerTableRecord
  2
187
 70
     0
 62
   187
  6
CONTINUOUS
  0
LAYER
  5
F5
330
2
100
AcDbSymbolTableRecord
100
AcDbLayerTableRecord
  2
188
 70
     0
 62
   188
  6
CONTINUOUS
  0
LAYER
  5
F6
330
2
100
AcDbSymbolTableRecord
100
AcDbLayerTableRecord
  2
189
 70
     0
 62
   189
  6
CONTINUOUS
  0
LAYER
  5
F7
330
2
100
AcDbSymbolTableRecord
100
AcDbLayerTableRecord
  2
190
 70
     0
 62
   190
  6
CONTINUOUS
  0
LAYER
  5
F8
330
2
100
AcDbSymbolTableRecord
100
AcDbLayerTableRecord
  2
191
 70
     0
 62
   191
  6
CONTINUOUS
  0
LAYER
  5
F9
330
2
100
AcDbSymbolTableRecord
100
AcDbLayerTableRecord
  2
192
 70
     0
 62
   192
  6
CONTINUOUS
  0
LAYER
  5
FA
330
2
100
AcDbSymbolTableRecord
100
AcDbLayerTableRecord
  2
193
 70
     0
 62
   193
  6
CONTINUOUS
  0
LAYER
  5
FB
330
2
100
AcDbSymbolTableRecord
100
AcDbLayerTableRecord
  2
194
 70
     0
 62
   194
  6
CONTINUOUS
  0
LAYER
  5
FC
330
2
100
AcDbSymbolTableRecord
100
AcDbLayerTableRecord
  2
195
 70
     0
 62
   195
  6
CONTINUOUS
  0
LAYER
  5
FD
330
2
100
AcDbSymbolTableRecord
100
AcDbLayerTableRecord
  2
196
 70
     0
 62
   196
  6
CONTINUOUS
  0
LAYER
  5
FE
330
2
100
AcDbSymbolTableRecord
100
AcDbLayerTableRecord
  2
197
 70
     0
 62
   197
  6
CONTINUOUS
  0
LAYER
  5
FF
330
2
100
AcDbSymbolTableRecord
100
AcDbLayerTableRecord
  2
198
 70
     0
 62
   198
  6
CONTINUOUS
  0
LAYER
  5
100
330
2
100
AcDbSymbolTableRecord
100
AcDbLayerTableRecord
  2
199
 70
     0
 62
   199
  6
CONTINUOUS
  0
LAYER
  5
101
330
2
100
AcDbSymbolTableRecord
100
AcDbLayerTableRecord
  2
200
 70
     0
 62
   200
  6
CONTINUOUS
  0
LAYER
  5
102
330
2
100
AcDbSymbolTableRecord
100
AcDbLayerTableRecord
  2
201
 70
     0
 62
   201
  6
CONTINUOUS
  0
LAYER
  5
103
330
2
100
AcDbSymbolTableRecord
100
AcDbLayerTableRecord
  2
202
 70
     0
 62
   202
  6
CONTINUOUS
  0
LAYER
  5
104
330
2
100
AcDbSymbolTableRecord
100
AcDbLayerTableRecord
  2
203
 70
     0
 62
   203
  6
CONTINUOUS
  0
LAYER
  5
105
330
2
100
AcDbSymbolTableRecord
100
AcDbLayerTableRecord
  2
204
 70
     0
 62
   204
  6
CONTINUOUS
  0
LAYER
  5
106
330
2
100
AcDbSymbolTableRecord
100
AcDbLayerTableRecord
  2
205
 70
     0
 62
   205
  6
CONTINUOUS
  0
LAYER
  5
107
330
2
100
AcDbSymbolTableRecord
100
AcDbLayerTableRecord
  2
206
 70
     0
 62
   206
  6
CONTINUOUS
  0
LAYER
  5
108
330
2
100
AcDbSymbolTableRecord
100
AcDbLayerTableRecord
  2
207
 70
     0
 62
   207
  6
CONTINUOUS
  0
LAYER
  5
109
330
2
100
AcDbSymbolTableRecord
100
AcDbLayerTableRecord
  2
208
 70
     0
 62
   208
  6
CONTINUOUS
  0
LAYER
  5
10A
330
2
100
AcDbSymbolTableRecord
100
AcDbLayerTableRecord
  2
209
 70
     0
 62
   209
  6
CONTINUOUS
  0
LAYER
  5
10B
330
2
100
AcDbSymbolTableRecord
100
AcDbLayerTableRecord
  2
210
 70
     0
 62
   210
  6
CONTINUOUS
  0
LAYER
  5
10C
330
2
100
AcDbSymbolTableRecord
100
AcDbLayerTableRecord
  2
211
 70
     0
 62
   211
  6
CONTINUOUS
  0
LAYER
  5
10D
330
2
100
AcDbSymbolTableRecord
100
AcDbLayerTableRecord
  2
212
 70
     0
 62
   212
  6
CONTINUOUS
  0
LAYER
  5
10E
330
2
100
AcDbSymbolTableRecord
100
AcDbLayerTableRecord
  2
213
 70
     0
 62
   213
  6
CONTINUOUS
  0
LAYER
  5
10F
330
2
100
AcDbSymbolTableRecord
100
AcDbLayerTableRecord
  2
214
 70
     0
 62
   214
  6
CONTINUOUS
  0
LAYER
  5
110
330
2
100
AcDbSymbolTableRecord
100
AcDbLayerTableRecord
  2
215
 70
     0
 62
   215
  6
CONTINUOUS
  0
LAYER
  5
111
330
2
100
AcDbSymbolTableRecord
100
AcDbLayerTableRecord
  2
216
 70
     0
 62
   216
  6
CONTINUOUS
  0
LAYER
  5
112
330
2
100
AcDbSymbolTableRecord
100
AcDbLayerTableRecord
  2
217
 70
     0
 62
   217
  6
CONTINUOUS
  0
LAYER
  5
113
330
2
100
AcDbSymbolTableRecord
100
AcDbLayerTableRecord
  2
218
 70
     0
 62
   218
  6
CONTINUOUS
  0
LAYER
  5
114
330
2
100
AcDbSymbolTableRecord
100
AcDbLayerTableRecord
  2
219
 70
     0
 62
   219
  6
CONTINUOUS
  0
LAYER
  5
115
330
2
100
AcDbSymbolTableRecord
100
AcDbLayerTableRecord
  2
220
 70
     0
 62
   220
  6
CONTINUOUS
  0
LAYER
  5
116
330
2
100
AcDbSymbolTableRecord
100
AcDbLayerTableRecord
  2
221
 70
     0
 62
   221
  6
CONTINUOUS
  0
LAYER
  5
117
330
2
100
AcDbSymbolTableRecord
100
AcDbLayerTableRecord
  2
222
 70
     0
 62
   222
  6
CONTINUOUS
  0
LAYER
  5
118
330
2
100
AcDbSymbolTableRecord
100
AcDbLayerTableRecord
  2
223
 70
     0
 62
   223
  6
CONTINUOUS
  0
LAYER
  5
119
330
2
100
AcDbSymbolTableRecord
100
AcDbLayerTableRecord
  2
224
 70
     0
 62
   224
  6
CONTINUOUS
  0
LAYER
  5
11A
330
2
100
AcDbSymbolTableRecord
100
AcDbLayerTableRecord
  2
225
 70
     0
 62
   225
  6
CONTINUOUS
  0
LAYER
  5
11B
330
2
100
AcDbSymbolTableRecord
100
AcDbLayerTableRecord
  2
226
 70
     0
 62
   226
  6
CONTINUOUS
  0
LAYER
  5
11C
330
2
100
AcDbSymbolTableRecord
100
AcDbLayerTableRecord
  2
227
 70
     0
 62
   227
  6
CONTINUOUS
  0
LAYER
  5
11D
330
2
100
AcDbSymbolTableRecord
100
AcDbLayerTableRecord
  2
228
 70
     0
 62
   228
  6
CONTINUOUS
  0
LAYER
  5
11E
330
2
100
AcDbSymbolTableRecord
100
AcDbLayerTableRecord
  2
229
 70
     0
 62
   229
  6
CONTINUOUS
  0
LAYER
  5
11F
330
2
100
AcDbSymbolTableRecord
100
AcDbLayerTableRecord
  2
230
 70
     0
 62
   230
  6
CONTINUOUS
  0
LAYER
  5
120
330
2
100
AcDbSymbolTableRecord
100
AcDbLayerTableRecord
  2
231
 70
     0
 62
   231
  6
CONTINUOUS
  0
LAYER
  5
121
330
2
100
AcDbSymbolTableRecord
100
AcDbLayerTableRecord
  2
232
 70
     0
 62
   232
  6
CONTINUOUS
  0
LAYER
  5
122
330
2
100
AcDbSymbolTableRecord
100
AcDbLayerTableRecord
  2
233
 70
     0
 62
   233
  6
CONTINUOUS
  0
LAYER
  5
123
330
2
100
AcDbSymbolTableRecord
100
AcDbLayerTableRecord
  2
234
 70
     0
 62
   234
  6
CONTINUOUS
  0
LAYER
  5
124
330
2
100
AcDbSymbolTableRecord
100
AcDbLayerTableRecord
  2
235
 70
     0
 62
   235
  6
CONTINUOUS
  0
LAYER
  5
125
330
2
100
AcDbSymbolTableRecord
100
AcDbLayerTableRecord
  2
236
 70
     0
 62
   236
  6
CONTINUOUS
  0
LAYER
  5
126
330
2
100
AcDbSymbolTableRecord
100
AcDbLayerTableRecord
  2
237
 70
     0
 62
   237
  6
CONTINUOUS
  0
LAYER
  5
127
330
2
100
AcDbSymbolTableRecord
100
AcDbLayerTableRecord
  2
238
 70
     0
 62
   238
  6
CONTINUOUS
  0
LAYER
  5
128
330
2
100
AcDbSymbolTableRecord
100
AcDbLayerTableRecord
  2
239
 70
     0
 62
   239
  6
CONTINUOUS
  0
LAYER
  5
129
330
2
100
AcDbSymbolTableRecord
100
AcDbLayerTableRecord
  2
240
 70
     0
 62
   240
  6
CONTINUOUS
  0
LAYER
  5
12A
330
2
100
AcDbSymbolTableRecord
100
AcDbLayerTableRecord
  2
241
 70
     0
 62
   241
  6
CONTINUOUS
  0
LAYER
  5
12B
330
2
100
AcDbSymbolTableRecord
100
AcDbLayerTableRecord
  2
242
 70
     0
 62
   242
  6
CONTINUOUS
  0
LAYER
  5
12C
330
2
100
AcDbSymbolTableRecord
100
AcDbLayerTableRecord
  2
243
 70
     0
 62
   243
  6
CONTINUOUS
  0
LAYER
  5
12D
330
2
100
AcDbSymbolTableRecord
100
AcDbLayerTableRecord
  2
244
 70
     0
 62
   244
  6
CONTINUOUS
  0
LAYER
  5
12E
330
2
100
AcDbSymbolTableRecord
100
AcDbLayerTableRecord
  2
245
 70
     0
 62
   245
  6
CONTINUOUS
  0
LAYER
  5
12F
330
2
100
AcDbSymbolTableRecord
100
AcDbLayerTableRecord
  2
246
 70
     0
 62
   246
  6
CONTINUOUS
  0
LAYER
  5
130
330
2
100
AcDbSymbolTableRecord
100
AcDbLayerTableRecord
  2
247
 70
     0
 62
   247
  6
CONTINUOUS
  0
LAYER
  5
131
330
2
100
AcDbSymbolTableRecord
100
AcDbLayerTableRecord
  2
248
 70
     0
 62
   248
  6
CONTINUOUS
  0
LAYER
  5
132
330
2
100
AcDbSymbolTableRecord
100
AcDbLayerTableRecord
  2
249
 70
     0
 62
   249
  6
CONTINUOUS
  0
LAYER
  5
133
330
2
100
AcDbSymbolTableRecord
100
AcDbLayerTableRecord
  2
250
 70
     0
 62
   250
  6
CONTINUOUS
  0
LAYER
  5
134
330
2
100
AcDbSymbolTableRecord
100
AcDbLayerTableRecord
  2
251
 70
     0
 62
   251
  6
CONTINUOUS
  0
LAYER
  5
135
330
2
100
AcDbSymbolTableRecord
100
AcDbLayerTableRecord
  2
252
 70
     0
 62
   252
  6
CONTINUOUS
  0
LAYER
  5
136
330
2
100
AcDbSymbolTableRecord
100
AcDbLayerTableRecord
  2
253
 70
     0
 62
   253
  6
CONTINUOUS
  0
LAYER
  5
137
330
2
100
AcDbSymbolTableRecord
100
AcDbLayerTableRecord
  2
254
 70
     0
 62
   254
  6
CONTINUOUS
  0
LAYER
  5
138
330
2
100
AcDbSymbolTableRecord
100
AcDbLayerTableRecord
  2
255
 70
     0
 62
   255
  6
CONTINUOUS
  0
LAYER
  5
410E
330
2
100
AcDbSymbolTableRecord
100
AcDbLayerTableRecord
  2
DEFPOINTS
 70
     0
 62
     7
  6
CONTINUOUS
  0
ENDTAB
  0
TABLE
  2
STYLE
  5
3
330
0
100
AcDbSymbolTable
 70
     1
  0
STYLE
  5
11
330
3
100
AcDbSymbolTableRecord
100
AcDbTextStyleTableRecord
  2
STANDARD
 70
     0
 40
0.0
 41
1.0
 50
0.0
 71
     0
 42
0.2
  3
monotxt
  4

  0
ENDTAB
  0
TABLE
  2
VIEW
  5
6
330
0
100
AcDbSymbolTable
 70
     0
  0
ENDTAB
  0
TABLE
  2
UCS
  5
7
330
0
100
AcDbSymbolTable
 70
     0
  0
ENDTAB
  0
TABLE
  2
APPID
  5
9
330
0
100
AcDbSymbolTable
 70
     1
  0
APPID
  5
12
330
9
100
AcDbSymbolTableRecord
100
AcDbRegAppTableRecord
  2
ACAD
 70
     0
  0
ENDTAB
  0
TABLE
  2
DIMSTYLE
  5
A
330
0
100
AcDbSymbolTable
 70
     1
  0
DIMSTYLE
105
2D4D
330
A
100
AcDbSymbolTableRecord
100
AcDbDimStyleTableRecord
  2
STANDARD
 70
     0
  3

  4

  5

  6

  7

 40
1.0
 41
0.18
 42
0.0625
 43
0.38
 44
0.18
 45
0.0
 46
0.0
 47
0.0
 48
0.0
140
0.18
141
0.09
142
0.0
143
25.4
144
1.0
145
0.0
146
1.0
147
0.09
 71
     0
 72
     0
 73
     1
 74
     1
 75
     0
 76
     0
 77
     0
 78
     0
170
     0
171
     2
172
     0
173
     0
174
     0
175
     0
176
     0
177
     0
178
     0
270
     2
271
     4
272
     4
273
     2
274
     2
340
11
275
     0
280
     0
281
     0
282
     0
283
     1
284
     0
285
     0
286
     0
287
     3
288
     0
  0
ENDTAB
  0
TABLE
  2
BLOCK_RECORD
  5
1
330
0
100
AcDbSymbolTable
 70
     1
  0
BLOCK_RECORD
  5
1E
102
{ACAD_XDICTIONARY
360
411D
102
}
330
1
100
AcDbSymbolTableRecord
100
AcDbBlockTableRecord
  2
*MODEL_SPACE
  0
BLOCK_RECORD
  5
1A
102
{ACAD_XDICTIONARY
360
411F
102
}
330
1
100
AcDbSymbolTableRecord
100
AcDbBlockTableRecord
  2
*PAPER_SPACE
  0
ENDTAB
  0
ENDSEC
  0
SECTION
  2
BLOCKS
  0
BLOCK
  5
13B
330
1E
100
AcDbEntity
  8
0
100
AcDbBlockBegin
  2
*MODEL_SPACE
 70
     0
 10
0.0
 20
0.0
 30
0.0
  3
*MODEL_SPACE
  1

  0
ENDBLK
  5
13C
330
1E
100
AcDbEntity
  8
0
100
AcDbBlockEnd
  0
BLOCK
  5
139
330
1A
100
AcDbEntity
 67
     1
  8
0
100
AcDbBlockBegin
  2
*PAPER_SPACE
 70
     0
 10
0.0
 20
0.0
 30
0.0
  3
*PAPER_SPACE
  1

  0
ENDBLK
  5
13A
330
1A
100
AcDbEntity
 67
     1
  8
0
100
AcDbBlockEnd
  0
ENDSEC
  0
SECTION
  2
ENTITIES
  0
LINE
  5
2A3F
330
1E
100
AcDbEntity
  8
3
100
AcDbLine
 10
1.474669997033348
 20
3.013131381957886
 30
0.0
 11
1.474669997033348
 21
3.362212746787282
 31
0.0
  0
LINE
  5
2A46
330
1E
100
AcDbEntity
  8
3
100
AcDbLine
 10
-0.3691620239640247
 20
2.98163531896576
 30
0.0
 11
1.443173934041222
 21
2.98163531896576
 31
0.0
  0
LINE
  5
2A4D
330
1E
100
AcDbEntity
  8
3
100
AcDbLine
 10
-0.4006580869561507
 20
3.362212746787282
 30
0.0
 11
-0.4006580869561507
 21
3.013131381957886
 31
0.0
  0
LINE
  5
2A53
330
1E
100
AcDbEntity
  8
3
100
AcDbLine
 10
-0.39540874312413
 20
3.377960778283345
 30
0.0
 11
-0.4006580869561507
 21
3.362212746787282
 31
0.0
  0
LINE
  5
2A54
330
1E
100
AcDbEntity
  8
3
100
AcDbLine
 10
1.443173934041222
 20
3.393708809779408
 30
0.0
 11
-0.3691620239640247
 21
3.393708809779408
 31
0.0
  0
LINE
  5
2A5B
330
1E
100
AcDbEntity
  8
3
100
AcDbLine
 10
0.3723077923089404
 20
3.555126132614053
 30
0.0
 11
0.3723077923089404
 21
4.200795423952635
 31
0.0
  0
LINE
  5
2A5C
330
1E
100
AcDbEntity
  8
3
100
AcDbLine
 10
0.3723077923089404
 20
3.555126132614053
 30
0.0
 11
-0.2077447011293794
 21
3.555126132614053
 31
0.0
  0
LINE
  5
2A5D
330
1E
100
AcDbEntity
  8
3
100
AcDbLine
 10
-0.2077447011293794
 20
3.555126132614053
 30
0.0
 11
-0.2077447011293794
 21
4.200795423952635
 31
0.0
  0
LINE
  5
2A5E
330
1E
100
AcDbEntity
  8
3
100
AcDbLine
 10
0.3723077923089404
 20
4.200795423952635
 30
0.0
 11
-0.2077447011293794
 21
4.200795423952635
 31
0.0
  0
LINE
  5
2A5F
330
1E
100
AcDbEntity
  8
3
100
AcDbLine
 10
0.3723077923089404
 20
4.450139255973633
 30
0.0
 11
0.3723077923089404
 21
5.095808547312214
 31
0.0
  0
LINE
  5
2A65
330
1E
100
AcDbEntity
  8
3
100
AcDbLine
 10
0.3723077923089404
 20
5.095808547312214
 30
0.0
 11
-0.2077447011293794
 21
5.095808547312214
 31
0.0
  0
LINE
  5
2A66
330
1E
100
AcDbEntity
  8
3
100
AcDbLine
 10
0.3723077923089404
 20
5.345152379333211
 30
0.0
 11
0.3723077923089404
 21
5.990821670671794
 31
0.0
  0
LINE
  5
2A6C
330
1E
100
AcDbEntity
  8
3
100
AcDbLine
 10
0.3723077923089404
 20
5.990821670671794
 30
0.0
 11
-0.2077447011293794
 21
5.990821670671794
 31
0.0
  0
LINE
  5
2A6D
330
1E
100
AcDbEntity
  8
3
100
AcDbLine
 10
1.281756611206577
 20
5.345152379333211
 30
0.0
 11
1.281756611206577
 21
5.990821670671794
 31
0.0
  0
LINE
  5
2A73
330
1E
100
AcDbEntity
  8
3
100
AcDbLine
 10
1.281756611206577
 20
5.990821670671794
 30
0.0
 11
0.7017041177682577
 21
5.990821670671794
 31
0.0
  0
LINE
  5
2A74
330
1E
100
AcDbEntity
  8
3
100
AcDbLine
 10
1.281756611206577
 20
3.555126132614053
 30
0.0
 11
1.281756611206577
 21
4.200795423952635
 31
0.0
  0
LINE
  5
2A7A
330
1E
100
AcDbEntity
  8
3
100
AcDbLine
 10
1.281756611206577
 20
4.200795423952635
 30
0.0
 11
0.7017041177682577
 21
4.200795423952635
 31
0.0
  0
LINE
  5
2A7B
330
1E
100
AcDbEntity
  8
3
100
AcDbLine
 10
1.281756611206577
 20
4.450139255973633
 30
0.0
 11
1.281756611206577
 21
5.095808547312214
 31
0.0
  0
LINE
  5
2A81
330
1E
100
AcDbEntity
  8
3
100
AcDbLine
 10
1.281756611206577
 20
5.095808547312214
 30
0.0
 11
0.7017041177682577
 21
5.095808547312214
 31
0.0
  0
LINE
  5
2B4A
330
1E
100
AcDbEntity
  8
3
100
AcDbLine
 10
0.4772946689493596
 20
6.316280988257095
 30
0.0
 11
0.5967172411278377
 21
6.316280988257095
 31
0.0
  0
LINE
  5
2B59
330
1E
100
AcDbEntity
  8
3
100
AcDbLine
 10
0.5967172411278377
 20
6.620742930514312
 30
0.0
 11
0.4772946689493596
 21
6.620742930514312
 31
0.0
  0
LINE
  5
2B6B
330
1E
100
AcDbEntity
  8
3
100
AcDbLine
 10
-0.3350412890558889
 20
6.263787549936886
 30
0.0
 11
-0.3350412890558889
 21
6.673236368834523
 31
0.0
  0
LINE
  5
2B6C
330
1E
100
AcDbEntity
  8
3
100
AcDbLine
 10
1.409053199133086
 20
6.263787549936886
 30
0.0
 11
-0.3350412890558889
 21
6.263787549936886
 31
0.0
  0
LINE
  5
2B6D
330
1E
100
AcDbEntity
  8
3
100
AcDbLine
 10
1.409053199133086
 20
6.263787549936886
 30
0.0
 11
1.409053199133086
 21
6.673236368834523
 31
0.0
  0
LINE
  5
2B6E
330
1E
100
AcDbEntity
  8
3
100
AcDbLine
 10
-0.3350412890558889
 20
6.673236368834523
 30
0.0
 11
1.409053199133086
 21
6.673236368834523
 31
0.0
  0
LINE
  5
2B6F
330
1E
100
AcDbEntity
  8
3
100
AcDbLine
 10
-0.3350412890558889
 20
6.263787549936886
 30
0.0
 11
-0.3376659609718997
 21
6.262475213978881
 31
0.0
  0
LINE
  5
2B70
330
1E
100
AcDbEntity
  8
3
100
AcDbLine
 10
-0.3350412890558889
 20
6.673236368834523
 30
0.0
 11
-0.3376659609718997
 21
6.674548704792528
 31
0.0
  0
LINE
  5
2B78
330
1E
100
AcDbEntity
  8
3
100
AcDbLine
 10
-0.3376659609718997
 20
6.674548704792528
 30
0.0
 11
-0.3678496880060198
 21
6.674548704792528
 31
0.0
  0
LINE
  5
2B80
330
1E
100
AcDbEntity
  8
3
100
AcDbLine
 10
1.409053199133086
 20
6.263787549936886
 30
0.0
 11
1.412990207007102
 21
6.262475213978881
 31
0.0
  0
LINE
  5
2B81
330
1E
100
AcDbEntity
  8
3
100
AcDbLine
 10
1.409053199133086
 20
6.673236368834523
 30
0.0
 11
1.412990207007102
 21
6.674548704792528
 31
0.0
  0
LINE
  5
2B91
330
1E
100
AcDbEntity
  8
3
100
AcDbLine
 10
1.473357661075343
 20
6.293971276971007
 30
0.0
 11
1.474669997033348
 21
6.293971276971007
 31
0.0
  0
LINE
  5
2B92
330
1E
100
AcDbEntity
  8
3
100
AcDbLine
 10
1.443173934041222
 20
6.262475213978881
 30
0.0
 11
1.441861598083217
 21
6.262475213978881
 31
0.0
  0
LINE
  5
2B93
330
1E
100
AcDbEntity
  8
3
100
AcDbLine
 10
1.441861598083217
 20
6.674548704792528
 30
0.0
 11
1.443173934041222
 21
6.674548704792528
 31
0.0
  0
LINE
  5
2B94
330
1E
100
AcDbEntity
  8
3
100
AcDbLine
 10
1.474669997033348
 20
6.643052641800403
 30
0.0
 11
1.473357661075343
 21
6.643052641800403
 31
0.0
  0
LINE
  5
2B95
330
1E
100
AcDbEntity
  8
3
100
AcDbLine
 10
-0.3980334150401408
 20
6.643052641800403
 30
0.0
 11
-0.4006580869561507
 21
6.643052641800403
 31
0.0
  0
LINE
  5
2B96
330
1E
100
AcDbEntity
  8
3
100
AcDbLine
 10
-0.3691620239640247
 20
6.674548704792528
 30
0.0
 11
-0.3678496880060198
 21
6.674548704792528
 31
0.0
  0
LINE
  5
2B97
330
1E
100
AcDbEntity
  8
3
100
AcDbLine
 10
-0.3678496880060198
 20
6.262475213978881
 30
0.0
 11
-0.3691620239640247
 21
6.262475213978881
 31
0.0
  0
LINE
  5
2B98
330
1E
100
AcDbEntity
  8
3
100
AcDbLine
 10
-0.4006580869561507
 20
6.293971276971007
 30
0.0
 11
-0.3980334150401408
 21
6.293971276971007
 31
0.0
  0
LINE
  5
2B99
330
1E
100
AcDbEntity
  8
3
100
AcDbLine
 10
0.4772946689493596
 20
6.318905660173105
 30
0.0
 11
0.4772946689493596
 21
6.316280988257095
 31
0.0
  0
LINE
  5
2B9F
330
1E
100
AcDbEntity
  8
3
100
AcDbLine
 10
0.5967172411278377
 20
6.618118258598302
 30
0.0
 11
0.5967172411278377
 21
6.620742930514312
 31
0.0
  0
LINE
  5
2BC7
330
1E
100
AcDbEntity
  8
3
100
AcDbLine
 10
0.4772946689493596
 20
6.392396473821399
 30
0.0
 11
0.5967172411278377
 21
6.392396473821399
 31
0.0
  0
LINE
  5
2BD6
330
1E
100
AcDbEntity
  8
3
100
AcDbLine
 10
0.4772946689493596
 20
6.544627444950009
 30
0.0
 11
0.5967172411278377
 21
6.544627444950009
 31
0.0
  0
LINE
  5
2BE5
330
1E
100
AcDbEntity
  8
3
100
AcDbLine
 10
0.4772946689493596
 20
6.544627444950009
 30
0.0
 11
0.5967172411278377
 21
6.544627444950009
 31
0.0
  0
LINE
  5
2BE6
330
1E
100
AcDbEntity
  8
3
100
AcDbLine
 10
0.4772946689493596
 20
6.392396473821399
 30
0.0
 11
0.5967172411278377
 21
6.392396473821399
 31
0.0
  0
LINE
  5
2BE7
330
1E
100
AcDbEntity
  8
3
100
AcDbLine
 10
0.6439613356160266
 20
6.528879413453946
 30
0.0
 11
0.6334626479519843
 21
6.535441093243972
 31
0.0
  0
LINE
  5
2BE8
330
1E
100
AcDbEntity
  8
3
100
AcDbLine
 10
0.6334626479519843
 20
6.401582825527436
 30
0.0
 11
0.6439613356160266
 21
6.408144505317462
 31
0.0
  0
LINE
  5
2BF8
330
1E
100
AcDbEntity
  8
3
100
AcDbLine
 10
0.4313629104191766
 20
6.408144505317462
 30
0.0
 11
0.440549262125213
 21
6.401582825527436
 31
0.0
  0
LINE
  5
2BF9
330
1E
100
AcDbEntity
  8
3
100
AcDbLine
 10
0.440549262125213
 20
6.535441093243972
 30
0.0
 11
0.4313629104191766
 21
6.528879413453946
 31
0.0
  0
LINE
  5
2BFF
330
1E
100
AcDbEntity
  8
3
100
AcDbLine
 10
0.440549262125213
 20
6.401582825527436
 30
0.0
 11
0.6334626479519843
 21
6.401582825527436
 31
0.0
  0
LINE
  5
2C00
330
1E
100
AcDbEntity
  8
3
100
AcDbLine
 10
0.6439613356160266
 20
6.408144505317462
 30
0.0
 11
0.4313629104191766
 21
6.408144505317462
 31
0.0
  0
LINE
  5
2C01
330
1E
100
AcDbEntity
  8
3
100
AcDbLine
 10
0.440549262125213
 20
6.535441093243972
 30
0.0
 11
0.6334626479519843
 21
6.535441093243972
 31
0.0
  0
LINE
  5
2C02
330
1E
100
AcDbEntity
  8
3
100
AcDbLine
 10
0.6439613356160266
 20
6.528879413453946
 30
0.0
 11
0.4313629104191766
 21
6.528879413453946
 31
0.0
  0
LINE
  5
2C11
330
1E
100
AcDbEntity
  8
3
100
AcDbLine
 10
0.4772946689493596
 20
3.338590699543187
 30
0.0
 11
0.5967172411278377
 21
3.338590699543187
 31
0.0
  0
LINE
  5
2C12
330
1E
100
AcDbEntity
  8
3
100
AcDbLine
 10
0.5967172411278377
 20
3.03675342920198
 30
0.0
 11
0.6387119917840059
 21
3.043315108992007
 31
0.0
  0
LINE
  5
2C20
330
1E
100
AcDbEntity
  8
3
100
AcDbLine
 10
0.5967172411278377
 20
3.035441093243975
 30
0.0
 11
0.4772946689493596
 21
3.035441093243975
 31
0.0
  0
LINE
  5
2C34
330
1E
100
AcDbEntity
  8
3
100
AcDbLine
 10
1.409053199133086
 20
3.392396473821403
 30
0.0
 11
1.409053199133086
 21
2.982947654923765
 31
0.0
  0
LINE
  5
2C3A
330
1E
100
AcDbEntity
  8
3
100
AcDbLine
 10
-0.3350412890558889
 20
2.982947654923765
 30
0.0
 11
-0.3376659609718997
 21
2.98163531896576
 31
0.0
  0
LINE
  5
2C41
330
1E
100
AcDbEntity
  8
3
100
AcDbLine
 10
-0.3980334150401408
 20
3.013131381957886
 30
0.0
 11
-0.3980334150401408
 21
3.362212746787282
 31
0.0
  0
LINE
  5
2C48
330
1E
100
AcDbEntity
  8
3
100
AcDbLine
 10
-0.3376659609718997
 20
2.98163531896576
 30
0.0
 11
-0.3678496880060198
 21
2.98163531896576
 31
0.0
  0
LINE
  5
2C49
330
1E
100
AcDbEntity
  8
3
100
AcDbLine
 10
-0.3678496880060198
 20
3.392396473821403
 30
0.0
 11
-0.3376659609718997
 21
3.392396473821403
 31
0.0
  0
LINE
  5
2C4A
330
1E
100
AcDbEntity
  8
3
100
AcDbLine
 10
1.409053199133086
 20
3.392396473821403
 30
0.0
 11
1.412990207007102
 21
3.392396473821403
 31
0.0
  0
LINE
  5
2C4B
330
1E
100
AcDbEntity
  8
3
100
AcDbLine
 10
1.409053199133086
 20
2.982947654923765
 30
0.0
 11
1.412990207007102
 21
2.98163531896576
 31
0.0
  0
LINE
  5
2C4C
330
1E
100
AcDbEntity
  8
3
100
AcDbLine
 10
1.441861598083217
 20
2.98163531896576
 30
0.0
 11
1.412990207007102
 21
2.98163531896576
 31
0.0
  0
LINE
  5
2C53
330
1E
100
AcDbEntity
  8
3
100
AcDbLine
 10
1.473357661075343
 20
3.362212746787282
 30
0.0
 11
1.473357661075343
 21
3.013131381957886
 31
0.0
  0
LINE
  5
2C5A
330
1E
100
AcDbEntity
  8
3
100
AcDbLine
 10
1.412990207007102
 20
3.392396473821403
 30
0.0
 11
1.441861598083217
 21
3.392396473821403
 31
0.0
  0
LINE
  5
2C5B
330
1E
100
AcDbEntity
  8
3
100
AcDbLine
 10
1.443173934041222
 20
3.393708809779408
 30
0.0
 11
1.441861598083217
 21
3.392396473821403
 31
0.0
  0
LINE
  5
2C5C
330
1E
100
AcDbEntity
  8
3
100
AcDbLine
 10
1.473357661075343
 20
3.362212746787282
 30
0.0
 11
1.474669997033348
 21
3.362212746787282
 31
0.0
  0
LINE
  5
2C5D
330
1E
100
AcDbEntity
  8
3
100
AcDbLine
 10
1.474669997033348
 20
3.013131381957886
 30
0.0
 11
1.473357661075343
 21
3.013131381957886
 31
0.0
  0
LINE
  5
2C5E
330
1E
100
AcDbEntity
  8
3
100
AcDbLine
 10
1.441861598083217
 20
2.98163531896576
 30
0.0
 11
1.443173934041222
 21
2.98163531896576
 31
0.0
  0
LINE
  5
2C5F
330
1E
100
AcDbEntity
  8
3
100
AcDbLine
 10
-0.3691620239640247
 20
2.98163531896576
 30
0.0
 11
-0.3678496880060198
 21
2.98163531896576
 31
0.0
  0
LINE
  5
2C60
330
1E
100
AcDbEntity
  8
3
100
AcDbLine
 10
-0.3980334150401408
 20
3.013131381957886
 30
0.0
 11
-0.4006580869561507
 21
3.013131381957886
 31
0.0
  0
LINE
  5
2C61
330
1E
100
AcDbEntity
  8
3
100
AcDbLine
 10
-0.4006580869561507
 20
3.362212746787282
 30
0.0
 11
-0.3980334150401408
 21
3.362212746787282
 31
0.0
  0
LINE
  5
2C62
330
1E
100
AcDbEntity
  8
3
100
AcDbLine
 10
-0.3678496880060198
 20
3.392396473821403
 30
0.0
 11
-0.3691620239640247
 21
3.393708809779408
 31
0.0
  0
LINE
  5
2C63
330
1E
100
AcDbEntity
  8
3
100
AcDbLine
 10
0.4772946689493596
 20
3.337278363585182
 30
0.0
 11
0.4772946689493596
 21
3.338590699543187
 31
0.0
  0
LINE
  5
2C64
330
1E
100
AcDbEntity
  8
3
100
AcDbLine
 10
0.5967172411278377
 20
3.337278363585182
 30
0.0
 11
0.4772946689493596
 21
3.337278363585182
 31
0.0
  0
LINE
  5
2C65
330
1E
100
AcDbEntity
  8
3
100
AcDbLine
 10
0.5967172411278377
 20
3.338590699543187
 30
0.0
 11
0.5967172411278377
 21
3.337278363585182
 31
0.0
  0
LINE
  5
2C66
330
1E
100
AcDbEntity
  8
3
100
AcDbLine
 10
0.5967172411278377
 20
3.03675342920198
 30
0.0
 11
0.5967172411278377
 21
3.035441093243975
 31
0.0
  0
LINE
  5
2C67
330
1E
100
AcDbEntity
  8
3
100
AcDbLine
 10
0.4772946689493596
 20
3.03675342920198
 30
0.0
 11
0.5967172411278377
 21
3.03675342920198
 31
0.0
  0
LINE
  5
2C68
330
1E
100
AcDbEntity
  8
3
100
AcDbLine
 10
0.4772946689493596
 20
3.035441093243975
 30
0.0
 11
0.4772946689493596
 21
3.03675342920198
 31
0.0
  0
LINE
  5
2C8B
330
1E
100
AcDbEntity
  8
3
100
AcDbLine
 10
0.4772946689493596
 20
3.263787549936888
 30
0.0
 11
0.5967172411278377
 21
3.263787549936888
 31
0.0
  0
LINE
  5
2C97
330
1E
100
AcDbEntity
  8
3
100
AcDbLine
 10
0.4772946689493596
 20
3.111556578808279
 30
0.0
 11
0.5967172411278377
 21
3.111556578808279
 31
0.0
  0
LINE
  5
2C98
330
1E
100
AcDbEntity
  8
3
100
AcDbLine
 10
0.4772946689493596
 20
3.263787549936888
 30
0.0
 11
0.4484232778732445
 21
3.258538206104867
 31
0.0
  0
LINE
  5
2CA3
330
1E
100
AcDbEntity
  8
3
100
AcDbLine
 10
0.4772946689493596
 20
3.111556578808279
 30
0.0
 11
0.5967172411278377
 21
3.111556578808279
 31
0.0
  0
LINE
  5
2CA4
330
1E
100
AcDbEntity
  8
3
100
AcDbLine
 10
0.4772946689493596
 20
3.263787549936888
 30
0.0
 11
0.5967172411278377
 21
3.263787549936888
 31
0.0
  0
LINE
  5
2CA5
330
1E
100
AcDbEntity
  8
3
100
AcDbLine
 10
0.6439613356160266
 20
3.127304610304342
 30
0.0
 11
0.6334626479519843
 21
3.120742930514317
 31
0.0
  0
LINE
  5
2CB0
330
1E
100
AcDbEntity
  8
3
100
AcDbLine
 10
0.6334626479519843
 20
3.254601198230851
 30
0.0
 11
0.6439613356160266
 21
3.24672718248282
 31
0.0
  0
LINE
  5
2CB6
330
1E
100
AcDbEntity
  8
3
100
AcDbLine
 10
0.440549262125213
 20
3.120742930514317
 30
0.0
 11
0.4313629104191766
 21
3.127304610304342
 31
0.0
  0
LINE
  5
2CB7
330
1E
100
AcDbEntity
  8
3
100
AcDbLine
 10
0.4313629104191766
 20
3.24672718248282
 30
0.0
 11
0.440549262125213
 21
3.254601198230851
 31
0.0
  0
LINE
  5
2CB8
330
1E
100
AcDbEntity
  8
3
100
AcDbLine
 10
0.4772946689493596
 20
3.263787549936888
 30
0.0
 11
0.4589219655372867
 21
3.261162878020877
 31
0.0
  0
LINE
  5
2CB9
330
1E
100
AcDbEntity
  8
3
100
AcDbLine
 10
0.4589219655372867
 20
3.261162878020877
 30
0.0
 11
0.4418615980832188
 21
3.254601198230851
 31
0.0
  0
LINE
  5
2CBA
330
1E
100
AcDbEntity
  8
3
100
AcDbLine
 10
0.440549262125213
 20
3.254601198230851
 30
0.0
 11
0.6334626479519843
 21
3.254601198230851
 31
0.0
  0
LINE
  5
2CBB
330
1E
100
AcDbEntity
  8
3
100
AcDbLine
 10
0.6439613356160266
 20
3.24672718248282
 30
0.0
 11
0.4313629104191766
 21
3.24672718248282
 31
0.0
  0
LINE
  5
2CBC
330
1E
100
AcDbEntity
  8
3
100
AcDbLine
 10
0.440549262125213
 20
3.120742930514317
 30
0.0
 11
0.6334626479519843
 21
3.120742930514317
 31
0.0
  0
LINE
  5
2CBD
330
1E
100
AcDbEntity
  8
3
100
AcDbLine
 10
0.6439613356160266
 20
3.127304610304342
 30
0.0
 11
0.4313629104191766
 21
3.127304610304342
 31
0.0
  0
LINE
  5
2CBE
330
1E
100
AcDbEntity
  8
3
100
AcDbLine
 10
3.994355036403424
 20
2.77428623760093
 30
0.0
 11
3.994355036403424
 21
6.818905660173105
 31
0.0
  0
LINE
  5
2CBF
330
1E
100
AcDbEntity
  8
3
100
AcDbLine
 10
4.208265797558281
 20
7.043315108992002
 30
0.0
 11
4.269945587584526
 21
7.047252116866019
 31
0.0
  0
LINE
  5
2CC7
330
1E
100
AcDbEntity
  8
3
100
AcDbLine
 10
4.269945587584526
 20
2.547252116866023
 30
0.0
 11
4.208265797558281
 21
2.549876788782033
 31
0.0
  0
LINE
  5
2D0E
330
1E
100
AcDbEntity
  8
3
100
AcDbLine
 10
4.208265797558281
 20
2.549876788782033
 30
0.0
 11
4.206953461600274
 21
2.557750804530065
 31
0.0
  0
LINE
  5
2D14
330
1E
100
AcDbEntity
  8
3
100
AcDbLine
 10
4.269945587584526
 20
6.175861040750534
 30
0.0
 11
4.44579860595723
 21
6.173236368834523
 31
0.0
  0
LINE
  5
2D15
330
1E
100
AcDbEntity
  8
3
100
AcDbLine
 10
4.269945587584526
 20
3.417330857023502
 30
0.0
 11
4.44579860595723
 21
3.419955528939513
 31
0.0
  0
LINE
  5
2D1D
330
1E
100
AcDbEntity
  8
3
100
AcDbLine
 10
4.44579860595723
 20
6.135178626052371
 30
0.0
 11
4.44579860595723
 21
6.173236368834523
 31
0.0
  0
LINE
  5
2D1E
330
1E
100
AcDbEntity
  8
3
100
AcDbLine
 10
4.374932464224947
 20
6.076123507942135
 30
0.0
 11
4.386743487846994
 21
6.076123507942135
 31
0.0
  0
LINE
  5
2D1F
330
1E
100
AcDbEntity
  8
3
100
AcDbLine
 10
4.44579860595723
 20
3.419955528939513
 30
0.0
 11
4.44579860595723
 21
3.458013271721664
 31
0.0
  0
LINE
  5
2D27
330
1E
100
AcDbEntity
  8
3
100
AcDbLine
 10
4.374932464224947
 20
3.517068389831901
 30
0.0
 11
4.386743487846994
 21
3.517068389831901
 31
0.0
  0
LINE
  5
2D28
330
1E
100
AcDbEntity
  8
3
100
AcDbLine
 10
4.44579860595723
 20
4.345152379333212
 30
0.0
 11
4.44579860595723
 21
4.353026395081244
 31
0.0
  0
LINE
  5
2D37
330
1E
100
AcDbEntity
  8
3
100
AcDbLine
 10
4.374932464224947
 20
4.41208151319148
 30
0.0
 11
4.386743487846994
 21
4.41208151319148
 31
0.0
  0
LINE
  5
2D38
330
1E
100
AcDbEntity
  8
3
100
AcDbLine
 10
4.374932464224947
 20
4.286097261222976
 30
0.0
 11
4.386743487846994
 21
4.286097261222976
 31
0.0
  0
LINE
  5
2D39
330
1E
100
AcDbEntity
  8
3
100
AcDbLine
 10
4.44579860595723
 20
5.240165502692791
 30
0.0
 11
4.44579860595723
 21
5.248039518440823
 31
0.0
  0
LINE
  5
2D41
330
1E
100
AcDbEntity
  8
3
100
AcDbLine
 10
4.44579860595723
 20
5.240165502692791
 30
0.0
 11
4.441861598083214
 21
5.217855791406702
 31
0.0
  0
LINE
  5
2D48
330
1E
100
AcDbEntity
  8
3
100
AcDbLine
 10
4.374932464224947
 20
5.30709463655106
 30
0.0
 11
4.386743487846994
 21
5.30709463655106
 31
0.0
  0
LINE
  5
2D49
330
1E
100
AcDbEntity
  8
3
100
AcDbLine
 10
4.374932464224947
 20
5.181110384582556
 30
0.0
 11
4.386743487846994
 21
5.181110384582556
 31
0.0
  0
LINE
  5
2D4A
330
1E
100
AcDbEntity
  8
3
100
AcDbLine
 10
4.374932464224947
 20
3.517068389831901
 30
0.0
 11
4.374932464224947
 21
4.286097261222976
 31
0.0
  0
LINE
  5
2D4B
330
1E
100
AcDbEntity
  8
3
100
AcDbLine
 10
4.374932464224947
 20
4.41208151319148
 30
0.0
 11
4.374932464224947
 21
5.181110384582556
 31
0.0
  0
LINE
  5
2D4C
330
1E
100
AcDbEntity
  8
3
100
AcDbLine
 10
4.374932464224947
 20
5.30709463655106
 30
0.0
 11
4.374932464224947
 21
6.076123507942135
 31
0.0
  0
LINE
  5
2D50
330
1E
100
AcDbEntity
  8
3
100
AcDbLine
 10
4.441861598083214
 20
5.217855791406702
 30
0.0
 11
4.428738238503163
 21
5.198170752036624
 31
0.0
  0
LINE
  5
2D51
330
1E
100
AcDbEntity
  8
3
100
AcDbLine
 10
4.428738238503163
 20
5.198170752036624
 30
0.0
 11
4.409053199133083
 21
5.185047392456572
 31
0.0
  0
LINE
  5
2D52
330
1E
100
AcDbEntity
  8
3
100
AcDbLine
 10
4.409053199133083
 20
5.185047392456572
 30
0.0
 11
4.386743487846994
 21
5.181110384582556
 31
0.0
  0
LINE
  5
2D53
330
1E
100
AcDbEntity
  8
3
100
AcDbLine
 10
4.386743487846994
 20
5.30709463655106
 30
0.0
 11
4.409053199133083
 21
5.303157628677043
 31
0.0
  0
LINE
  5
2D54
330
1E
100
AcDbEntity
  8
3
100
AcDbLine
 10
4.409053199133083
 20
5.303157628677043
 30
0.0
 11
4.428738238503163
 21
5.290034269096992
 31
0.0
  0
LINE
  5
2D55
330
1E
100
AcDbEntity
  8
3
100
AcDbLine
 10
4.428738238503163
 20
5.290034269096992
 30
0.0
 11
4.441861598083214
 21
5.270349229726912
 31
0.0
  0
LINE
  5
2D56
330
1E
100
AcDbEntity
  8
3
100
AcDbLine
 10
4.441861598083214
 20
5.270349229726912
 30
0.0
 11
4.44579860595723
 21
5.248039518440823
 31
0.0
  0
LINE
  5
2D57
330
1E
100
AcDbEntity
  8
3
100
AcDbLine
 10
4.44579860595723
 20
4.345152379333212
 30
0.0
 11
4.441861598083214
 21
4.322842668047123
 31
0.0
  0
LINE
  5
2D58
330
1E
100
AcDbEntity
  8
3
100
AcDbLine
 10
4.441861598083214
 20
4.322842668047123
 30
0.0
 11
4.428738238503163
 21
4.303157628677044
 31
0.0
  0
LINE
  5
2D59
330
1E
100
AcDbEntity
  8
3
100
AcDbLine
 10
4.428738238503163
 20
4.303157628677044
 30
0.0
 11
4.409053199133083
 21
4.290034269096992
 31
0.0
  0
LINE
  5
2D5A
330
1E
100
AcDbEntity
  8
3
100
AcDbLine
 10
4.409053199133083
 20
4.290034269096992
 30
0.0
 11
4.386743487846994
 21
4.286097261222976
 31
0.0
  0
LINE
  5
2D5B
330
1E
100
AcDbEntity
  8
3
100
AcDbLine
 10
4.386743487846994
 20
4.41208151319148
 30
0.0
 11
4.409053199133083
 21
4.408144505317465
 31
0.0
  0
LINE
  5
2D5C
330
1E
100
AcDbEntity
  8
3
100
AcDbLine
 10
4.409053199133083
 20
4.408144505317465
 30
0.0
 11
4.428738238503163
 21
4.395021145737412
 31
0.0
  0
LINE
  5
2D5D
330
1E
100
AcDbEntity
  8
3
100
AcDbLine
 10
4.428738238503163
 20
4.395021145737412
 30
0.0
 11
4.441861598083214
 21
4.375336106367333
 31
0.0
  0
LINE
  5
2D5E
330
1E
100
AcDbEntity
  8
3
100
AcDbLine
 10
4.441861598083214
 20
4.375336106367333
 30
0.0
 11
4.44579860595723
 21
4.353026395081244
 31
0.0
  0
LINE
  5
2D5F
330
1E
100
AcDbEntity
  8
3
100
AcDbLine
 10
4.386743487846994
 20
3.517068389831901
 30
0.0
 11
4.409053199133083
 21
3.513131381957886
 31
0.0
  0
LINE
  5
2D60
330
1E
100
AcDbEntity
  8
3
100
AcDbLine
 10
4.409053199133083
 20
3.513131381957886
 30
0.0
 11
4.428738238503163
 21
3.500008022377833
 31
0.0
  0
LINE
  5
2D61
330
1E
100
AcDbEntity
  8
3
100
AcDbLine
 10
4.428738238503163
 20
3.500008022377833
 30
0.0
 11
4.441861598083214
 21
3.480322983007754
 31
0.0
  0
LINE
  5
2D62
330
1E
100
AcDbEntity
  8
3
100
AcDbLine
 10
4.441861598083214
 20
3.480322983007754
 30
0.0
 11
4.44579860595723
 21
3.458013271721664
 31
0.0
  0
LINE
  5
2D63
330
1E
100
AcDbEntity
  8
3
100
AcDbLine
 10
4.44579860595723
 20
6.135178626052371
 30
0.0
 11
4.441861598083214
 21
6.112868914766282
 31
0.0
  0
LINE
  5
2D64
330
1E
100
AcDbEntity
  8
3
100
AcDbLine
 10
4.441861598083214
 20
6.112868914766282
 30
0.0
 11
4.428738238503163
 21
6.093183875396203
 31
0.0
  0
LINE
  5
2D65
330
1E
100
AcDbEntity
  8
3
100
AcDbLine
 10
4.428738238503163
 20
6.093183875396203
 30
0.0
 11
4.409053199133083
 21
6.080060515816152
 31
0.0
  0
LINE
  5
2D66
330
1E
100
AcDbEntity
  8
3
100
AcDbLine
 10
4.409053199133083
 20
6.080060515816152
 30
0.0
 11
4.386743487846994
 21
6.076123507942135
 31
0.0
  0
LINE
  5
2D67
330
1E
100
AcDbEntity
  8
3
100
AcDbLine
 10
4.206953461600274
 20
2.557750804530065
 30
0.0
 11
4.206953461600274
 21
2.580060515816154
 31
0.0
  0
LINE
  5
2D68
330
1E
100
AcDbEntity
  8
3
100
AcDbLine
 10
4.206953461600274
 20
2.580060515816154
 30
0.0
 11
4.208265797558281
 21
2.610244242850275
 31
0.0
  0
LINE
  5
2D69
330
1E
100
AcDbEntity
  8
3
100
AcDbLine
 10
4.208265797558281
 20
6.982947654923762
 30
0.0
 11
4.206953461600274
 21
7.013131381957883
 31
0.0
  0
LINE
  5
2D6A
330
1E
100
AcDbEntity
  8
3
100
AcDbLine
 10
4.206953461600274
 20
7.013131381957883
 30
0.0
 11
4.206953461600274
 21
7.035441093243972
 31
0.0
  0
LINE
  5
2D6B
330
1E
100
AcDbEntity
  8
3
100
AcDbLine
 10
4.206953461600274
 20
7.035441093243972
 30
0.0
 11
4.208265797558281
 21
7.043315108992002
 31
0.0
  0
LINE
  5
2D6C
330
1E
100
AcDbEntity
  8
3
100
AcDbLine
 10
3.994355036403424
 20
6.818905660173105
 30
0.0
 11
3.99829204427744
 21
6.860900410829273
 31
0.0
  0
LINE
  5
2D6D
330
1E
100
AcDbEntity
  8
3
100
AcDbLine
 10
3.99829204427744
 20
6.860900410829273
 30
0.0
 11
4.010103067899487
 21
6.901582825527436
 31
0.0
  0
LINE
  5
2D6E
330
1E
100
AcDbEntity
  8
3
100
AcDbLine
 10
4.010103067899487
 20
6.901582825527436
 30
0.0
 11
4.029788107269566
 21
6.939640568309589
 31
0.0
  0
LINE
  5
2D6F
330
1E
100
AcDbEntity
  8
3
100
AcDbLine
 10
4.029788107269566
 20
6.939640568309589
 30
0.0
 11
4.056034826429671
 21
6.973761303217725
 31
0.0
  0
LINE
  5
2D70
330
1E
100
AcDbEntity
  8
3
100
AcDbLine
 10
4.056034826429671
 20
6.973761303217725
 30
0.0
 11
4.088843225379803
 21
7.001320358335835
 31
0.0
  0
LINE
  5
2D71
330
1E
100
AcDbEntity
  8
3
100
AcDbLine
 10
4.088843225379803
 20
7.001320358335835
 30
0.0
 11
4.12558863220395
 21
7.023630069621924
 31
0.0
  0
LINE
  5
2D72
330
1E
100
AcDbEntity
  8
3
100
AcDbLine
 10
4.12558863220395
 20
7.023630069621924
 30
0.0
 11
4.166271046902112
 21
7.036753429201977
 31
0.0
  0
LINE
  5
2D73
330
1E
100
AcDbEntity
  8
3
100
AcDbLine
 10
4.166271046902112
 20
7.036753429201977
 30
0.0
 11
4.208265797558281
 21
7.043315108992002
 31
0.0
  0
LINE
  5
2D74
330
1E
100
AcDbEntity
  8
3
100
AcDbLine
 10
4.208265797558281
 20
2.549876788782033
 30
0.0
 11
4.166271046902112
 21
2.556438468572059
 31
0.0
  0
LINE
  5
2D75
330
1E
100
AcDbEntity
  8
3
100
AcDbLine
 10
4.166271046902112
 20
2.556438468572059
 30
0.0
 11
4.12558863220395
 21
2.570874164110117
 31
0.0
  0
LINE
  5
2D76
330
1E
100
AcDbEntity
  8
3
100
AcDbLine
 10
4.12558863220395
 20
2.570874164110117
 30
0.0
 11
4.088843225379803
 21
2.591871539438201
 31
0.0
  0
LINE
  5
2D77
330
1E
100
AcDbEntity
  8
3
100
AcDbLine
 10
4.088843225379803
 20
2.591871539438201
 30
0.0
 11
4.056034826429671
 21
2.619430594556311
 31
0.0
  0
LINE
  5
2D78
330
1E
100
AcDbEntity
  8
3
100
AcDbLine
 10
4.056034826429671
 20
2.619430594556311
 30
0.0
 11
4.029788107269566
 21
2.653551329464447
 31
0.0
  0
LINE
  5
2D79
330
1E
100
AcDbEntity
  8
3
100
AcDbLine
 10
4.029788107269566
 20
2.653551329464447
 30
0.0
 11
4.010103067899487
 21
2.6916090722466
 31
0.0
  0
LINE
  5
2D7A
330
1E
100
AcDbEntity
  8
3
100
AcDbLine
 10
4.010103067899487
 20
2.6916090722466
 30
0.0
 11
3.99829204427744
 21
2.732291486944763
 31
0.0
  0
LINE
  5
2D7B
330
1E
100
AcDbEntity
  8
3
100
AcDbLine
 10
3.99829204427744
 20
2.732291486944763
 30
0.0
 11
3.994355036403424
 21
2.77428623760093
 31
0.0
  0
LINE
  5
2D7C
330
1E
100
AcDbEntity
  8
3
100
AcDbLine
 10
4.029788107269566
 20
6.908144505317462
 30
0.0
 11
4.010103067899487
 21
6.879273114241347
 31
0.0
  0
LINE
  5
2D7D
330
1E
100
AcDbEntity
  8
3
100
AcDbLine
 10
4.010103067899487
 20
6.879273114241347
 30
0.0
 11
3.99829204427744
 21
6.850401723165231
 31
0.0
  0
LINE
  5
2D7E
330
1E
100
AcDbEntity
  8
3
100
AcDbLine
 10
3.99829204427744
 20
6.850401723165231
 30
0.0
 11
3.994355036403424
 21
6.818905660173105
 31
0.0
  0
LINE
  5
2D7F
330
1E
100
AcDbEntity
  8
3
100
AcDbLine
 10
4.208265797558281
 20
6.982947654923762
 30
0.0
 11
4.166271046902112
 21
6.979010647049745
 31
0.0
  0
LINE
  5
2D80
330
1E
100
AcDbEntity
  8
3
100
AcDbLine
 10
4.166271046902112
 20
6.979010647049745
 30
0.0
 11
4.12558863220395
 21
6.968511959385704
 31
0.0
  0
LINE
  5
2D81
330
1E
100
AcDbEntity
  8
3
100
AcDbLine
 10
4.12558863220395
 20
6.968511959385704
 30
0.0
 11
4.088843225379803
 21
6.952763927889641
 31
0.0
  0
LINE
  5
2D82
330
1E
100
AcDbEntity
  8
3
100
AcDbLine
 10
4.088843225379803
 20
6.952763927889641
 30
0.0
 11
4.056034826429671
 21
6.931766552561557
 31
0.0
  0
LINE
  5
2D83
330
1E
100
AcDbEntity
  8
3
100
AcDbLine
 10
4.056034826429671
 20
6.931766552561557
 30
0.0
 11
4.029788107269566
 21
6.908144505317462
 31
0.0
  0
LINE
  5
2D84
330
1E
100
AcDbEntity
  8
3
100
AcDbLine
 10
4.010103067899487
 20
2.713918783532689
 30
0.0
 11
4.029788107269566
 21
2.685047392456573
 31
0.0
  0
LINE
  5
2D85
330
1E
100
AcDbEntity
  8
3
100
AcDbLine
 10
4.029788107269566
 20
2.685047392456573
 30
0.0
 11
4.056034826429671
 21
2.661425345212479
 31
0.0
  0
LINE
  5
2D86
330
1E
100
AcDbEntity
  8
3
100
AcDbLine
 10
4.056034826429671
 20
2.661425345212479
 30
0.0
 11
4.088843225379803
 21
2.640427969884395
 31
0.0
  0
LINE
  5
2D87
330
1E
100
AcDbEntity
  8
3
100
AcDbLine
 10
4.088843225379803
 20
2.640427969884395
 30
0.0
 11
4.12558863220395
 21
2.624679938388332
 31
0.0
  0
LINE
  5
2D88
330
1E
100
AcDbEntity
  8
3
100
AcDbLine
 10
4.12558863220395
 20
2.624679938388332
 30
0.0
 11
4.166271046902112
 21
2.61418125072429
 31
0.0
  0
LINE
  5
2D89
330
1E
100
AcDbEntity
  8
3
100
AcDbLine
 10
4.166271046902112
 20
2.61418125072429
 30
0.0
 11
4.208265797558281
 21
2.610244242850275
 31
0.0
  0
LINE
  5
2D8A
330
1E
100
AcDbEntity
  8
3
100
AcDbLine
 10
3.994355036403424
 20
2.77428623760093
 30
0.0
 11
3.99829204427744
 21
2.742790174608805
 31
0.0
  0
LINE
  5
2D8B
330
1E
100
AcDbEntity
  8
3
100
AcDbLine
 10
3.99829204427744
 20
2.742790174608805
 30
0.0
 11
4.010103067899487
 21
2.713918783532689
 31
0.0
  0
LINE
  5
2D8C
330
1E
100
AcDbEntity
  8
3
100
AcDbLine
 10
4.269945587584526
 20
7.047252116866019
 30
0.0
 11
4.269945587584526
 21
7.042002773033997
 31
0.0
  0
LINE
  5
2D8D
330
1E
100
AcDbEntity
  8
3
100
AcDbLine
 10
4.269945587584526
 20
7.042002773033997
 30
0.0
 11
4.269945587584526
 21
7.028879413453946
 31
0.0
  0
LINE
  5
2D8E
330
1E
100
AcDbEntity
  8
3
100
AcDbLine
 10
4.269945587584526
 20
7.028879413453946
 30
0.0
 11
4.269945587584526
 21
7.009194374083866
 31
0.0
  0
LINE
  5
2D8F
330
1E
100
AcDbEntity
  8
3
100
AcDbLine
 10
4.269945587584526
 20
7.009194374083866
 30
0.0
 11
4.269945587584526
 21
6.986884662797778
 31
0.0
  0
LINE
  5
2D90
330
1E
100
AcDbEntity
  8
3
100
AcDbLine
 10
4.269945587584526
 20
2.606307234976259
 30
0.0
 11
4.269945587584526
 21
2.583997523690169
 31
0.0
  0
LINE
  5
2D91
330
1E
100
AcDbEntity
  8
3
100
AcDbLine
 10
4.269945587584526
 20
2.583997523690169
 30
0.0
 11
4.269945587584526
 21
2.564312484320091
 31
0.0
  0
LINE
  5
2D92
330
1E
100
AcDbEntity
  8
3
100
AcDbLine
 10
4.269945587584526
 20
2.564312484320091
 30
0.0
 11
4.269945587584526
 21
2.551189124740038
 31
0.0
  0
LINE
  5
2D93
330
1E
100
AcDbEntity
  8
3
100
AcDbLine
 10
4.269945587584526
 20
2.551189124740038
 30
0.0
 11
4.269945587584526
 21
2.547252116866023
 31
0.0
  0
LINE
  5
2D94
330
1E
100
AcDbEntity
  8
3
100
AcDbLine
 10
4.208265797558281
 20
6.982947654923762
 30
0.0
 11
4.208265797558281
 21
2.610244242850275
 31
0.0
  0
LINE
  5
2D95
330
1E
100
AcDbEntity
  8
3
100
AcDbLine
 10
4.208265797558281
 20
2.610244242850275
 30
0.0
 11
4.269945587584526
 21
2.606307234976259
 31
0.0
  0
LINE
  5
2D96
330
1E
100
AcDbEntity
  8
3
100
AcDbLine
 10
4.269945587584526
 20
2.606307234976259
 30
0.0
 11
4.269945587584526
 21
6.986884662797778
 31
0.0
  0
LINE
  5
2D97
330
1E
100
AcDbEntity
  8
3
100
AcDbLine
 10
4.269945587584526
 20
6.986884662797778
 30
0.0
 11
4.208265797558281
 21
6.982947654923762
 31
0.0
  0
LINE
  5
2D98
330
1E
100
AcDbEntity
  8
3
100
AcDbLine
 10
0.4418615980832188
 20
3.120742930514317
 30
0.0
 11
0.4589219655372867
 21
3.11418125072429
 31
0.0
  0
LINE
  5
2D99
330
1E
100
AcDbEntity
  8
3
100
AcDbLine
 10
0.4589219655372867
 20
3.11418125072429
 30
0.0
 11
0.4772946689493596
 21
3.111556578808279
 31
0.0
  0
LINE
  5
2D9A
330
1E
100
AcDbEntity
  8
3
100
AcDbLine
 10
0.6321503119939793
 20
3.254601198230851
 30
0.0
 11
0.6150899445399114
 21
3.261162878020877
 31
0.0
  0
LINE
  5
2D9B
330
1E
100
AcDbEntity
  8
3
100
AcDbLine
 10
0.6150899445399114
 20
3.261162878020877
 30
0.0
 11
0.5967172411278377
 21
3.263787549936888
 31
0.0
  0
LINE
  5
2D9C
330
1E
100
AcDbEntity
  8
3
100
AcDbLine
 10
0.5967172411278377
 20
3.111556578808279
 30
0.0
 11
0.6150899445399114
 21
3.11418125072429
 31
0.0
  0
LINE
  5
2D9D
330
1E
100
AcDbEntity
  8
3
100
AcDbLine
 10
0.6150899445399114
 20
3.11418125072429
 30
0.0
 11
0.6321503119939793
 21
3.120742930514317
 31
0.0
  0
LINE
  5
2D9E
330
1E
100
AcDbEntity
  8
3
100
AcDbLine
 10
0.4484232778732445
 20
3.258538206104867
 30
0.0
 11
0.4234888946711451
 21
3.2414778386508
 31
0.0
  0
LINE
  5
2D9F
330
1E
100
AcDbEntity
  8
3
100
AcDbLine
 10
0.4234888946711451
 20
3.2414778386508
 30
0.0
 11
0.4064285272170772
 21
3.216543455448699
 31
0.0
  0
LINE
  5
2DA0
330
1E
100
AcDbEntity
  8
3
100
AcDbLine
 10
0.4064285272170772
 20
3.216543455448699
 30
0.0
 11
0.4011791833850556
 21
3.187672064372583
 31
0.0
  0
LINE
  5
2DA1
330
1E
100
AcDbEntity
  8
3
100
AcDbLine
 10
0.4011791833850556
 20
3.187672064372583
 30
0.0
 11
0.4064285272170772
 21
3.158800673296468
 31
0.0
  0
LINE
  5
2DA2
330
1E
100
AcDbEntity
  8
3
100
AcDbLine
 10
0.4064285272170772
 20
3.158800673296468
 30
0.0
 11
0.4234888946711451
 21
3.133866290094369
 31
0.0
  0
LINE
  5
2DA3
330
1E
100
AcDbEntity
  8
3
100
AcDbLine
 10
0.4234888946711451
 20
3.133866290094369
 30
0.0
 11
0.4484232778732445
 21
3.1168059226403
 31
0.0
  0
LINE
  5
2DA4
330
1E
100
AcDbEntity
  8
3
100
AcDbLine
 10
0.4484232778732445
 20
3.1168059226403
 30
0.0
 11
0.4772946689493596
 21
3.111556578808279
 31
0.0
  0
LINE
  5
2DA5
330
1E
100
AcDbEntity
  8
3
100
AcDbLine
 10
0.5967172411278377
 20
3.111556578808279
 30
0.0
 11
0.6255886322039528
 21
3.1168059226403
 31
0.0
  0
LINE
  5
2DA6
330
1E
100
AcDbEntity
  8
3
100
AcDbLine
 10
0.6255886322039528
 20
3.1168059226403
 30
0.0
 11
0.6505230154060531
 21
3.133866290094369
 31
0.0
  0
LINE
  5
2DA7
330
1E
100
AcDbEntity
  8
3
100
AcDbLine
 10
0.6505230154060531
 20
3.133866290094369
 30
0.0
 11
0.667583382860121
 21
3.158800673296468
 31
0.0
  0
LINE
  5
2DA8
330
1E
100
AcDbEntity
  8
3
100
AcDbLine
 10
0.667583382860121
 20
3.158800673296468
 30
0.0
 11
0.6728327266921417
 21
3.187672064372583
 31
0.0
  0
LINE
  5
2DA9
330
1E
100
AcDbEntity
  8
3
100
AcDbLine
 10
0.6728327266921417
 20
3.187672064372583
 30
0.0
 11
0.667583382860121
 21
3.216543455448699
 31
0.0
  0
LINE
  5
2DAA
330
1E
100
AcDbEntity
  8
3
100
AcDbLine
 10
0.667583382860121
 20
3.216543455448699
 30
0.0
 11
0.6505230154060531
 21
3.2414778386508
 31
0.0
  0
LINE
  5
2DAB
330
1E
100
AcDbEntity
  8
3
100
AcDbLine
 10
0.6505230154060531
 20
3.2414778386508
 30
0.0
 11
0.6255886322039528
 21
3.258538206104867
 31
0.0
  0
LINE
  5
2DAC
330
1E
100
AcDbEntity
  8
3
100
AcDbLine
 10
0.6255886322039528
 20
3.258538206104867
 30
0.0
 11
0.5967172411278377
 21
3.263787549936888
 31
0.0
  0
LINE
  5
2DAD
330
1E
100
AcDbEntity
  8
3
100
AcDbLine
 10
0.3959298395530348
 20
3.313656316341087
 30
0.0
 11
0.3644337765609089
 21
3.286097261222977
 31
0.0
  0
LINE
  5
2DAE
330
1E
100
AcDbEntity
  8
3
100
AcDbLine
 10
0.3644337765609089
 20
3.286097261222977
 30
0.0
 11
0.3408117293168145
 21
3.24935185439883
 31
0.0
  0
LINE
  5
2DAF
330
1E
100
AcDbEntity
  8
3
100
AcDbLine
 10
0.3408117293168145
 20
3.24935185439883
 30
0.0
 11
0.3290007056947672
 21
3.208669439700667
 31
0.0
  0
LINE
  5
2DB0
330
1E
100
AcDbEntity
  8
3
100
AcDbLine
 10
0.3290007056947672
 20
3.208669439700667
 30
0.0
 11
0.3290007056947672
 21
3.1666746890445
 31
0.0
  0
LINE
  5
2DB1
330
1E
100
AcDbEntity
  8
3
100
AcDbLine
 10
0.3290007056947672
 20
3.1666746890445
 30
0.0
 11
0.3408117293168145
 21
3.125992274346337
 31
0.0
  0
LINE
  5
2DB2
330
1E
100
AcDbEntity
  8
3
100
AcDbLine
 10
0.3408117293168145
 20
3.125992274346337
 30
0.0
 11
0.3644337765609089
 21
3.089246867522191
 31
0.0
  0
LINE
  5
2DB3
330
1E
100
AcDbEntity
  8
3
100
AcDbLine
 10
0.3644337765609089
 20
3.089246867522191
 30
0.0
 11
0.3959298395530348
 21
3.06168781240408
 31
0.0
  0
LINE
  5
2DB4
330
1E
100
AcDbEntity
  8
3
100
AcDbLine
 10
0.3959298395530348
 20
3.06168781240408
 30
0.0
 11
0.4352999182931923
 21
3.044627444950012
 31
0.0
  0
LINE
  5
2DB5
330
1E
100
AcDbEntity
  8
3
100
AcDbLine
 10
0.4352999182931923
 20
3.044627444950012
 30
0.0
 11
0.4772946689493596
 21
3.038065765159985
 31
0.0
  0
LINE
  5
2DB6
330
1E
100
AcDbEntity
  8
3
100
AcDbLine
 10
0.4772946689493596
 20
3.337278363585182
 30
0.0
 11
0.4352999182931923
 21
3.330716683795156
 31
0.0
  0
LINE
  5
2DB7
330
1E
100
AcDbEntity
  8
3
100
AcDbLine
 10
0.4352999182931923
 20
3.330716683795156
 30
0.0
 11
0.3959298395530348
 21
3.313656316341087
 31
0.0
  0
LINE
  5
2DB8
330
1E
100
AcDbEntity
  8
3
100
AcDbLine
 10
0.6780820705241633
 20
3.06168781240408
 30
0.0
 11
0.7095781335162892
 21
3.089246867522191
 31
0.0
  0
LINE
  5
2DB9
330
1E
100
AcDbEntity
  8
3
100
AcDbLine
 10
0.7095781335162892
 20
3.089246867522191
 30
0.0
 11
0.7332001807603837
 21
3.125992274346337
 31
0.0
  0
LINE
  5
2DBA
330
1E
100
AcDbEntity
  8
3
100
AcDbLine
 10
0.7332001807603837
 20
3.125992274346337
 30
0.0
 11
0.7450112043824309
 21
3.1666746890445
 31
0.0
  0
LINE
  5
2DBB
330
1E
100
AcDbEntity
  8
3
100
AcDbLine
 10
0.7450112043824309
 20
3.1666746890445
 30
0.0
 11
0.7450112043824309
 21
3.208669439700667
 31
0.0
  0
LINE
  5
2DBC
330
1E
100
AcDbEntity
  8
3
100
AcDbLine
 10
0.7450112043824309
 20
3.208669439700667
 30
0.0
 11
0.7332001807603837
 21
3.24935185439883
 31
0.0
  0
LINE
  5
2DBD
330
1E
100
AcDbEntity
  8
3
100
AcDbLine
 10
0.7332001807603837
 20
3.24935185439883
 30
0.0
 11
0.7095781335162892
 21
3.286097261222977
 31
0.0
  0
LINE
  5
2DBE
330
1E
100
AcDbEntity
  8
3
100
AcDbLine
 10
0.7095781335162892
 20
3.286097261222977
 30
0.0
 11
0.6780820705241633
 21
3.313656316341087
 31
0.0
  0
LINE
  5
2DBF
330
1E
100
AcDbEntity
  8
3
100
AcDbLine
 10
0.6780820705241633
 20
3.313656316341087
 30
0.0
 11
0.6387119917840059
 21
3.330716683795156
 31
0.0
  0
LINE
  5
2DC0
330
1E
100
AcDbEntity
  8
3
100
AcDbLine
 10
0.6387119917840059
 20
3.330716683795156
 30
0.0
 11
0.5967172411278377
 21
3.337278363585182
 31
0.0
  0
LINE
  5
2DC1
330
1E
100
AcDbEntity
  8
3
100
AcDbLine
 10
0.5967172411278377
 20
3.038065765159985
 30
0.0
 11
0.6387119917840059
 21
3.044627444950012
 31
0.0
  0
LINE
  5
2DC2
330
1E
100
AcDbEntity
  8
3
100
AcDbLine
 10
0.6387119917840059
 20
3.044627444950012
 30
0.0
 11
0.6780820705241633
 21
3.06168781240408
 31
0.0
  0
LINE
  5
2DC3
330
1E
100
AcDbEntity
  8
3
100
AcDbLine
 10
1.441861598083217
 20
3.392396473821403
 30
0.0
 11
1.45760962957928
 21
3.388459465947387
 31
0.0
  0
LINE
  5
2DC4
330
1E
100
AcDbEntity
  8
3
100
AcDbLine
 10
1.45760962957928
 20
3.388459465947387
 30
0.0
 11
1.469420653201327
 21
3.377960778283345
 31
0.0
  0
LINE
  5
2DC5
330
1E
100
AcDbEntity
  8
3
100
AcDbLine
 10
1.469420653201327
 20
3.377960778283345
 30
0.0
 11
1.473357661075343
 21
3.362212746787282
 31
0.0
  0
LINE
  5
2DC6
330
1E
100
AcDbEntity
  8
3
100
AcDbLine
 10
1.473357661075343
 20
3.013131381957886
 30
0.0
 11
1.469420653201327
 21
2.997383350461823
 31
0.0
  0
LINE
  5
2DC7
330
1E
100
AcDbEntity
  8
3
100
AcDbLine
 10
1.469420653201327
 20
2.997383350461823
 30
0.0
 11
1.45760962957928
 21
2.985572326839776
 31
0.0
  0
LINE
  5
2DC8
330
1E
100
AcDbEntity
  8
3
100
AcDbLine
 10
1.45760962957928
 20
2.985572326839776
 30
0.0
 11
1.441861598083217
 21
2.98163531896576
 31
0.0
  0
LINE
  5
2DC9
330
1E
100
AcDbEntity
  8
3
100
AcDbLine
 10
-0.3678496880060198
 20
2.98163531896576
 30
0.0
 11
-0.3822853835440778
 21
2.985572326839776
 31
0.0
  0
LINE
  5
2DCA
330
1E
100
AcDbEntity
  8
3
100
AcDbLine
 10
-0.3822853835440778
 20
2.985572326839776
 30
0.0
 11
-0.3940964071661241
 21
2.997383350461823
 31
0.0
  0
LINE
  5
2DCB
330
1E
100
AcDbEntity
  8
3
100
AcDbLine
 10
-0.3940964071661241
 20
2.997383350461823
 30
0.0
 11
-0.3980334150401408
 21
3.013131381957886
 31
0.0
  0
LINE
  5
2DCC
330
1E
100
AcDbEntity
  8
3
100
AcDbLine
 10
-0.3980334150401408
 20
3.362212746787282
 30
0.0
 11
-0.3940964071661241
 21
3.377960778283345
 31
0.0
  0
LINE
  5
2DCD
330
1E
100
AcDbEntity
  8
3
100
AcDbLine
 10
-0.3940964071661241
 20
3.377960778283345
 30
0.0
 11
-0.3822853835440778
 21
3.388459465947387
 31
0.0
  0
LINE
  5
2DCE
330
1E
100
AcDbEntity
  8
3
100
AcDbLine
 10
-0.3822853835440778
 20
3.388459465947387
 30
0.0
 11
-0.3678496880060198
 21
3.392396473821403
 31
0.0
  0
LINE
  5
2DCF
330
1E
100
AcDbEntity
  8
3
100
AcDbLine
 10
1.409053199133086
 20
3.392396473821403
 30
0.0
 11
-0.3350412890558889
 21
3.392396473821403
 31
0.0
  0
LINE
  5
2DD0
330
1E
100
AcDbEntity
  8
3
100
AcDbLine
 10
-0.3350412890558889
 20
3.392396473821403
 30
0.0
 11
-0.3376659609718997
 21
3.392396473821403
 31
0.0
  0
LINE
  5
2DD1
330
1E
100
AcDbEntity
  8
3
100
AcDbLine
 10
-0.3350412890558889
 20
3.392396473821403
 30
0.0
 11
-0.3350412890558889
 21
2.982947654923765
 31
0.0
  0
LINE
  5
2DD2
330
1E
100
AcDbEntity
  8
3
100
AcDbLine
 10
-0.3350412890558889
 20
2.982947654923765
 30
0.0
 11
1.409053199133086
 21
2.982947654923765
 31
0.0
  0
LINE
  5
2DD3
330
1E
100
AcDbEntity
  8
3
100
AcDbLine
 10
0.4772946689493596
 20
3.338590699543187
 30
0.0
 11
0.4352999182931923
 21
3.332029019753161
 31
0.0
  0
LINE
  5
2DD4
330
1E
100
AcDbEntity
  8
3
100
AcDbLine
 10
0.4352999182931923
 20
3.332029019753161
 30
0.0
 11
0.3959298395530348
 21
3.314968652299093
 31
0.0
  0
LINE
  5
2DD5
330
1E
100
AcDbEntity
  8
3
100
AcDbLine
 10
0.3959298395530348
 20
3.314968652299093
 30
0.0
 11
0.363121440602904
 21
3.286097261222977
 31
0.0
  0
LINE
  5
2DD6
330
1E
100
AcDbEntity
  8
3
100
AcDbLine
 10
0.363121440602904
 20
3.286097261222977
 30
0.0
 11
0.3394993933588095
 21
3.250664190356835
 31
0.0
  0
LINE
  5
2DD7
330
1E
100
AcDbEntity
  8
3
100
AcDbLine
 10
0.3394993933588095
 20
3.250664190356835
 30
0.0
 11
0.3276883697367623
 21
3.208669439700667
 31
0.0
  0
LINE
  5
2DD8
330
1E
100
AcDbEntity
  8
3
100
AcDbLine
 10
0.3276883697367623
 20
3.208669439700667
 30
0.0
 11
0.3276883697367623
 21
3.1666746890445
 31
0.0
  0
LINE
  5
2DD9
330
1E
100
AcDbEntity
  8
3
100
AcDbLine
 10
0.3276883697367623
 20
3.1666746890445
 30
0.0
 11
0.3394993933588095
 21
3.124679938388331
 31
0.0
  0
LINE
  5
2DDA
330
1E
100
AcDbEntity
  8
3
100
AcDbLine
 10
0.3394993933588095
 20
3.124679938388331
 30
0.0
 11
0.363121440602904
 21
3.089246867522191
 31
0.0
  0
LINE
  5
2DDB
330
1E
100
AcDbEntity
  8
3
100
AcDbLine
 10
0.363121440602904
 20
3.089246867522191
 30
0.0
 11
0.3959298395530348
 21
3.060375476446075
 31
0.0
  0
LINE
  5
2DDC
330
1E
100
AcDbEntity
  8
3
100
AcDbLine
 10
0.3959298395530348
 20
3.060375476446075
 30
0.0
 11
0.4352999182931923
 21
3.043315108992007
 31
0.0
  0
LINE
  5
2DDD
330
1E
100
AcDbEntity
  8
3
100
AcDbLine
 10
0.4352999182931923
 20
3.043315108992007
 30
0.0
 11
0.4772946689493596
 21
3.03675342920198
 31
0.0
  0
LINE
  5
2DDE
330
1E
100
AcDbEntity
  8
3
100
AcDbLine
 10
0.6387119917840059
 20
3.043315108992007
 30
0.0
 11
0.6780820705241633
 21
3.060375476446075
 31
0.0
  0
LINE
  5
2DDF
330
1E
100
AcDbEntity
  8
3
100
AcDbLine
 10
0.6780820705241633
 20
3.060375476446075
 30
0.0
 11
0.7108904694742942
 21
3.089246867522191
 31
0.0
  0
LINE
  5
2DE0
330
1E
100
AcDbEntity
  8
3
100
AcDbLine
 10
0.7108904694742942
 20
3.089246867522191
 30
0.0
 11
0.7345125167183886
 21
3.124679938388331
 31
0.0
  0
LINE
  5
2DE1
330
1E
100
AcDbEntity
  8
3
100
AcDbLine
 10
0.7345125167183886
 20
3.124679938388331
 30
0.0
 11
0.7463235403404367
 21
3.1666746890445
 31
0.0
  0
LINE
  5
2DE2
330
1E
100
AcDbEntity
  8
3
100
AcDbLine
 10
0.7463235403404367
 20
3.1666746890445
 30
0.0
 11
0.7463235403404367
 21
3.208669439700667
 31
0.0
  0
LINE
  5
2DE3
330
1E
100
AcDbEntity
  8
3
100
AcDbLine
 10
0.7463235403404367
 20
3.208669439700667
 30
0.0
 11
0.7345125167183886
 21
3.250664190356835
 31
0.0
  0
LINE
  5
2DE4
330
1E
100
AcDbEntity
  8
3
100
AcDbLine
 10
0.7345125167183886
 20
3.250664190356835
 30
0.0
 11
0.7108904694742942
 21
3.286097261222977
 31
0.0
  0
LINE
  5
2DE5
330
1E
100
AcDbEntity
  8
3
100
AcDbLine
 10
0.7108904694742942
 20
3.286097261222977
 30
0.0
 11
0.6780820705241633
 21
3.314968652299093
 31
0.0
  0
LINE
  5
2DE6
330
1E
100
AcDbEntity
  8
3
100
AcDbLine
 10
0.6780820705241633
 20
3.314968652299093
 30
0.0
 11
0.6387119917840059
 21
3.332029019753161
 31
0.0
  0
LINE
  5
2DE7
330
1E
100
AcDbEntity
  8
3
100
AcDbLine
 10
0.6387119917840059
 20
3.332029019753161
 30
0.0
 11
0.5967172411278377
 21
3.338590699543187
 31
0.0
  0
LINE
  5
2DE8
330
1E
100
AcDbEntity
  8
3
100
AcDbLine
 10
0.4313629104191766
 20
3.24672718248282
 30
0.0
 11
0.4103655350910929
 21
3.220480463322715
 31
0.0
  0
LINE
  5
2DE9
330
1E
100
AcDbEntity
  8
3
100
AcDbLine
 10
0.4103655350910929
 20
3.220480463322715
 30
0.0
 11
0.4024915193430614
 21
3.187672064372583
 31
0.0
  0
LINE
  5
2DEA
330
1E
100
AcDbEntity
  8
3
100
AcDbLine
 10
0.4024915193430614
 20
3.187672064372583
 30
0.0
 11
0.4103655350910929
 21
3.154863665422452
 31
0.0
  0
LINE
  5
2DEB
330
1E
100
AcDbEntity
  8
3
100
AcDbLine
 10
0.4103655350910929
 20
3.154863665422452
 30
0.0
 11
0.4313629104191766
 21
3.128616946262348
 31
0.0
  0
LINE
  5
2DEC
330
1E
100
AcDbEntity
  8
3
100
AcDbLine
 10
0.6426489996580216
 20
3.128616946262348
 30
0.0
 11
0.6636463749861053
 21
3.154863665422452
 31
0.0
  0
LINE
  5
2DED
330
1E
100
AcDbEntity
  8
3
100
AcDbLine
 10
0.6636463749861053
 20
3.154863665422452
 30
0.0
 11
0.6715203907341368
 21
3.187672064372583
 31
0.0
  0
LINE
  5
2DEE
330
1E
100
AcDbEntity
  8
3
100
AcDbLine
 10
0.6715203907341368
 20
3.187672064372583
 30
0.0
 11
0.6636463749861053
 21
3.220480463322715
 31
0.0
  0
LINE
  5
2DEF
330
1E
100
AcDbEntity
  8
3
100
AcDbLine
 10
0.6636463749861053
 20
3.220480463322715
 30
0.0
 11
0.6426489996580216
 21
3.24672718248282
 31
0.0
  0
LINE
  5
2DF0
330
1E
100
AcDbEntity
  8
3
100
AcDbLine
 10
0.4772946689493596
 20
6.544627444950009
 30
0.0
 11
0.4589219655372867
 21
6.542002773033997
 31
0.0
  0
LINE
  5
2DF1
330
1E
100
AcDbEntity
  8
3
100
AcDbLine
 10
0.4589219655372867
 20
6.542002773033997
 30
0.0
 11
0.4418615980832188
 21
6.535441093243972
 31
0.0
  0
LINE
  5
2DF2
330
1E
100
AcDbEntity
  8
3
100
AcDbLine
 10
0.4418615980832188
 20
6.401582825527436
 30
0.0
 11
0.4589219655372867
 21
6.39502114573741
 31
0.0
  0
LINE
  5
2DF3
330
1E
100
AcDbEntity
  8
3
100
AcDbLine
 10
0.4589219655372867
 20
6.39502114573741
 30
0.0
 11
0.4772946689493596
 21
6.392396473821399
 31
0.0
  0
LINE
  5
2DF4
330
1E
100
AcDbEntity
  8
3
100
AcDbLine
 10
0.6321503119939793
 20
6.535441093243972
 30
0.0
 11
0.6150899445399114
 21
6.542002773033997
 31
0.0
  0
LINE
  5
2DF5
330
1E
100
AcDbEntity
  8
3
100
AcDbLine
 10
0.6150899445399114
 20
6.542002773033997
 30
0.0
 11
0.5967172411278377
 21
6.544627444950009
 31
0.0
  0
LINE
  5
2DF6
330
1E
100
AcDbEntity
  8
3
100
AcDbLine
 10
0.5967172411278377
 20
6.392396473821399
 30
0.0
 11
0.6150899445399114
 21
6.39502114573741
 31
0.0
  0
LINE
  5
2DF7
330
1E
100
AcDbEntity
  8
3
100
AcDbLine
 10
0.6150899445399114
 20
6.39502114573741
 30
0.0
 11
0.6321503119939793
 21
6.401582825527436
 31
0.0
  0
LINE
  5
2DF8
330
1E
100
AcDbEntity
  8
3
100
AcDbLine
 10
0.6505230154060531
 20
6.522317733663919
 30
0.0
 11
0.6255886322039528
 21
6.539378101117987
 31
0.0
  0
LINE
  5
2DF9
330
1E
100
AcDbEntity
  8
3
100
AcDbLine
 10
0.6255886322039528
 20
6.539378101117987
 30
0.0
 11
0.5967172411278377
 21
6.544627444950009
 31
0.0
  0
LINE
  5
2DFA
330
1E
100
AcDbEntity
  8
3
100
AcDbLine
 10
0.5967172411278377
 20
6.392396473821399
 30
0.0
 11
0.6255886322039528
 21
6.39764581765342
 31
0.0
  0
LINE
  5
2DFB
330
1E
100
AcDbEntity
  8
3
100
AcDbLine
 10
0.6255886322039528
 20
6.39764581765342
 30
0.0
 11
0.6505230154060531
 21
6.414706185107489
 31
0.0
  0
LINE
  5
2DFC
330
1E
100
AcDbEntity
  8
3
100
AcDbLine
 10
0.6505230154060531
 20
6.414706185107489
 30
0.0
 11
0.667583382860121
 21
6.439640568309589
 31
0.0
  0
LINE
  5
2DFD
330
1E
100
AcDbEntity
  8
3
100
AcDbLine
 10
0.667583382860121
 20
6.439640568309589
 30
0.0
 11
0.6728327266921417
 21
6.468511959385704
 31
0.0
  0
LINE
  5
2DFE
330
1E
100
AcDbEntity
  8
3
100
AcDbLine
 10
0.6728327266921417
 20
6.468511959385704
 30
0.0
 11
0.667583382860121
 21
6.49738335046182
 31
0.0
  0
LINE
  5
2DFF
330
1E
100
AcDbEntity
  8
3
100
AcDbLine
 10
0.667583382860121
 20
6.49738335046182
 30
0.0
 11
0.6505230154060531
 21
6.522317733663919
 31
0.0
  0
LINE
  5
2E00
330
1E
100
AcDbEntity
  8
3
100
AcDbLine
 10
0.4011791833850556
 20
6.468511959385704
 30
0.0
 11
0.4064285272170772
 21
6.439640568309589
 31
0.0
  0
LINE
  5
2E01
330
1E
100
AcDbEntity
  8
3
100
AcDbLine
 10
0.4064285272170772
 20
6.439640568309589
 30
0.0
 11
0.4234888946711451
 21
6.414706185107489
 31
0.0
  0
LINE
  5
2E02
330
1E
100
AcDbEntity
  8
3
100
AcDbLine
 10
0.4234888946711451
 20
6.414706185107489
 30
0.0
 11
0.4484232778732445
 21
6.39764581765342
 31
0.0
  0
LINE
  5
2E03
330
1E
100
AcDbEntity
  8
3
100
AcDbLine
 10
0.4484232778732445
 20
6.39764581765342
 30
0.0
 11
0.4772946689493596
 21
6.392396473821399
 31
0.0
  0
LINE
  5
2E04
330
1E
100
AcDbEntity
  8
3
100
AcDbLine
 10
0.4772946689493596
 20
6.544627444950009
 30
0.0
 11
0.4484232778732445
 21
6.539378101117987
 31
0.0
  0
LINE
  5
2E05
330
1E
100
AcDbEntity
  8
3
100
AcDbLine
 10
0.4484232778732445
 20
6.539378101117987
 30
0.0
 11
0.4234888946711451
 21
6.522317733663919
 31
0.0
  0
LINE
  5
2E06
330
1E
100
AcDbEntity
  8
3
100
AcDbLine
 10
0.4234888946711451
 20
6.522317733663919
 30
0.0
 11
0.4064285272170772
 21
6.49738335046182
 31
0.0
  0
LINE
  5
2E07
330
1E
100
AcDbEntity
  8
3
100
AcDbLine
 10
0.4064285272170772
 20
6.49738335046182
 30
0.0
 11
0.4011791833850556
 21
6.468511959385704
 31
0.0
  0
LINE
  5
2E08
330
1E
100
AcDbEntity
  8
3
100
AcDbLine
 10
0.3408117293168145
 20
6.406832169359457
 30
0.0
 11
0.3644337765609089
 21
6.370086762535311
 31
0.0
  0
LINE
  5
2E09
330
1E
100
AcDbEntity
  8
3
100
AcDbLine
 10
0.3644337765609089
 20
6.370086762535311
 30
0.0
 11
0.3959298395530348
 21
6.3425277074172
 31
0.0
  0
LINE
  5
2E0A
330
1E
100
AcDbEntity
  8
3
100
AcDbLine
 10
0.3959298395530348
 20
6.3425277074172
 30
0.0
 11
0.4352999182931923
 21
6.325467339963132
 31
0.0
  0
LINE
  5
2E0B
330
1E
100
AcDbEntity
  8
3
100
AcDbLine
 10
0.4352999182931923
 20
6.325467339963132
 30
0.0
 11
0.4772946689493596
 21
6.318905660173105
 31
0.0
  0
LINE
  5
2E0C
330
1E
100
AcDbEntity
  8
3
100
AcDbLine
 10
0.4772946689493596
 20
6.618118258598302
 30
0.0
 11
0.4352999182931923
 21
6.611556578808277
 31
0.0
  0
LINE
  5
2E0D
330
1E
100
AcDbEntity
  8
3
100
AcDbLine
 10
0.4352999182931923
 20
6.611556578808277
 30
0.0
 11
0.3959298395530348
 21
6.594496211354208
 31
0.0
  0
LINE
  5
2E0E
330
1E
100
AcDbEntity
  8
3
100
AcDbLine
 10
0.3959298395530348
 20
6.594496211354208
 30
0.0
 11
0.3644337765609089
 21
6.566937156236098
 31
0.0
  0
LINE
  5
2E0F
330
1E
100
AcDbEntity
  8
3
100
AcDbLine
 10
0.3644337765609089
 20
6.566937156236098
 30
0.0
 11
0.3408117293168145
 21
6.530191749411951
 31
0.0
  0
LINE
  5
2E10
330
1E
100
AcDbEntity
  8
3
100
AcDbLine
 10
0.3408117293168145
 20
6.530191749411951
 30
0.0
 11
0.3290007056947672
 21
6.489509334713788
 31
0.0
  0
LINE
  5
2E11
330
1E
100
AcDbEntity
  8
3
100
AcDbLine
 10
0.3290007056947672
 20
6.489509334713788
 30
0.0
 11
0.3290007056947672
 21
6.44751458405762
 31
0.0
  0
LINE
  5
2E12
330
1E
100
AcDbEntity
  8
3
100
AcDbLine
 10
0.3290007056947672
 20
6.44751458405762
 30
0.0
 11
0.3408117293168145
 21
6.406832169359457
 31
0.0
  0
LINE
  5
2E13
330
1E
100
AcDbEntity
  8
3
100
AcDbLine
 10
0.7095781335162892
 20
6.566937156236098
 30
0.0
 11
0.6780820705241633
 21
6.594496211354208
 31
0.0
  0
LINE
  5
2E14
330
1E
100
AcDbEntity
  8
3
100
AcDbLine
 10
0.6780820705241633
 20
6.594496211354208
 30
0.0
 11
0.6387119917840059
 21
6.611556578808277
 31
0.0
  0
LINE
  5
2E15
330
1E
100
AcDbEntity
  8
3
100
AcDbLine
 10
0.6387119917840059
 20
6.611556578808277
 30
0.0
 11
0.5967172411278377
 21
6.618118258598302
 31
0.0
  0
LINE
  5
2E16
330
1E
100
AcDbEntity
  8
3
100
AcDbLine
 10
0.5967172411278377
 20
6.318905660173105
 30
0.0
 11
0.6387119917840059
 21
6.325467339963132
 31
0.0
  0
LINE
  5
2E17
330
1E
100
AcDbEntity
  8
3
100
AcDbLine
 10
0.6387119917840059
 20
6.325467339963132
 30
0.0
 11
0.6780820705241633
 21
6.3425277074172
 31
0.0
  0
LINE
  5
2E18
330
1E
100
AcDbEntity
  8
3
100
AcDbLine
 10
0.6780820705241633
 20
6.3425277074172
 30
0.0
 11
0.7095781335162892
 21
6.370086762535311
 31
0.0
  0
LINE
  5
2E19
330
1E
100
AcDbEntity
  8
3
100
AcDbLine
 10
0.7095781335162892
 20
6.370086762535311
 30
0.0
 11
0.7332001807603837
 21
6.406832169359457
 31
0.0
  0
LINE
  5
2E1A
330
1E
100
AcDbEntity
  8
3
100
AcDbLine
 10
0.7332001807603837
 20
6.406832169359457
 30
0.0
 11
0.7450112043824309
 21
6.44751458405762
 31
0.0
  0
LINE
  5
2E1B
330
1E
100
AcDbEntity
  8
3
100
AcDbLine
 10
0.7450112043824309
 20
6.44751458405762
 30
0.0
 11
0.7450112043824309
 21
6.489509334713788
 31
0.0
  0
LINE
  5
2E1C
330
1E
100
AcDbEntity
  8
3
100
AcDbLine
 10
0.7450112043824309
 20
6.489509334713788
 30
0.0
 11
0.7332001807603837
 21
6.530191749411951
 31
0.0
  0
LINE
  5
2E1D
330
1E
100
AcDbEntity
  8
3
100
AcDbLine
 10
0.7332001807603837
 20
6.530191749411951
 30
0.0
 11
0.7095781335162892
 21
6.566937156236098
 31
0.0
  0
LINE
  5
2E1E
330
1E
100
AcDbEntity
  8
3
100
AcDbLine
 10
0.4772946689493596
 20
6.620742930514312
 30
0.0
 11
0.4772946689493596
 21
6.618118258598302
 31
0.0
  0
LINE
  5
2E1F
330
1E
100
AcDbEntity
  8
3
100
AcDbLine
 10
0.4772946689493596
 20
6.618118258598302
 30
0.0
 11
0.5967172411278377
 21
6.618118258598302
 31
0.0
  0
LINE
  5
2E20
330
1E
100
AcDbEntity
  8
3
100
AcDbLine
 10
0.5967172411278377
 20
6.316280988257095
 30
0.0
 11
0.5967172411278377
 21
6.318905660173105
 31
0.0
  0
LINE
  5
2E21
330
1E
100
AcDbEntity
  8
3
100
AcDbLine
 10
0.5967172411278377
 20
6.318905660173105
 30
0.0
 11
0.4772946689493596
 21
6.318905660173105
 31
0.0
  0
LINE
  5
2E22
330
1E
100
AcDbEntity
  8
3
100
AcDbLine
 10
1.473357661075343
 20
6.643052641800403
 30
0.0
 11
1.469420653201327
 21
6.658800673296465
 31
0.0
  0
LINE
  5
2E23
330
1E
100
AcDbEntity
  8
3
100
AcDbLine
 10
1.469420653201327
 20
6.658800673296465
 30
0.0
 11
1.45760962957928
 21
6.669299360960508
 31
0.0
  0
LINE
  5
2E24
330
1E
100
AcDbEntity
  8
3
100
AcDbLine
 10
1.45760962957928
 20
6.669299360960508
 30
0.0
 11
1.441861598083217
 21
6.674548704792528
 31
0.0
  0
LINE
  5
2E25
330
1E
100
AcDbEntity
  8
3
100
AcDbLine
 10
1.441861598083217
 20
6.674548704792528
 30
0.0
 11
1.412990207007102
 21
6.674548704792528
 31
0.0
  0
LINE
  5
2E26
330
1E
100
AcDbEntity
  8
3
100
AcDbLine
 10
1.412990207007102
 20
6.262475213978881
 30
0.0
 11
1.441861598083217
 21
6.262475213978881
 31
0.0
  0
LINE
  5
2E27
330
1E
100
AcDbEntity
  8
3
100
AcDbLine
 10
1.441861598083217
 20
6.262475213978881
 30
0.0
 11
1.45760962957928
 21
6.266412221852895
 31
0.0
  0
LINE
  5
2E28
330
1E
100
AcDbEntity
  8
3
100
AcDbLine
 10
1.45760962957928
 20
6.266412221852895
 30
0.0
 11
1.469420653201327
 21
6.278223245474944
 31
0.0
  0
LINE
  5
2E29
330
1E
100
AcDbEntity
  8
3
100
AcDbLine
 10
1.469420653201327
 20
6.278223245474944
 30
0.0
 11
1.473357661075343
 21
6.293971276971007
 31
0.0
  0
LINE
  5
2E2A
330
1E
100
AcDbEntity
  8
3
100
AcDbLine
 10
1.473357661075343
 20
6.293971276971007
 30
0.0
 11
1.473357661075343
 21
6.643052641800403
 31
0.0
  0
LINE
  5
2E2B
330
1E
100
AcDbEntity
  8
3
100
AcDbLine
 10
-0.3678496880060198
 20
6.674548704792528
 30
0.0
 11
-0.3822853835440778
 21
6.669299360960508
 31
0.0
  0
LINE
  5
2E2C
330
1E
100
AcDbEntity
  8
3
100
AcDbLine
 10
-0.3822853835440778
 20
6.669299360960508
 30
0.0
 11
-0.3940964071661241
 21
6.658800673296465
 31
0.0
  0
LINE
  5
2E2D
330
1E
100
AcDbEntity
  8
3
100
AcDbLine
 10
-0.3940964071661241
 20
6.658800673296465
 30
0.0
 11
-0.3980334150401408
 21
6.643052641800403
 31
0.0
  0
LINE
  5
2E2E
330
1E
100
AcDbEntity
  8
3
100
AcDbLine
 10
-0.3980334150401408
 20
6.643052641800403
 30
0.0
 11
-0.3980334150401408
 21
6.293971276971007
 31
0.0
  0
LINE
  5
2E2F
330
1E
100
AcDbEntity
  8
3
100
AcDbLine
 10
-0.3980334150401408
 20
6.293971276971007
 30
0.0
 11
-0.3940964071661241
 21
6.278223245474944
 31
0.0
  0
LINE
  5
2E30
330
1E
100
AcDbEntity
  8
3
100
AcDbLine
 10
-0.3940964071661241
 20
6.278223245474944
 30
0.0
 11
-0.3822853835440778
 21
6.266412221852895
 31
0.0
  0
LINE
  5
2E31
330
1E
100
AcDbEntity
  8
3
100
AcDbLine
 10
-0.3822853835440778
 20
6.266412221852895
 30
0.0
 11
-0.3678496880060198
 21
6.262475213978881
 31
0.0
  0
LINE
  5
2E32
330
1E
100
AcDbEntity
  8
3
100
AcDbLine
 10
-0.3678496880060198
 20
6.262475213978881
 30
0.0
 11
-0.3376659609718997
 21
6.262475213978881
 31
0.0
  0
LINE
  5
2E33
330
1E
100
AcDbEntity
  8
3
100
AcDbLine
 10
0.6780820705241633
 20
6.595808547312214
 30
0.0
 11
0.6387119917840059
 21
6.612868914766282
 31
0.0
  0
LINE
  5
2E34
330
1E
100
AcDbEntity
  8
3
100
AcDbLine
 10
0.6387119917840059
 20
6.612868914766282
 30
0.0
 11
0.5967172411278377
 21
6.619430594556307
 31
0.0
  0
LINE
  5
2E35
330
1E
100
AcDbEntity
  8
3
100
AcDbLine
 10
0.5967172411278377
 20
6.3175933242151
 30
0.0
 11
0.6387119917840059
 21
6.324155004005127
 31
0.0
  0
LINE
  5
2E36
330
1E
100
AcDbEntity
  8
3
100
AcDbLine
 10
0.6387119917840059
 20
6.324155004005127
 30
0.0
 11
0.6780820705241633
 21
6.341215371459195
 31
0.0
  0
LINE
  5
2E37
330
1E
100
AcDbEntity
  8
3
100
AcDbLine
 10
0.6780820705241633
 20
6.341215371459195
 30
0.0
 11
0.7108904694742942
 21
6.370086762535311
 31
0.0
  0
LINE
  5
2E38
330
1E
100
AcDbEntity
  8
3
100
AcDbLine
 10
0.7108904694742942
 20
6.370086762535311
 30
0.0
 11
0.7345125167183886
 21
6.405519833401452
 31
0.0
  0
LINE
  5
2E39
330
1E
100
AcDbEntity
  8
3
100
AcDbLine
 10
0.7345125167183886
 20
6.405519833401452
 30
0.0
 11
0.7463235403404367
 21
6.44751458405762
 31
0.0
  0
LINE
  5
2E3A
330
1E
100
AcDbEntity
  8
3
100
AcDbLine
 10
0.7463235403404367
 20
6.44751458405762
 30
0.0
 11
0.7463235403404367
 21
6.489509334713788
 31
0.0
  0
LINE
  5
2E3B
330
1E
100
AcDbEntity
  8
3
100
AcDbLine
 10
0.7463235403404367
 20
6.489509334713788
 30
0.0
 11
0.7345125167183886
 21
6.531504085369956
 31
0.0
  0
LINE
  5
2E3C
330
1E
100
AcDbEntity
  8
3
100
AcDbLine
 10
0.7345125167183886
 20
6.531504085369956
 30
0.0
 11
0.7108904694742942
 21
6.566937156236098
 31
0.0
  0
LINE
  5
2E3D
330
1E
100
AcDbEntity
  8
3
100
AcDbLine
 10
0.7108904694742942
 20
6.566937156236098
 30
0.0
 11
0.6780820705241633
 21
6.595808547312214
 31
0.0
  0
LINE
  5
2E3E
330
1E
100
AcDbEntity
  8
3
100
AcDbLine
 10
0.4772946689493596
 20
6.619430594556307
 30
0.0
 11
0.4352999182931923
 21
6.612868914766282
 31
0.0
  0
LINE
  5
2E3F
330
1E
100
AcDbEntity
  8
3
100
AcDbLine
 10
0.4352999182931923
 20
6.612868914766282
 30
0.0
 11
0.3959298395530348
 21
6.595808547312214
 31
0.0
  0
LINE
  5
2E40
330
1E
100
AcDbEntity
  8
3
100
AcDbLine
 10
0.3959298395530348
 20
6.595808547312214
 30
0.0
 11
0.363121440602904
 21
6.566937156236098
 31
0.0
  0
LINE
  5
2E41
330
1E
100
AcDbEntity
  8
3
100
AcDbLine
 10
0.363121440602904
 20
6.566937156236098
 30
0.0
 11
0.3394993933588095
 21
6.531504085369956
 31
0.0
  0
LINE
  5
2E42
330
1E
100
AcDbEntity
  8
3
100
AcDbLine
 10
0.3394993933588095
 20
6.531504085369956
 30
0.0
 11
0.3276883697367623
 21
6.489509334713788
 31
0.0
  0
LINE
  5
2E43
330
1E
100
AcDbEntity
  8
3
100
AcDbLine
 10
0.3276883697367623
 20
6.489509334713788
 30
0.0
 11
0.3276883697367623
 21
6.44751458405762
 31
0.0
  0
LINE
  5
2E44
330
1E
100
AcDbEntity
  8
3
100
AcDbLine
 10
0.3276883697367623
 20
6.44751458405762
 30
0.0
 11
0.3394993933588095
 21
6.405519833401452
 31
0.0
  0
LINE
  5
2E45
330
1E
100
AcDbEntity
  8
3
100
AcDbLine
 10
0.3394993933588095
 20
6.405519833401452
 30
0.0
 11
0.363121440602904
 21
6.370086762535311
 31
0.0
  0
LINE
  5
2E46
330
1E
100
AcDbEntity
  8
3
100
AcDbLine
 10
0.363121440602904
 20
6.370086762535311
 30
0.0
 11
0.3959298395530348
 21
6.341215371459195
 31
0.0
  0
LINE
  5
2E47
330
1E
100
AcDbEntity
  8
3
100
AcDbLine
 10
0.3959298395530348
 20
6.341215371459195
 30
0.0
 11
0.4352999182931923
 21
6.324155004005127
 31
0.0
  0
LINE
  5
2E48
330
1E
100
AcDbEntity
  8
3
100
AcDbLine
 10
0.4352999182931923
 20
6.324155004005127
 30
0.0
 11
0.4772946689493596
 21
6.3175933242151
 31
0.0
  0
LINE
  5
2E49
330
1E
100
AcDbEntity
  8
3
100
AcDbLine
 10
0.4313629104191766
 20
6.527567077495939
 30
0.0
 11
0.4103655350910929
 21
6.501320358335835
 31
0.0
  0
LINE
  5
2E4A
330
1E
100
AcDbEntity
  8
3
100
AcDbLine
 10
0.4103655350910929
 20
6.501320358335835
 30
0.0
 11
0.4024915193430614
 21
6.468511959385704
 31
0.0
  0
LINE
  5
2E4B
330
1E
100
AcDbEntity
  8
3
100
AcDbLine
 10
0.4024915193430614
 20
6.468511959385704
 30
0.0
 11
0.4103655350910929
 21
6.435703560435573
 31
0.0
  0
LINE
  5
2E4C
330
1E
100
AcDbEntity
  8
3
100
AcDbLine
 10
0.4103655350910929
 20
6.435703560435573
 30
0.0
 11
0.4313629104191766
 21
6.409456841275468
 31
0.0
  0
LINE
  5
2E4D
330
1E
100
AcDbEntity
  8
3
100
AcDbLine
 10
0.6715203907341368
 20
6.468511959385704
 30
0.0
 11
0.6636463749861053
 21
6.501320358335835
 31
0.0
  0
LINE
  5
2E4E
330
1E
100
AcDbEntity
  8
3
100
AcDbLine
 10
0.6636463749861053
 20
6.501320358335835
 30
0.0
 11
0.6426489996580216
 21
6.527567077495939
 31
0.0
  0
LINE
  5
2E4F
330
1E
100
AcDbEntity
  8
3
100
AcDbLine
 10
0.6426489996580216
 20
6.409456841275468
 30
0.0
 11
0.6636463749861053
 21
6.435703560435573
 31
0.0
  0
LINE
  5
2E50
330
1E
100
AcDbEntity
  8
3
100
AcDbLine
 10
0.6636463749861053
 20
6.435703560435573
 30
0.0
 11
0.6715203907341368
 21
6.468511959385704
 31
0.0
  0
LINE
  5
2E51
330
1E
100
AcDbEntity
  8
3
100
AcDbLine
 10
-0.835041289055888
 20
2.640427969884395
 30
0.0
 11
-0.8258549373498516
 21
2.61155657880828
 31
0.0
  0
LINE
  5
2E52
330
1E
100
AcDbEntity
  8
3
100
AcDbLine
 10
-0.8258549373498516
 20
2.61155657880828
 30
0.0
 11
-0.8048575620217679
 21
2.589246867522191
 31
0.0
  0
LINE
  5
2E53
330
1E
100
AcDbEntity
  8
3
100
AcDbLine
 10
-0.8048575620217679
 20
2.589246867522191
 30
0.0
 11
-0.774673834987647
 21
2.581372851774159
 31
0.0
  0
LINE
  5
2E54
330
1E
100
AcDbEntity
  8
3
100
AcDbLine
 10
-0.774673834987647
 20
7.074811171984128
 30
0.0
 11
-0.8048575620217679
 21
7.066937156236098
 31
0.0
  0
LINE
  5
2E55
330
1E
100
AcDbEntity
  8
3
100
AcDbLine
 10
-0.8048575620217679
 20
7.066937156236098
 30
0.0
 11
-0.8258549373498516
 21
7.044627444950009
 31
0.0
  0
LINE
  5
2E56
330
1E
100
AcDbEntity
  8
3
100
AcDbLine
 10
-0.8258549373498516
 20
7.044627444950009
 30
0.0
 11
-0.835041289055888
 21
7.014443717915888
 31
0.0
  0
LINE
  5
2E57
330
1E
100
AcDbEntity
  8
3
100
AcDbLine
 10
1.848685745064844
 20
2.581372851774159
 30
0.0
 11
1.878869472098965
 21
2.589246867522191
 31
0.0
  0
LINE
  5
2E58
330
1E
100
AcDbEntity
  8
3
100
AcDbLine
 10
1.878869472098965
 20
2.589246867522191
 30
0.0
 11
1.901179183385054
 21
2.61155657880828
 31
0.0
  0
LINE
  5
2E59
330
1E
100
AcDbEntity
  8
3
100
AcDbLine
 10
1.901179183385054
 20
2.61155657880828
 30
0.0
 11
1.909053199133086
 21
2.640427969884395
 31
0.0
  0
LINE
  5
2E5A
330
1E
100
AcDbEntity
  8
3
100
AcDbLine
 10
1.909053199133086
 20
7.014443717915888
 30
0.0
 11
1.901179183385054
 21
7.044627444950009
 31
0.0
  0
LINE
  5
2E5B
330
1E
100
AcDbEntity
  8
3
100
AcDbLine
 10
1.901179183385054
 20
7.044627444950009
 30
0.0
 11
1.878869472098965
 21
7.066937156236098
 31
0.0
  0
LINE
  5
2E5C
330
1E
100
AcDbEntity
  8
3
100
AcDbLine
 10
1.878869472098965
 20
7.066937156236098
 30
0.0
 11
1.848685745064844
 21
7.074811171984128
 31
0.0
  0
LINE
  5
2E5D
330
1E
100
AcDbEntity
  8
3
100
AcDbLine
 10
-0.7930465383997199
 20
2.671924032876521
 30
0.0
 11
-0.7641751473236056
 21
2.6916090722466
 31
0.0
  0
LINE
  5
2E5E
330
1E
100
AcDbEntity
  8
3
100
AcDbLine
 10
-0.7641751473236056
 20
2.6916090722466
 30
0.0
 11
-0.731366748373473
 21
2.7165434554487
 31
0.0
  0
LINE
  5
2E5F
330
1E
100
AcDbEntity
  8
3
100
AcDbLine
 10
-0.731366748373473
 20
2.7165434554487
 30
0.0
 11
-0.6933090055913214
 21
2.744102510566809
 31
0.0
  0
LINE
  5
2E60
330
1E
100
AcDbEntity
  8
3
100
AcDbLine
 10
-0.6933090055913214
 20
2.744102510566809
 30
0.0
 11
-0.6526265908931581
 21
2.77428623760093
 31
0.0
  0
LINE
  5
2E61
330
1E
100
AcDbEntity
  8
3
100
AcDbLine
 10
-0.6526265908931581
 20
2.77428623760093
 30
0.0
 11
-0.6093195042789859
 21
2.805782300593056
 31
0.0
  0
LINE
  5
2E62
330
1E
100
AcDbEntity
  8
3
100
AcDbLine
 10
-0.835041289055888
 20
2.640427969884395
 30
0.0
 11
-0.8284796092658615
 21
2.645677313716416
 31
0.0
  0
LINE
  5
2E63
330
1E
100
AcDbEntity
  8
3
100
AcDbLine
 10
-0.8284796092658615
 20
2.645677313716416
 30
0.0
 11
-0.8140439137278034
 21
2.656176001380458
 31
0.0
  0
LINE
  5
2E64
330
1E
100
AcDbEntity
  8
3
100
AcDbLine
 10
-0.8140439137278034
 20
2.656176001380458
 30
0.0
 11
-0.7930465383997199
 21
2.671924032876521
 31
0.0
  0
LINE
  5
2E65
330
1E
100
AcDbEntity
  8
3
100
AcDbLine
 10
-0.6093195042789859
 20
6.850401723165231
 30
0.0
 11
-0.6526265908931581
 21
6.880585450199352
 31
0.0
  0
LINE
  5
2E66
330
1E
100
AcDbEntity
  8
3
100
AcDbLine
 10
-0.6526265908931581
 20
6.880585450199352
 30
0.0
 11
-0.6933090055913214
 21
6.910769177233473
 31
0.0
  0
LINE
  5
2E67
330
1E
100
AcDbEntity
  8
3
100
AcDbLine
 10
-0.6933090055913214
 20
6.910769177233473
 30
0.0
 11
-0.731366748373473
 21
6.938328232351583
 31
0.0
  0
LINE
  5
2E68
330
1E
100
AcDbEntity
  8
3
100
AcDbLine
 10
-0.731366748373473
 20
6.938328232351583
 30
0.0
 11
-0.7641751473236056
 21
6.963262615553682
 31
0.0
  0
LINE
  5
2E69
330
1E
100
AcDbEntity
  8
3
100
AcDbLine
 10
-0.7641751473236056
 20
6.963262615553682
 30
0.0
 11
-0.7930465383997199
 21
6.984259990881767
 31
0.0
  0
LINE
  5
2E6A
330
1E
100
AcDbEntity
  8
3
100
AcDbLine
 10
-0.7930465383997199
 20
6.984259990881767
 30
0.0
 11
-0.8140439137278034
 21
7.00000802237783
 31
0.0
  0
LINE
  5
2E6B
330
1E
100
AcDbEntity
  8
3
100
AcDbLine
 10
-0.8140439137278034
 20
7.00000802237783
 30
0.0
 11
-0.8284796092658615
 21
7.010506710041871
 31
0.0
  0
LINE
  5
2E6C
330
1E
100
AcDbEntity
  8
3
100
AcDbLine
 10
-0.8284796092658615
 20
7.010506710041871
 30
0.0
 11
-0.835041289055888
 21
7.014443717915888
 31
0.0
  0
LINE
  5
2E6D
330
1E
100
AcDbEntity
  8
3
100
AcDbLine
 10
1.684643750314188
 20
6.850401723165231
 30
0.0
 11
1.714827477348309
 21
6.892396473821399
 31
0.0
  0
LINE
  5
2E6E
330
1E
100
AcDbEntity
  8
3
100
AcDbLine
 10
1.714827477348309
 20
6.892396473821399
 30
0.0
 11
1.745011204382429
 21
6.933078888519561
 31
0.0
  0
LINE
  5
2E6F
330
1E
100
AcDbEntity
  8
3
100
AcDbLine
 10
1.745011204382429
 20
6.933078888519561
 30
0.0
 11
1.773882595458545
 21
6.971136631301715
 31
0.0
  0
LINE
  5
2E70
330
1E
100
AcDbEntity
  8
3
100
AcDbLine
 10
1.773882595458545
 20
6.971136631301715
 30
0.0
 11
1.797504642702639
 21
7.005257366209851
 31
0.0
  0
LINE
  5
2E71
330
1E
100
AcDbEntity
  8
3
100
AcDbLine
 10
1.797504642702639
 20
7.005257366209851
 30
0.0
 11
1.818502018030723
 21
7.032816421327961
 31
0.0
  0
LINE
  5
2E72
330
1E
100
AcDbEntity
  8
3
100
AcDbLine
 10
1.818502018030723
 20
7.032816421327961
 30
0.0
 11
1.834250049526786
 21
7.053813796656045
 31
0.0
  0
LINE
  5
2E73
330
1E
100
AcDbEntity
  8
3
100
AcDbLine
 10
1.834250049526786
 20
7.053813796656045
 30
0.0
 11
1.844748737190828
 21
7.068249492194103
 31
0.0
  0
LINE
  5
2E74
330
1E
100
AcDbEntity
  8
3
100
AcDbLine
 10
1.844748737190828
 20
7.068249492194103
 30
0.0
 11
1.848685745064844
 21
7.074811171984128
 31
0.0
  0
LINE
  5
2E75
330
1E
100
AcDbEntity
  8
3
100
AcDbLine
 10
-0.744490107953526
 20
7.032816421327961
 30
0.0
 11
-0.7234927326254424
 21
7.005257366209851
 31
0.0
  0
LINE
  5
2E76
330
1E
100
AcDbEntity
  8
3
100
AcDbLine
 10
-0.7234927326254424
 20
7.005257366209851
 30
0.0
 11
-0.6985583494233421
 21
6.971136631301715
 31
0.0
  0
LINE
  5
2E77
330
1E
100
AcDbEntity
  8
3
100
AcDbLine
 10
-0.6985583494233421
 20
6.971136631301715
 30
0.0
 11
-0.6709992943052328
 21
6.933078888519561
 31
0.0
  0
LINE
  5
2E78
330
1E
100
AcDbEntity
  8
3
100
AcDbLine
 10
-0.6709992943052328
 20
6.933078888519561
 30
0.0
 11
-0.6408155672711118
 21
6.892396473821399
 31
0.0
  0
LINE
  5
2E79
330
1E
100
AcDbEntity
  8
3
100
AcDbLine
 10
-0.6408155672711118
 20
6.892396473821399
 30
0.0
 11
-0.6093195042789859
 21
6.850401723165231
 31
0.0
  0
LINE
  5
2E7A
330
1E
100
AcDbEntity
  8
3
100
AcDbLine
 10
-0.774673834987647
 20
7.074811171984128
 30
0.0
 11
-0.7694244911556263
 21
7.068249492194103
 31
0.0
  0
LINE
  5
2E7B
330
1E
100
AcDbEntity
  8
3
100
AcDbLine
 10
-0.7694244911556263
 20
7.068249492194103
 30
0.0
 11
-0.760238139449589
 21
7.053813796656045
 31
0.0
  0
LINE
  5
2E7C
330
1E
100
AcDbEntity
  8
3
100
AcDbLine
 10
-0.760238139449589
 20
7.053813796656045
 30
0.0
 11
-0.744490107953526
 21
7.032816421327961
 31
0.0
  0
LINE
  5
2E7D
330
1E
100
AcDbEntity
  8
3
100
AcDbLine
 10
-0.6093195042789859
 20
2.805782300593056
 30
0.0
 11
-0.6408155672711118
 21
2.763787549936889
 31
0.0
  0
LINE
  5
2E7E
330
1E
100
AcDbEntity
  8
3
100
AcDbLine
 10
-0.6408155672711118
 20
2.763787549936889
 30
0.0
 11
-0.6709992943052328
 21
2.721792799280721
 31
0.0
  0
LINE
  5
2E7F
330
1E
100
AcDbEntity
  8
3
100
AcDbLine
 10
-0.6709992943052328
 20
2.721792799280721
 30
0.0
 11
-0.6985583494233421
 21
2.685047392456573
 31
0.0
  0
LINE
  5
2E80
330
1E
100
AcDbEntity
  8
3
100
AcDbLine
 10
-0.6985583494233421
 20
2.685047392456573
 30
0.0
 11
-0.7234927326254424
 21
2.650926657548437
 31
0.0
  0
LINE
  5
2E81
330
1E
100
AcDbEntity
  8
3
100
AcDbLine
 10
-0.7234927326254424
 20
2.650926657548437
 30
0.0
 11
-0.744490107953526
 21
2.623367602430327
 31
0.0
  0
LINE
  5
2E82
330
1E
100
AcDbEntity
  8
3
100
AcDbLine
 10
-0.744490107953526
 20
2.623367602430327
 30
0.0
 11
-0.760238139449589
 21
2.601057891144237
 31
0.0
  0
LINE
  5
2E83
330
1E
100
AcDbEntity
  8
3
100
AcDbLine
 10
-0.760238139449589
 20
2.601057891144237
 30
0.0
 11
-0.7694244911556263
 21
2.587934531564185
 31
0.0
  0
LINE
  5
2E84
330
1E
100
AcDbEntity
  8
3
100
AcDbLine
 10
-0.7694244911556263
 20
2.587934531564185
 30
0.0
 11
-0.774673834987647
 21
2.581372851774159
 31
0.0
  0
LINE
  5
2E85
330
1E
100
AcDbEntity
  8
3
100
AcDbLine
 10
1.848685745064844
 20
2.581372851774159
 30
0.0
 11
1.844748737190828
 21
2.587934531564185
 31
0.0
  0
LINE
  5
2E86
330
1E
100
AcDbEntity
  8
3
100
AcDbLine
 10
1.844748737190828
 20
2.587934531564185
 30
0.0
 11
1.834250049526786
 21
2.601057891144237
 31
0.0
  0
LINE
  5
2E87
330
1E
100
AcDbEntity
  8
3
100
AcDbLine
 10
1.834250049526786
 20
2.601057891144237
 30
0.0
 11
1.818502018030723
 21
2.623367602430327
 31
0.0
  0
LINE
  5
2E88
330
1E
100
AcDbEntity
  8
3
100
AcDbLine
 10
1.818502018030723
 20
2.623367602430327
 30
0.0
 11
1.797504642702639
 21
2.650926657548437
 31
0.0
  0
LINE
  5
2E89
330
1E
100
AcDbEntity
  8
3
100
AcDbLine
 10
1.797504642702639
 20
2.650926657548437
 30
0.0
 11
1.773882595458545
 21
2.685047392456573
 31
0.0
  0
LINE
  5
2E8A
330
1E
100
AcDbEntity
  8
3
100
AcDbLine
 10
1.773882595458545
 20
2.685047392456573
 30
0.0
 11
1.745011204382429
 21
2.721792799280721
 31
0.0
  0
LINE
  5
2E8B
330
1E
100
AcDbEntity
  8
3
100
AcDbLine
 10
1.745011204382429
 20
2.721792799280721
 30
0.0
 11
1.714827477348309
 21
2.763787549936889
 31
0.0
  0
LINE
  5
2E8C
330
1E
100
AcDbEntity
  8
3
100
AcDbLine
 10
1.714827477348309
 20
2.763787549936889
 30
0.0
 11
1.684643750314188
 21
2.805782300593056
 31
0.0
  0
LINE
  5
2E8D
330
1E
100
AcDbEntity
  8
3
100
AcDbLine
 10
1.767320915668519
 20
6.910769177233473
 30
0.0
 11
1.726638500970356
 21
6.880585450199352
 31
0.0
  0
LINE
  5
2E8E
330
1E
100
AcDbEntity
  8
3
100
AcDbLine
 10
1.726638500970356
 20
6.880585450199352
 30
0.0
 11
1.684643750314188
 21
6.850401723165231
 31
0.0
  0
LINE
  5
2E8F
330
1E
100
AcDbEntity
  8
3
100
AcDbLine
 10
1.909053199133086
 20
7.014443717915888
 30
0.0
 11
1.90249151934306
 21
7.010506710041871
 31
0.0
  0
LINE
  5
2E90
330
1E
100
AcDbEntity
  8
3
100
AcDbLine
 10
1.90249151934306
 20
7.010506710041871
 30
0.0
 11
1.888055823805002
 21
7.00000802237783
 31
0.0
  0
LINE
  5
2E91
330
1E
100
AcDbEntity
  8
3
100
AcDbLine
 10
1.888055823805002
 20
7.00000802237783
 30
0.0
 11
1.867058448476918
 21
6.984259990881767
 31
0.0
  0
LINE
  5
2E92
330
1E
100
AcDbEntity
  8
3
100
AcDbLine
 10
1.867058448476918
 20
6.984259990881767
 30
0.0
 11
1.839499393358807
 21
6.963262615553682
 31
0.0
  0
LINE
  5
2E93
330
1E
100
AcDbEntity
  8
3
100
AcDbLine
 10
1.839499393358807
 20
6.963262615553682
 30
0.0
 11
1.805378658450671
 21
6.938328232351583
 31
0.0
  0
LINE
  5
2E94
330
1E
100
AcDbEntity
  8
3
100
AcDbLine
 10
1.805378658450671
 20
6.938328232351583
 30
0.0
 11
1.767320915668519
 21
6.910769177233473
 31
0.0
  0
LINE
  5
2E95
330
1E
100
AcDbEntity
  8
3
100
AcDbLine
 10
1.767320915668519
 20
2.744102510566809
 30
0.0
 11
1.805378658450671
 21
2.7165434554487
 31
0.0
  0
LINE
  5
2E96
330
1E
100
AcDbEntity
  8
3
100
AcDbLine
 10
1.805378658450671
 20
2.7165434554487
 30
0.0
 11
1.839499393358807
 21
2.6916090722466
 31
0.0
  0
LINE
  5
2E97
330
1E
100
AcDbEntity
  8
3
100
AcDbLine
 10
1.839499393358807
 20
2.6916090722466
 30
0.0
 11
1.867058448476918
 21
2.671924032876521
 31
0.0
  0
LINE
  5
2E98
330
1E
100
AcDbEntity
  8
3
100
AcDbLine
 10
1.867058448476918
 20
2.671924032876521
 30
0.0
 11
1.888055823805002
 21
2.656176001380458
 31
0.0
  0
LINE
  5
2E99
330
1E
100
AcDbEntity
  8
3
100
AcDbLine
 10
1.888055823805002
 20
2.656176001380458
 30
0.0
 11
1.90249151934306
 21
2.645677313716416
 31
0.0
  0
LINE
  5
2E9A
330
1E
100
AcDbEntity
  8
3
100
AcDbLine
 10
1.90249151934306
 20
2.645677313716416
 30
0.0
 11
1.909053199133086
 21
2.640427969884395
 31
0.0
  0
LINE
  5
2E9B
330
1E
100
AcDbEntity
  8
3
100
AcDbLine
 10
1.684643750314188
 20
2.805782300593056
 30
0.0
 11
1.726638500970356
 21
2.77428623760093
 31
0.0
  0
LINE
  5
2E9C
330
1E
100
AcDbEntity
  8
3
100
AcDbLine
 10
1.726638500970356
 20
2.77428623760093
 30
0.0
 11
1.767320915668519
 21
2.744102510566809
 31
0.0
  0
LINE
  5
2E9D
330
1E
100
AcDbEntity
  8
3
100
AcDbLine
 10
1.85262275293886
 20
7.07743584390014
 30
0.0
 11
1.874932464224949
 21
7.073498836026123
 31
0.0
  0
LINE
  5
2E9E
330
1E
100
AcDbEntity
  8
3
100
AcDbLine
 10
1.874932464224949
 20
7.073498836026123
 30
0.0
 11
1.894617503595028
 21
7.060375476446072
 31
0.0
  0
LINE
  5
2E9F
330
1E
100
AcDbEntity
  8
3
100
AcDbLine
 10
1.894617503595028
 20
7.060375476446072
 30
0.0
 11
1.907740863175081
 21
7.040690437075992
 31
0.0
  0
LINE
  5
2EA0
330
1E
100
AcDbEntity
  8
3
100
AcDbLine
 10
1.907740863175081
 20
7.040690437075992
 30
0.0
 11
1.911677871049096
 21
7.018380725789904
 31
0.0
  0
LINE
  5
2EA1
330
1E
100
AcDbEntity
  8
3
100
AcDbLine
 10
-0.8376659609718988
 20
7.018380725789904
 30
0.0
 11
-0.833728953097883
 21
7.040690437075992
 31
0.0
  0
LINE
  5
2EA2
330
1E
100
AcDbEntity
  8
3
100
AcDbLine
 10
-0.833728953097883
 20
7.040690437075992
 30
0.0
 11
-0.8206055935178309
 21
7.060375476446072
 31
0.0
  0
LINE
  5
2EA3
330
1E
100
AcDbEntity
  8
3
100
AcDbLine
 10
-0.8206055935178309
 20
7.060375476446072
 30
0.0
 11
-0.8009205541477522
 21
7.073498836026123
 31
0.0
  0
LINE
  5
2EA4
330
1E
100
AcDbEntity
  8
3
100
AcDbLine
 10
-0.8009205541477522
 20
7.073498836026123
 30
0.0
 11
-0.7772985069036569
 21
7.07743584390014
 31
0.0
  0
LINE
  5
2EA5
330
1E
100
AcDbEntity
  8
3
100
AcDbLine
 10
-0.7772985069036569
 20
2.577435843900143
 30
0.0
 11
-0.8009205541477522
 21
2.582685187732164
 31
0.0
  0
LINE
  5
2EA6
330
1E
100
AcDbEntity
  8
3
100
AcDbLine
 10
-0.8009205541477522
 20
2.582685187732164
 30
0.0
 11
-0.8206055935178309
 21
2.595808547312217
 31
0.0
  0
LINE
  5
2EA7
330
1E
100
AcDbEntity
  8
3
100
AcDbLine
 10
-0.8206055935178309
 20
2.595808547312217
 30
0.0
 11
-0.833728953097883
 21
2.615493586682295
 31
0.0
  0
LINE
  5
2EA8
330
1E
100
AcDbEntity
  8
3
100
AcDbLine
 10
-0.833728953097883
 20
2.615493586682295
 30
0.0
 11
-0.8376659609718988
 21
2.637803297968384
 31
0.0
  0
LINE
  5
2EA9
330
1E
100
AcDbEntity
  8
3
100
AcDbLine
 10
1.911677871049096
 20
2.637803297968384
 30
0.0
 11
1.907740863175081
 21
2.615493586682295
 31
0.0
  0
LINE
  5
2EAA
330
1E
100
AcDbEntity
  8
3
100
AcDbLine
 10
1.907740863175081
 20
2.615493586682295
 30
0.0
 11
1.894617503595028
 21
2.595808547312217
 31
0.0
  0
LINE
  5
2EAB
330
1E
100
AcDbEntity
  8
3
100
AcDbLine
 10
1.894617503595028
 20
2.595808547312217
 30
0.0
 11
1.874932464224949
 21
2.582685187732164
 31
0.0
  0
LINE
  5
2EAC
330
1E
100
AcDbEntity
  8
3
100
AcDbLine
 10
1.874932464224949
 20
2.582685187732164
 30
0.0
 11
1.85262275293886
 21
2.577435843900143
 31
0.0
  0
LINE
  5
2EAD
330
1E
100
AcDbEntity
  8
3
100
AcDbLine
 10
1.848685745064844
 20
2.581372851774159
 30
0.0
 11
-0.774673834987647
 21
2.581372851774159
 31
0.0
  0
LINE
  5
2EAE
330
1E
100
AcDbEntity
  8
3
100
AcDbLine
 10
-0.774673834987647
 20
2.581372851774159
 30
0.0
 11
-0.7772985069036569
 21
2.577435843900143
 31
0.0
  0
LINE
  5
2EAF
330
1E
100
AcDbEntity
  8
3
100
AcDbLine
 10
-0.7772985069036569
 20
2.577435843900143
 30
0.0
 11
1.85262275293886
 21
2.577435843900143
 31
0.0
  0
LINE
  5
2EB0
330
1E
100
AcDbEntity
  8
3
100
AcDbLine
 10
1.85262275293886
 20
2.577435843900143
 30
0.0
 11
1.848685745064844
 21
2.581372851774159
 31
0.0
  0
LINE
  5
2EB1
330
1E
100
AcDbEntity
  8
3
100
AcDbLine
 10
1.909053199133086
 20
7.014443717915888
 30
0.0
 11
1.909053199133086
 21
2.640427969884395
 31
0.0
  0
LINE
  5
2EB2
330
1E
100
AcDbEntity
  8
3
100
AcDbLine
 10
1.909053199133086
 20
2.640427969884395
 30
0.0
 11
1.911677871049096
 21
2.637803297968384
 31
0.0
  0
LINE
  5
2EB3
330
1E
100
AcDbEntity
  8
3
100
AcDbLine
 10
1.911677871049096
 20
2.637803297968384
 30
0.0
 11
1.911677871049096
 21
7.018380725789904
 31
0.0
  0
LINE
  5
2EB4
330
1E
100
AcDbEntity
  8
3
100
AcDbLine
 10
1.911677871049096
 20
7.018380725789904
 30
0.0
 11
1.909053199133086
 21
7.014443717915888
 31
0.0
  0
LINE
  5
2EB5
330
1E
100
AcDbEntity
  8
3
100
AcDbLine
 10
1.85262275293886
 20
7.07743584390014
 30
0.0
 11
-0.7772985069036569
 21
7.07743584390014
 31
0.0
  0
LINE
  5
2EB6
330
1E
100
AcDbEntity
  8
3
100
AcDbLine
 10
-0.7772985069036569
 20
7.07743584390014
 30
0.0
 11
-0.774673834987647
 21
7.074811171984128
 31
0.0
  0
LINE
  5
2EB7
330
1E
100
AcDbEntity
  8
3
100
AcDbLine
 10
-0.774673834987647
 20
7.074811171984128
 30
0.0
 11
1.848685745064844
 21
7.074811171984128
 31
0.0
  0
LINE
  5
2EB8
330
1E
100
AcDbEntity
  8
3
100
AcDbLine
 10
1.848685745064844
 20
7.074811171984128
 30
0.0
 11
1.85262275293886
 21
7.07743584390014
 31
0.0
  0
LINE
  5
2EB9
330
1E
100
AcDbEntity
  8
3
100
AcDbLine
 10
-0.835041289055888
 20
2.640427969884395
 30
0.0
 11
-0.835041289055888
 21
7.014443717915888
 31
0.0
  0
LINE
  5
2EBA
330
1E
100
AcDbEntity
  8
3
100
AcDbLine
 10
-0.835041289055888
 20
7.014443717915888
 30
0.0
 11
-0.8376659609718988
 21
7.018380725789904
 31
0.0
  0
LINE
  5
2EBB
330
1E
100
AcDbEntity
  8
3
100
AcDbLine
 10
-0.8376659609718988
 20
7.018380725789904
 30
0.0
 11
-0.8376659609718988
 21
2.637803297968384
 31
0.0
  0
LINE
  5
2EBC
330
1E
100
AcDbEntity
  8
3
100
AcDbLine
 10
-0.8376659609718988
 20
2.637803297968384
 30
0.0
 11
-0.835041289055888
 21
2.640427969884395
 31
0.0
  0
LINE
  5
2EBD
330
1E
100
AcDbEntity
  8
3
100
AcDbLine
 10
1.281756611206577
 20
4.450139255973633
 30
0.0
 11
0.7017041177682577
 21
4.450139255973633
 31
0.0
  0
LINE
  5
2EBE
330
1E
100
AcDbEntity
  8
3
100
AcDbLine
 10
0.7017041177682577
 20
4.450139255973633
 30
0.0
 11
0.7017041177682577
 21
5.095808547312214
 31
0.0
  0
LINE
  5
2EBF
330
1E
100
AcDbEntity
  8
3
100
AcDbLine
 10
1.281756611206577
 20
3.555126132614053
 30
0.0
 11
0.7017041177682577
 21
3.555126132614053
 31
0.0
  0
LINE
  5
2EC0
330
1E
100
AcDbEntity
  8
3
100
AcDbLine
 10
0.7017041177682577
 20
3.555126132614053
 30
0.0
 11
0.7017041177682577
 21
4.200795423952635
 31
0.0
  0
LINE
  5
2EC1
330
1E
100
AcDbEntity
  8
3
100
AcDbLine
 10
1.281756611206577
 20
5.345152379333211
 30
0.0
 11
0.7017041177682577
 21
5.345152379333211
 31
0.0
  0
LINE
  5
2EC2
330
1E
100
AcDbEntity
  8
3
100
AcDbLine
 10
0.7017041177682577
 20
5.345152379333211
 30
0.0
 11
0.7017041177682577
 21
5.990821670671794
 31
0.0
  0
LINE
  5
2EC3
330
1E
100
AcDbEntity
  8
3
100
AcDbLine
 10
0.3723077923089404
 20
5.345152379333211
 30
0.0
 11
-0.2077447011293794
 21
5.345152379333211
 31
0.0
  0
LINE
  5
2EC4
330
1E
100
AcDbEntity
  8
3
100
AcDbLine
 10
-0.2077447011293794
 20
5.345152379333211
 30
0.0
 11
-0.2077447011293794
 21
5.990821670671794
 31
0.0
  0
LINE
  5
2EC5
330
1E
100
AcDbEntity
  8
3
100
AcDbLine
 10
0.3723077923089404
 20
4.450139255973633
 30
0.0
 11
-0.2077447011293794
 21
4.450139255973633
 31
0.0
  0
LINE
  5
2EC6
330
1E
100
AcDbEntity
  8
3
100
AcDbLine
 10
-0.2077447011293794
 20
4.450139255973633
 30
0.0
 11
-0.2077447011293794
 21
5.095808547312214
 31
0.0
  0
LINE
  5
2EC7
330
1E
100
AcDbEntity
  8
3
100
AcDbLine
 10
1.474669997033348
 20
3.362212746787282
 30
0.0
 11
1.470732989159333
 21
3.377960778283345
 31
0.0
  0
LINE
  5
2EC8
330
1E
100
AcDbEntity
  8
3
100
AcDbLine
 10
1.470732989159333
 20
3.377960778283345
 30
0.0
 11
1.458921965537285
 21
3.389771801905392
 31
0.0
  0
LINE
  5
2EC9
330
1E
100
AcDbEntity
  8
3
100
AcDbLine
 10
1.458921965537285
 20
3.389771801905392
 30
0.0
 11
1.443173934041222
 21
3.393708809779408
 31
0.0
  0
LINE
  5
2ECA
330
1E
100
AcDbEntity
  8
3
100
AcDbLine
 10
-0.3691620239640247
 20
3.393708809779408
 30
0.0
 11
-0.3849100554600877
 21
3.389771801905392
 31
0.0
  0
LINE
  5
2ECB
330
1E
100
AcDbEntity
  8
3
100
AcDbLine
 10
-0.3849100554600877
 20
3.389771801905392
 30
0.0
 11
-0.39540874312413
 21
3.377960778283345
 31
0.0
  0
LINE
  5
2ECC
330
1E
100
AcDbEntity
  8
3
100
AcDbLine
 10
-0.4006580869561507
 20
3.013131381957886
 30
0.0
 11
-0.39540874312413
 21
2.997383350461823
 31
0.0
  0
LINE
  5
2ECD
330
1E
100
AcDbEntity
  8
3
100
AcDbLine
 10
-0.39540874312413
 20
2.997383350461823
 30
0.0
 11
-0.3849100554600877
 21
2.985572326839776
 31
0.0
  0
LINE
  5
2ECE
330
1E
100
AcDbEntity
  8
3
100
AcDbLine
 10
-0.3849100554600877
 20
2.985572326839776
 30
0.0
 11
-0.3691620239640247
 21
2.98163531896576
 31
0.0
  0
LINE
  5
2ECF
330
1E
100
AcDbEntity
  8
3
100
AcDbLine
 10
1.443173934041222
 20
2.98163531896576
 30
0.0
 11
1.458921965537285
 21
2.985572326839776
 31
0.0
  0
LINE
  5
2ED0
330
1E
100
AcDbEntity
  8
3
100
AcDbLine
 10
1.458921965537285
 20
2.985572326839776
 30
0.0
 11
1.470732989159333
 21
2.997383350461823
 31
0.0
  0
LINE
  5
2ED1
330
1E
100
AcDbEntity
  8
3
100
AcDbLine
 10
1.470732989159333
 20
2.997383350461823
 30
0.0
 11
1.474669997033348
 21
3.013131381957886
 31
0.0
  0
LINE
  5
2ED2
330
1E
100
AcDbEntity
  8
3
100
AcDbLine
 10
-0.39540874312413
 20
6.278223245474944
 30
0.0
 11
-0.4006580869561507
 21
6.293971276971007
 31
0.0
  0
LINE
  5
2ED3
330
1E
100
AcDbEntity
  8
3
100
AcDbLine
 10
-0.4006580869561507
 20
6.293971276971007
 30
0.0
 11
-0.4006580869561507
 21
6.643052641800403
 31
0.0
  0
LINE
  5
2ED4
330
1E
100
AcDbEntity
  8
3
100
AcDbLine
 10
-0.4006580869561507
 20
6.643052641800403
 30
0.0
 11
-0.39540874312413
 21
6.658800673296465
 31
0.0
  0
LINE
  5
2ED5
330
1E
100
AcDbEntity
  8
3
100
AcDbLine
 10
-0.39540874312413
 20
6.658800673296465
 30
0.0
 11
-0.3849100554600877
 21
6.670611696918513
 31
0.0
  0
LINE
  5
2ED6
330
1E
100
AcDbEntity
  8
3
100
AcDbLine
 10
-0.3849100554600877
 20
6.670611696918513
 30
0.0
 11
-0.3691620239640247
 21
6.674548704792528
 31
0.0
  0
LINE
  5
2ED7
330
1E
100
AcDbEntity
  8
3
100
AcDbLine
 10
-0.3691620239640247
 20
6.674548704792528
 30
0.0
 11
1.443173934041222
 21
6.674548704792528
 31
0.0
  0
LINE
  5
2ED8
330
1E
100
AcDbEntity
  8
3
100
AcDbLine
 10
1.443173934041222
 20
6.674548704792528
 30
0.0
 11
1.458921965537285
 21
6.670611696918513
 31
0.0
  0
LINE
  5
2ED9
330
1E
100
AcDbEntity
  8
3
100
AcDbLine
 10
1.458921965537285
 20
6.670611696918513
 30
0.0
 11
1.470732989159333
 21
6.658800673296465
 31
0.0
  0
LINE
  5
2EDA
330
1E
100
AcDbEntity
  8
3
100
AcDbLine
 10
1.470732989159333
 20
6.658800673296465
 30
0.0
 11
1.474669997033348
 21
6.643052641800403
 31
0.0
  0
LINE
  5
2EDB
330
1E
100
AcDbEntity
  8
3
100
AcDbLine
 10
1.474669997033348
 20
6.643052641800403
 30
0.0
 11
1.474669997033348
 21
6.293971276971007
 31
0.0
  0
LINE
  5
2EDC
330
1E
100
AcDbEntity
  8
3
100
AcDbLine
 10
1.474669997033348
 20
6.293971276971007
 30
0.0
 11
1.470732989159333
 21
6.278223245474944
 31
0.0
  0
LINE
  5
2EDD
330
1E
100
AcDbEntity
  8
3
100
AcDbLine
 10
1.470732989159333
 20
6.278223245474944
 30
0.0
 11
1.458921965537285
 21
6.266412221852895
 31
0.0
  0
LINE
  5
2EDE
330
1E
100
AcDbEntity
  8
3
100
AcDbLine
 10
1.458921965537285
 20
6.266412221852895
 30
0.0
 11
1.443173934041222
 21
6.262475213978881
 31
0.0
  0
LINE
  5
2EDF
330
1E
100
AcDbEntity
  8
3
100
AcDbLine
 10
1.443173934041222
 20
6.262475213978881
 30
0.0
 11
-0.3691620239640247
 21
6.262475213978881
 31
0.0
  0
LINE
  5
2EE0
330
1E
100
AcDbEntity
  8
3
100
AcDbLine
 10
-0.3691620239640247
 20
6.262475213978881
 30
0.0
 11
-0.3849100554600877
 21
6.266412221852895
 31
0.0
  0
LINE
  5
2EE1
330
1E
100
AcDbEntity
  8
3
100
AcDbLine
 10
-0.3849100554600877
 20
6.266412221852895
 30
0.0
 11
-0.39540874312413
 21
6.278223245474944
 31
0.0
  0
LINE
  5
2EE2
330
1E
100
AcDbEntity
  8
3
100
AcDbLine
 10
1.684643750314188
 20
6.850401723165231
 30
0.0
 11
-0.6093195042789859
 21
6.850401723165231
 31
0.0
  0
LINE
  5
2EE3
330
1E
100
AcDbEntity
  8
3
100
AcDbLine
 10
-0.6093195042789859
 20
6.850401723165231
 30
0.0
 11
-0.6093195042789859
 21
2.805782300593056
 31
0.0
  0
LINE
  5
2EE4
330
1E
100
AcDbEntity
  8
3
100
AcDbLine
 10
-0.6093195042789859
 20
2.805782300593056
 30
0.0
 11
1.684643750314188
 21
2.805782300593056
 31
0.0
  0
LINE
  5
2EE5
330
1E
100
AcDbEntity
  8
3
100
AcDbLine
 10
1.684643750314188
 20
2.805782300593056
 30
0.0
 11
1.684643750314188
 21
6.850401723165231
 31
0.0
  0
ENDSEC
  0
SECTION
  2
OBJECTS
  0
DICTIONARY
  5
C
330
0
100
AcDbDictionary
  3
ACAD_GROUP
350
D
  3
ACAD_LAYOUT
350
19
  3
ACAD_MLINESTYLE
350
16
  3
ACAD_PLOTSETTINGS
350
18
1001
ACAD
1000
TREAT_AS_HARD
1070
     0
  0
DICTIONARY
  5
411D
330
1E
100
AcDbDictionary
  3
ACAD_LAYOUTSELFREF
350
4157
1001
ACAD
1000
TREAT_AS_HARD
1070
     1
  0
DICTIONARY
  5
411F
330
1A
100
AcDbDictionary
  3
ACAD_LAYOUTSELFREF
350
4156
1001
ACAD
1000
TREAT_AS_HARD
1070
     1
  0
DICTIONARY
  5
D
102
{ACAD_REACTORS
330
C
102
}
330
C
100
AcDbDictionary
1001
ACAD
1000
TREAT_AS_HARD
1070
     0
  0
DICTIONARY
  5
19
102
{ACAD_REACTORS
330
C
102
}
330
C
100
AcDbDictionary
1001
ACAD
1000
TREAT_AS_HARD
1070
     0
  0
DICTIONARY
  5
16
102
{ACAD_REACTORS
330
C
102
}
330
C
100
AcDbDictionary
  3
STANDARD
350
17
1001
ACAD
1000
TREAT_AS_HARD
1070
     0
  0
DICTIONARY
  5
18
102
{ACAD_REACTORS
330
C
102
}
330
C
100
AcDbDictionary
1001
ACAD
1000
TREAT_AS_HARD
1070
     0
  0
XRECORD
  5
4157
102
{ACAD_REACTORS
330
411D
102
}
330
411D
100
AcDbXrecord
340
1E
  0
XRECORD
  5
4156
102
{ACAD_REACTORS
330
411F
102
}
330
411F
100
AcDbXrecord
340
1A
  0
MLINESTYLE
  5
17
102
{ACAD_REACTORS
330
16
102
}
330
16
100
AcDbMlineStyle
  2
STANDARD
 70
     0
  3

 62
   256
 51
90.0
 52
90.0
 71
     2
 49
0.5
 62
   256
  6
BYLAYER
 49
-0.5
 62
   256
  6
BYLAYER
  0
ENDSEC
  0
EOF
