ISO-10303-21;
HEADER;
/* Generated by software containing ST-Developer
 * from STEP Tools, Inc. (www.steptools.com) 
 */
/* OPTION: using custom schema-name function */

FILE_DESCRIPTION(
/* description */ (''),
/* implementation_level */ '2;1');

FILE_NAME(
/* name */ 'NC1.stp',
/* time_stamp */ '2021-08-02T14:37:04-05:00',
/* author */ (''),
/* organization */ (''),
/* preprocessor_version */ 'ST-DEVELOPER v16.7',
/* originating_system */ 'SIEMENS PLM Software NX 1926',
/* authorisation */ '');

FILE_SCHEMA (('AP203_CONFIGURATION_CONTROLLED_3D_DESIGN_OF_MECHANICAL_PARTS_AND_ASSEMBLIES_MIM_LF { 1 0 10303 403 2 1 2}'));
ENDSEC;

DATA;
#10=PROPERTY_DEFINITION_REPRESENTATION(#14,#12);
#11=PROPERTY_DEFINITION_REPRESENTATION(#15,#13);
#12=REPRESENTATION('',(#16),#579);
#13=REPRESENTATION('',(#17),#579);
#14=PROPERTY_DEFINITION('pmi validation property','',#73);
#15=PROPERTY_DEFINITION('pmi validation property','',#73);
#16=VALUE_REPRESENTATION_ITEM('number of annotations',COUNT_MEASURE(0.));
#17=VALUE_REPRESENTATION_ITEM('number of views',COUNT_MEASURE(0.));
#18=SHAPE_REPRESENTATION_RELATIONSHIP('None',
'relationship between bdk2D04BFAF7v00-None and bdk2D04BFAF7v00-None',#84,
#19);
#19=ADVANCED_BREP_SHAPE_REPRESENTATION('bdk2D04BFAF7v00-None',(#94),#579);
#20=APPLIED_APPROVAL_ASSIGNMENT(#32,(#74));
#21=APPLIED_APPROVAL_ASSIGNMENT(#33,(#76));
#22=APPLIED_APPROVAL_ASSIGNMENT(#34,(#46));
#23=APPROVAL_PERSON_ORGANIZATION(#38,#32,#26);
#24=APPROVAL_PERSON_ORGANIZATION(#39,#33,#27);
#25=APPROVAL_PERSON_ORGANIZATION(#40,#34,#28);
#26=APPROVAL_ROLE('approver');
#27=APPROVAL_ROLE('approver');
#28=APPROVAL_ROLE('approver');
#29=APPROVAL_DATE_TIME(#54,#32);
#30=APPROVAL_DATE_TIME(#55,#33);
#31=APPROVAL_DATE_TIME(#56,#34);
#32=APPROVAL(#35,' ');
#33=APPROVAL(#36,' ');
#34=APPROVAL(#37,' ');
#35=APPROVAL_STATUS('not_yet_approved');
#36=APPROVAL_STATUS('not_yet_approved');
#37=APPROVAL_STATUS('not_yet_approved');
#38=PERSON_AND_ORGANIZATION(#44,#41);
#39=PERSON_AND_ORGANIZATION(#44,#42);
#40=PERSON_AND_ORGANIZATION(#44,#43);
#41=ORGANIZATION(' ',' ',' ');
#42=ORGANIZATION(' ',' ',' ');
#43=ORGANIZATION(' ',' ',' ');
#44=PERSON(' ',' ',' ',(' '),$,$);
#45=APPLIED_SECURITY_CLASSIFICATION_ASSIGNMENT(#46,(#76));
#46=SECURITY_CLASSIFICATION(' ',' ',#47);
#47=SECURITY_CLASSIFICATION_LEVEL('confidential');
#48=APPLIED_DATE_AND_TIME_ASSIGNMENT(#52,#50,(#74));
#49=APPLIED_DATE_AND_TIME_ASSIGNMENT(#53,#51,(#46));
#50=DATE_TIME_ROLE('creation_date');
#51=DATE_TIME_ROLE('classification_date');
#52=DATE_AND_TIME(#67,#57);
#53=DATE_AND_TIME(#68,#58);
#54=DATE_AND_TIME(#69,#59);
#55=DATE_AND_TIME(#70,#60);
#56=DATE_AND_TIME(#71,#61);
#57=LOCAL_TIME(0,0,0.,#62);
#58=LOCAL_TIME(0,0,0.,#63);
#59=LOCAL_TIME(0,0,0.,#64);
#60=LOCAL_TIME(0,0,0.,#65);
#61=LOCAL_TIME(0,0,0.,#66);
#62=COORDINATED_UNIVERSAL_TIME_OFFSET(0,0,.BEHIND.);
#63=COORDINATED_UNIVERSAL_TIME_OFFSET(0,0,.BEHIND.);
#64=COORDINATED_UNIVERSAL_TIME_OFFSET(0,0,.BEHIND.);
#65=COORDINATED_UNIVERSAL_TIME_OFFSET(0,0,.BEHIND.);
#66=COORDINATED_UNIVERSAL_TIME_OFFSET(0,0,.BEHIND.);
#67=CALENDAR_DATE(0,1,1);
#68=CALENDAR_DATE(0,1,1);
#69=CALENDAR_DATE(0,1,1);
#70=CALENDAR_DATE(0,1,1);
#71=CALENDAR_DATE(0,1,1);
#72=SHAPE_DEFINITION_REPRESENTATION(#73,#84);
#73=PRODUCT_DEFINITION_SHAPE('','',#74);
#74=PRODUCT_DEFINITION(' ','',#76,#75);
#75=PRODUCT_DEFINITION_CONTEXT('part definition',#83,'design');
#76=PRODUCT_DEFINITION_FORMATION_WITH_SPECIFIED_SOURCE(' ',' ',#78,
 .NOT_KNOWN.);
#77=PRODUCT_RELATED_PRODUCT_CATEGORY('detail','',(#78));
#78=PRODUCT('bdk2D04BFAF7v00','bdk2D04BFAF7v00',' ',(#81));
#79=PRODUCT_CATEGORY('part',' ');
#80=PRODUCT_CATEGORY(' ','');
#81=PRODUCT_CONTEXT(' ',#83,'mechanical');
#82=APPLICATION_PROTOCOL_DEFINITION('international standard',
'config_control_design',2010,#83);
#83=APPLICATION_CONTEXT(
'configuration controlled 3D designs of mechanical parts and assemblie
s');
#84=SHAPE_REPRESENTATION('bdk2D04BFAF7v00-None',(#398),#579);
#85=PRESENTATION_LAYER_ASSIGNMENT('1','Layer 1',(#94));
#86=STYLED_ITEM('',(#87),#94);
#87=PRESENTATION_STYLE_ASSIGNMENT((#88));
#88=SURFACE_STYLE_USAGE(.BOTH.,#89);
#89=SURFACE_SIDE_STYLE('',(#90));
#90=SURFACE_STYLE_FILL_AREA(#91);
#91=FILL_AREA_STYLE('',(#92));
#92=FILL_AREA_STYLE_COLOUR('',#93);
#93=DRAUGHTING_PRE_DEFINED_COLOUR('green');
#94=MANIFOLD_SOLID_BREP('',#95);
#95=CLOSED_SHELL('',(#96,#97,#98,#99,#100,#101,#102,#103,#104,#105,#106,
#107,#108,#109,#110,#111));
#96=ADVANCED_FACE('',(#128),#112,.F.);
#97=ADVANCED_FACE('',(#129),#113,.F.);
#98=ADVANCED_FACE('',(#130),#114,.T.);
#99=ADVANCED_FACE('',(#131),#115,.T.);
#100=ADVANCED_FACE('',(#132),#116,.T.);
#101=ADVANCED_FACE('',(#133),#117,.F.);
#102=ADVANCED_FACE('',(#134),#118,.F.);
#103=ADVANCED_FACE('',(#135),#119,.T.);
#104=ADVANCED_FACE('',(#136),#120,.T.);
#105=ADVANCED_FACE('',(#137),#121,.F.);
#106=ADVANCED_FACE('',(#138),#122,.T.);
#107=ADVANCED_FACE('',(#139),#123,.F.);
#108=ADVANCED_FACE('',(#140),#124,.F.);
#109=ADVANCED_FACE('',(#141),#125,.T.);
#110=ADVANCED_FACE('',(#142),#126,.F.);
#111=ADVANCED_FACE('',(#143),#127,.T.);
#112=PLANE('',#399);
#113=PLANE('',#400);
#114=PLANE('',#401);
#115=PLANE('',#402);
#116=PLANE('',#403);
#117=PLANE('',#404);
#118=PLANE('',#405);
#119=PLANE('',#406);
#120=PLANE('',#407);
#121=PLANE('',#408);
#122=PLANE('',#409);
#123=PLANE('',#410);
#124=PLANE('',#411);
#125=PLANE('',#412);
#126=PLANE('',#413);
#127=PLANE('',#414);
#128=FACE_OUTER_BOUND('',#144,.T.);
#129=FACE_OUTER_BOUND('',#145,.T.);
#130=FACE_OUTER_BOUND('',#146,.T.);
#131=FACE_OUTER_BOUND('',#147,.T.);
#132=FACE_OUTER_BOUND('',#148,.T.);
#133=FACE_OUTER_BOUND('',#149,.T.);
#134=FACE_OUTER_BOUND('',#150,.T.);
#135=FACE_OUTER_BOUND('',#151,.T.);
#136=FACE_OUTER_BOUND('',#152,.T.);
#137=FACE_OUTER_BOUND('',#153,.T.);
#138=FACE_OUTER_BOUND('',#154,.T.);
#139=FACE_OUTER_BOUND('',#155,.T.);
#140=FACE_OUTER_BOUND('',#156,.T.);
#141=FACE_OUTER_BOUND('',#157,.T.);
#142=FACE_OUTER_BOUND('',#158,.T.);
#143=FACE_OUTER_BOUND('',#159,.T.);
#144=EDGE_LOOP('',(#160,#161,#162,#163));
#145=EDGE_LOOP('',(#164,#165,#166,#167));
#146=EDGE_LOOP('',(#168,#169,#170,#171));
#147=EDGE_LOOP('',(#172,#173,#174,#175));
#148=EDGE_LOOP('',(#176,#177,#178,#179));
#149=EDGE_LOOP('',(#180,#181,#182,#183));
#150=EDGE_LOOP('',(#184,#185,#186,#187));
#151=EDGE_LOOP('',(#188,#189,#190,#191));
#152=EDGE_LOOP('',(#192,#193,#194,#195));
#153=EDGE_LOOP('',(#196,#197,#198,#199));
#154=EDGE_LOOP('',(#200,#201,#202,#203));
#155=EDGE_LOOP('',(#204,#205,#206,#207));
#156=EDGE_LOOP('',(#208,#209,#210,#211));
#157=EDGE_LOOP('',(#212,#213,#214,#215));
#158=EDGE_LOOP('',(#216,#217,#218,#219,#220,#221,#222,#223,#224,#225,#226,
#227,#228,#229));
#159=EDGE_LOOP('',(#230,#231,#232,#233,#234,#235,#236,#237,#238,#239,#240,
#241,#242,#243));
#160=ORIENTED_EDGE('',*,*,#272,.T.);
#161=ORIENTED_EDGE('',*,*,#273,.F.);
#162=ORIENTED_EDGE('',*,*,#274,.F.);
#163=ORIENTED_EDGE('',*,*,#275,.T.);
#164=ORIENTED_EDGE('',*,*,#276,.T.);
#165=ORIENTED_EDGE('',*,*,#277,.F.);
#166=ORIENTED_EDGE('',*,*,#278,.F.);
#167=ORIENTED_EDGE('',*,*,#273,.T.);
#168=ORIENTED_EDGE('',*,*,#279,.F.);
#169=ORIENTED_EDGE('',*,*,#280,.F.);
#170=ORIENTED_EDGE('',*,*,#281,.T.);
#171=ORIENTED_EDGE('',*,*,#277,.T.);
#172=ORIENTED_EDGE('',*,*,#282,.F.);
#173=ORIENTED_EDGE('',*,*,#283,.F.);
#174=ORIENTED_EDGE('',*,*,#284,.T.);
#175=ORIENTED_EDGE('',*,*,#280,.T.);
#176=ORIENTED_EDGE('',*,*,#285,.F.);
#177=ORIENTED_EDGE('',*,*,#286,.F.);
#178=ORIENTED_EDGE('',*,*,#287,.T.);
#179=ORIENTED_EDGE('',*,*,#283,.T.);
#180=ORIENTED_EDGE('',*,*,#288,.T.);
#181=ORIENTED_EDGE('',*,*,#289,.F.);
#182=ORIENTED_EDGE('',*,*,#290,.F.);
#183=ORIENTED_EDGE('',*,*,#286,.T.);
#184=ORIENTED_EDGE('',*,*,#291,.T.);
#185=ORIENTED_EDGE('',*,*,#292,.F.);
#186=ORIENTED_EDGE('',*,*,#293,.F.);
#187=ORIENTED_EDGE('',*,*,#289,.T.);
#188=ORIENTED_EDGE('',*,*,#294,.F.);
#189=ORIENTED_EDGE('',*,*,#295,.F.);
#190=ORIENTED_EDGE('',*,*,#296,.T.);
#191=ORIENTED_EDGE('',*,*,#292,.T.);
#192=ORIENTED_EDGE('',*,*,#297,.F.);
#193=ORIENTED_EDGE('',*,*,#298,.F.);
#194=ORIENTED_EDGE('',*,*,#299,.T.);
#195=ORIENTED_EDGE('',*,*,#295,.T.);
#196=ORIENTED_EDGE('',*,*,#300,.T.);
#197=ORIENTED_EDGE('',*,*,#301,.F.);
#198=ORIENTED_EDGE('',*,*,#302,.F.);
#199=ORIENTED_EDGE('',*,*,#298,.T.);
#200=ORIENTED_EDGE('',*,*,#303,.F.);
#201=ORIENTED_EDGE('',*,*,#304,.F.);
#202=ORIENTED_EDGE('',*,*,#305,.T.);
#203=ORIENTED_EDGE('',*,*,#301,.T.);
#204=ORIENTED_EDGE('',*,*,#306,.T.);
#205=ORIENTED_EDGE('',*,*,#307,.F.);
#206=ORIENTED_EDGE('',*,*,#308,.F.);
#207=ORIENTED_EDGE('',*,*,#304,.T.);
#208=ORIENTED_EDGE('',*,*,#309,.T.);
#209=ORIENTED_EDGE('',*,*,#310,.F.);
#210=ORIENTED_EDGE('',*,*,#311,.F.);
#211=ORIENTED_EDGE('',*,*,#307,.T.);
#212=ORIENTED_EDGE('',*,*,#312,.F.);
#213=ORIENTED_EDGE('',*,*,#275,.F.);
#214=ORIENTED_EDGE('',*,*,#313,.T.);
#215=ORIENTED_EDGE('',*,*,#310,.T.);
#216=ORIENTED_EDGE('',*,*,#274,.T.);
#217=ORIENTED_EDGE('',*,*,#278,.T.);
#218=ORIENTED_EDGE('',*,*,#281,.F.);
#219=ORIENTED_EDGE('',*,*,#284,.F.);
#220=ORIENTED_EDGE('',*,*,#287,.F.);
#221=ORIENTED_EDGE('',*,*,#290,.T.);
#222=ORIENTED_EDGE('',*,*,#293,.T.);
#223=ORIENTED_EDGE('',*,*,#296,.F.);
#224=ORIENTED_EDGE('',*,*,#299,.F.);
#225=ORIENTED_EDGE('',*,*,#302,.T.);
#226=ORIENTED_EDGE('',*,*,#305,.F.);
#227=ORIENTED_EDGE('',*,*,#308,.T.);
#228=ORIENTED_EDGE('',*,*,#311,.T.);
#229=ORIENTED_EDGE('',*,*,#313,.F.);
#230=ORIENTED_EDGE('',*,*,#272,.F.);
#231=ORIENTED_EDGE('',*,*,#312,.T.);
#232=ORIENTED_EDGE('',*,*,#309,.F.);
#233=ORIENTED_EDGE('',*,*,#306,.F.);
#234=ORIENTED_EDGE('',*,*,#303,.T.);
#235=ORIENTED_EDGE('',*,*,#300,.F.);
#236=ORIENTED_EDGE('',*,*,#297,.T.);
#237=ORIENTED_EDGE('',*,*,#294,.T.);
#238=ORIENTED_EDGE('',*,*,#291,.F.);
#239=ORIENTED_EDGE('',*,*,#288,.F.);
#240=ORIENTED_EDGE('',*,*,#285,.T.);
#241=ORIENTED_EDGE('',*,*,#282,.T.);
#242=ORIENTED_EDGE('',*,*,#279,.T.);
#243=ORIENTED_EDGE('',*,*,#276,.F.);
#244=VERTEX_POINT('',#493);
#245=VERTEX_POINT('',#494);
#246=VERTEX_POINT('',#496);
#247=VERTEX_POINT('',#498);
#248=VERTEX_POINT('',#502);
#249=VERTEX_POINT('',#504);
#250=VERTEX_POINT('',#508);
#251=VERTEX_POINT('',#510);
#252=VERTEX_POINT('',#514);
#253=VERTEX_POINT('',#516);
#254=VERTEX_POINT('',#520);
#255=VERTEX_POINT('',#522);
#256=VERTEX_POINT('',#526);
#257=VERTEX_POINT('',#528);
#258=VERTEX_POINT('',#532);
#259=VERTEX_POINT('',#534);
#260=VERTEX_POINT('',#538);
#261=VERTEX_POINT('',#540);
#262=VERTEX_POINT('',#544);
#263=VERTEX_POINT('',#546);
#264=VERTEX_POINT('',#550);
#265=VERTEX_POINT('',#552);
#266=VERTEX_POINT('',#556);
#267=VERTEX_POINT('',#558);
#268=VERTEX_POINT('',#562);
#269=VERTEX_POINT('',#564);
#270=VERTEX_POINT('',#568);
#271=VERTEX_POINT('',#570);
#272=EDGE_CURVE('',#244,#245,#314,.T.);
#273=EDGE_CURVE('',#246,#245,#315,.T.);
#274=EDGE_CURVE('',#247,#246,#316,.T.);
#275=EDGE_CURVE('',#247,#244,#317,.T.);
#276=EDGE_CURVE('',#245,#248,#318,.T.);
#277=EDGE_CURVE('',#249,#248,#319,.T.);
#278=EDGE_CURVE('',#246,#249,#320,.T.);
#279=EDGE_CURVE('',#250,#248,#321,.T.);
#280=EDGE_CURVE('',#251,#250,#322,.T.);
#281=EDGE_CURVE('',#251,#249,#323,.T.);
#282=EDGE_CURVE('',#252,#250,#324,.T.);
#283=EDGE_CURVE('',#253,#252,#325,.T.);
#284=EDGE_CURVE('',#253,#251,#326,.T.);
#285=EDGE_CURVE('',#254,#252,#327,.T.);
#286=EDGE_CURVE('',#255,#254,#328,.T.);
#287=EDGE_CURVE('',#255,#253,#329,.T.);
#288=EDGE_CURVE('',#254,#256,#330,.T.);
#289=EDGE_CURVE('',#257,#256,#331,.T.);
#290=EDGE_CURVE('',#255,#257,#332,.T.);
#291=EDGE_CURVE('',#256,#258,#333,.T.);
#292=EDGE_CURVE('',#259,#258,#334,.T.);
#293=EDGE_CURVE('',#257,#259,#335,.T.);
#294=EDGE_CURVE('',#260,#258,#336,.T.);
#295=EDGE_CURVE('',#261,#260,#337,.T.);
#296=EDGE_CURVE('',#261,#259,#338,.T.);
#297=EDGE_CURVE('',#262,#260,#339,.T.);
#298=EDGE_CURVE('',#263,#262,#340,.T.);
#299=EDGE_CURVE('',#263,#261,#341,.T.);
#300=EDGE_CURVE('',#262,#264,#342,.T.);
#301=EDGE_CURVE('',#265,#264,#343,.T.);
#302=EDGE_CURVE('',#263,#265,#344,.T.);
#303=EDGE_CURVE('',#266,#264,#345,.T.);
#304=EDGE_CURVE('',#267,#266,#346,.T.);
#305=EDGE_CURVE('',#267,#265,#347,.T.);
#306=EDGE_CURVE('',#266,#268,#348,.T.);
#307=EDGE_CURVE('',#269,#268,#349,.T.);
#308=EDGE_CURVE('',#267,#269,#350,.T.);
#309=EDGE_CURVE('',#268,#270,#351,.T.);
#310=EDGE_CURVE('',#271,#270,#352,.T.);
#311=EDGE_CURVE('',#269,#271,#353,.T.);
#312=EDGE_CURVE('',#244,#270,#354,.T.);
#313=EDGE_CURVE('',#247,#271,#355,.T.);
#314=LINE('',#492,#356);
#315=LINE('',#495,#357);
#316=LINE('',#497,#358);
#317=LINE('',#499,#359);
#318=LINE('',#501,#360);
#319=LINE('',#503,#361);
#320=LINE('',#505,#362);
#321=LINE('',#507,#363);
#322=LINE('',#509,#364);
#323=LINE('',#511,#365);
#324=LINE('',#513,#366);
#325=LINE('',#515,#367);
#326=LINE('',#517,#368);
#327=LINE('',#519,#369);
#328=LINE('',#521,#370);
#329=LINE('',#523,#371);
#330=LINE('',#525,#372);
#331=LINE('',#527,#373);
#332=LINE('',#529,#374);
#333=LINE('',#531,#375);
#334=LINE('',#533,#376);
#335=LINE('',#535,#377);
#336=LINE('',#537,#378);
#337=LINE('',#539,#379);
#338=LINE('',#541,#380);
#339=LINE('',#543,#381);
#340=LINE('',#545,#382);
#341=LINE('',#547,#383);
#342=LINE('',#549,#384);
#343=LINE('',#551,#385);
#344=LINE('',#553,#386);
#345=LINE('',#555,#387);
#346=LINE('',#557,#388);
#347=LINE('',#559,#389);
#348=LINE('',#561,#390);
#349=LINE('',#563,#391);
#350=LINE('',#565,#392);
#351=LINE('',#567,#393);
#352=LINE('',#569,#394);
#353=LINE('',#571,#395);
#354=LINE('',#573,#396);
#355=LINE('',#574,#397);
#356=VECTOR('',#417,1.);
#357=VECTOR('',#418,1.);
#358=VECTOR('',#419,1.);
#359=VECTOR('',#420,1.);
#360=VECTOR('',#423,1.);
#361=VECTOR('',#424,1.);
#362=VECTOR('',#425,1.);
#363=VECTOR('',#428,1.);
#364=VECTOR('',#429,1.);
#365=VECTOR('',#430,1.);
#366=VECTOR('',#433,1.);
#367=VECTOR('',#434,1.);
#368=VECTOR('',#435,1.);
#369=VECTOR('',#438,1.);
#370=VECTOR('',#439,1.);
#371=VECTOR('',#440,1.);
#372=VECTOR('',#443,1.);
#373=VECTOR('',#444,1.);
#374=VECTOR('',#445,1.);
#375=VECTOR('',#448,1.);
#376=VECTOR('',#449,1.);
#377=VECTOR('',#450,1.);
#378=VECTOR('',#453,1.);
#379=VECTOR('',#454,1.);
#380=VECTOR('',#455,1.);
#381=VECTOR('',#458,1.);
#382=VECTOR('',#459,1.);
#383=VECTOR('',#460,1.);
#384=VECTOR('',#463,1.);
#385=VECTOR('',#464,1.);
#386=VECTOR('',#465,1.);
#387=VECTOR('',#468,1.);
#388=VECTOR('',#469,1.);
#389=VECTOR('',#470,1.);
#390=VECTOR('',#473,1.);
#391=VECTOR('',#474,1.);
#392=VECTOR('',#475,1.);
#393=VECTOR('',#478,1.);
#394=VECTOR('',#479,1.);
#395=VECTOR('',#480,1.);
#396=VECTOR('',#483,1.);
#397=VECTOR('',#484,1.);
#398=AXIS2_PLACEMENT_3D('',#491,#415,#416);
#399=AXIS2_PLACEMENT_3D('',#500,#421,#422);
#400=AXIS2_PLACEMENT_3D('',#506,#426,#427);
#401=AXIS2_PLACEMENT_3D('',#512,#431,#432);
#402=AXIS2_PLACEMENT_3D('',#518,#436,#437);
#403=AXIS2_PLACEMENT_3D('',#524,#441,#442);
#404=AXIS2_PLACEMENT_3D('',#530,#446,#447);
#405=AXIS2_PLACEMENT_3D('',#536,#451,#452);
#406=AXIS2_PLACEMENT_3D('',#542,#456,#457);
#407=AXIS2_PLACEMENT_3D('',#548,#461,#462);
#408=AXIS2_PLACEMENT_3D('',#554,#466,#467);
#409=AXIS2_PLACEMENT_3D('',#560,#471,#472);
#410=AXIS2_PLACEMENT_3D('',#566,#476,#477);
#411=AXIS2_PLACEMENT_3D('',#572,#481,#482);
#412=AXIS2_PLACEMENT_3D('',#575,#485,#486);
#413=AXIS2_PLACEMENT_3D('',#576,#487,#488);
#414=AXIS2_PLACEMENT_3D('',#577,#489,#490);
#415=DIRECTION('',(0.,0.,1.));
#416=DIRECTION('',(1.,0.,0.));
#417=DIRECTION('',(0.,0.,-1.));
#418=DIRECTION('',(0.,-1.,0.));
#419=DIRECTION('',(0.,0.,-1.));
#420=DIRECTION('',(0.,-1.,0.));
#421=DIRECTION('',(-1.,0.,0.));
#422=DIRECTION('',(0.,0.,1.));
#423=DIRECTION('',(-0.707106781186552,0.,-0.707106781186543));
#424=DIRECTION('',(0.,-1.,0.));
#425=DIRECTION('',(-0.707106781186552,0.,-0.707106781186543));
#426=DIRECTION('',(-0.707106781186543,0.,0.707106781186552));
#427=DIRECTION('',(0.707106781186552,0.,0.707106781186543));
#428=DIRECTION('',(1.,0.,0.));
#429=DIRECTION('',(0.,-1.,0.));
#430=DIRECTION('',(1.,0.,0.));
#431=DIRECTION('',(0.,0.,-1.));
#432=DIRECTION('',(-1.,0.,0.));
#433=DIRECTION('',(0.,0.,-1.));
#434=DIRECTION('',(0.,-1.,0.));
#435=DIRECTION('',(0.,0.,-1.));
#436=DIRECTION('',(-1.,0.,0.));
#437=DIRECTION('',(0.,0.,1.));
#438=DIRECTION('',(-1.,0.,0.));
#439=DIRECTION('',(0.,-1.,0.));
#440=DIRECTION('',(-1.,0.,0.));
#441=DIRECTION('',(0.,0.,1.));
#442=DIRECTION('',(1.,0.,0.));
#443=DIRECTION('',(0.,0.,-1.));
#444=DIRECTION('',(0.,-1.,0.));
#445=DIRECTION('',(0.,0.,-1.));
#446=DIRECTION('',(-1.,0.,0.));
#447=DIRECTION('',(0.,0.,1.));
#448=DIRECTION('',(-1.,0.,0.));
#449=DIRECTION('',(0.,-1.,0.));
#450=DIRECTION('',(-1.,0.,0.));
#451=DIRECTION('',(0.,0.,1.));
#452=DIRECTION('',(1.,0.,0.));
#453=DIRECTION('',(0.707106781186554,0.,-0.707106781186541));
#454=DIRECTION('',(0.,-1.,0.));
#455=DIRECTION('',(0.707106781186554,0.,-0.707106781186541));
#456=DIRECTION('',(-0.707106781186541,0.,-0.707106781186554));
#457=DIRECTION('',(-0.707106781186554,0.,0.707106781186541));
#458=DIRECTION('',(0.,0.,-1.));
#459=DIRECTION('',(0.,-1.,0.));
#460=DIRECTION('',(0.,0.,-1.));
#461=DIRECTION('',(-1.,0.,0.));
#462=DIRECTION('',(0.,0.,1.));
#463=DIRECTION('',(1.,0.,0.));
#464=DIRECTION('',(0.,-1.,0.));
#465=DIRECTION('',(1.,0.,0.));
#466=DIRECTION('',(0.,0.,-1.));
#467=DIRECTION('',(-1.,0.,0.));
#468=DIRECTION('',(0.,0.,-1.));
#469=DIRECTION('',(0.,-1.,0.));
#470=DIRECTION('',(0.,0.,-1.));
#471=DIRECTION('',(-1.,0.,0.));
#472=DIRECTION('',(0.,0.,1.));
#473=DIRECTION('',(-1.,0.,0.));
#474=DIRECTION('',(0.,-1.,0.));
#475=DIRECTION('',(-1.,0.,0.));
#476=DIRECTION('',(0.,0.,1.));
#477=DIRECTION('',(1.,0.,0.));
#478=DIRECTION('',(0.,0.,-1.));
#479=DIRECTION('',(0.,-1.,0.));
#480=DIRECTION('',(0.,0.,-1.));
#481=DIRECTION('',(-1.,0.,0.));
#482=DIRECTION('',(0.,0.,1.));
#483=DIRECTION('',(-1.,0.,0.));
#484=DIRECTION('',(-1.,0.,0.));
#485=DIRECTION('',(0.,0.,1.));
#486=DIRECTION('',(1.,0.,0.));
#487=DIRECTION('',(0.,-1.,0.));
#488=DIRECTION('',(0.,0.,-1.));
#489=DIRECTION('',(0.,-1.,0.));
#490=DIRECTION('',(0.,0.,-1.));
#491=CARTESIAN_POINT('',(0.,0.,0.));
#492=CARTESIAN_POINT('',(-0.485000000000001,0.,0.853000000000001));
#493=CARTESIAN_POINT('',(-0.485000000000001,0.,0.853000000000001));
#494=CARTESIAN_POINT('',(-0.485000000000001,0.,0.823000000000001));
#495=CARTESIAN_POINT('',(-0.485000000000001,72.,0.823000000000001));
#496=CARTESIAN_POINT('',(-0.485000000000001,72.,0.823000000000001));
#497=CARTESIAN_POINT('',(-0.485000000000001,72.,0.853000000000001));
#498=CARTESIAN_POINT('',(-0.485000000000001,72.,0.853000000000001));
#499=CARTESIAN_POINT('',(-0.485000000000001,72.,0.853000000000001));
#500=CARTESIAN_POINT('',(-0.485000000000001,72.,0.853000000000001));
#501=CARTESIAN_POINT('',(-0.485000000000001,0.,0.823000000000001));
#502=CARTESIAN_POINT('',(-0.579,0.,0.729000000000003));
#503=CARTESIAN_POINT('',(-0.579,72.,0.729000000000003));
#504=CARTESIAN_POINT('',(-0.579,72.,0.729000000000003));
#505=CARTESIAN_POINT('',(-0.485000000000001,72.,0.823000000000001));
#506=CARTESIAN_POINT('',(-0.485000000000001,72.,0.823000000000001));
#507=CARTESIAN_POINT('',(-0.625,0.,0.729000000000003));
#508=CARTESIAN_POINT('',(-0.625,0.,0.729000000000003));
#509=CARTESIAN_POINT('',(-0.625,72.,0.729000000000003));
#510=CARTESIAN_POINT('',(-0.625,72.,0.729000000000003));
#511=CARTESIAN_POINT('',(-0.625,72.,0.729000000000003));
#512=CARTESIAN_POINT('',(-0.625,72.,0.729000000000003));
#513=CARTESIAN_POINT('',(-0.625,0.,1.079));
#514=CARTESIAN_POINT('',(-0.625,0.,1.079));
#515=CARTESIAN_POINT('',(-0.625,72.,1.079));
#516=CARTESIAN_POINT('',(-0.625,72.,1.079));
#517=CARTESIAN_POINT('',(-0.625,72.,1.079));
#518=CARTESIAN_POINT('',(-0.625,72.,1.079));
#519=CARTESIAN_POINT('',(0.625,0.,1.079));
#520=CARTESIAN_POINT('',(0.625,0.,1.079));
#521=CARTESIAN_POINT('',(0.625,72.,1.079));
#522=CARTESIAN_POINT('',(0.625,72.,1.079));
#523=CARTESIAN_POINT('',(0.625,72.,1.079));
#524=CARTESIAN_POINT('',(0.625,72.,1.079));
#525=CARTESIAN_POINT('',(0.625,0.,1.079));
#526=CARTESIAN_POINT('',(0.625,0.,0.729000000000003));
#527=CARTESIAN_POINT('',(0.625,72.,0.729000000000003));
#528=CARTESIAN_POINT('',(0.625,72.,0.729000000000003));
#529=CARTESIAN_POINT('',(0.625,72.,1.079));
#530=CARTESIAN_POINT('',(0.625,72.,1.079));
#531=CARTESIAN_POINT('',(0.625,0.,0.729000000000003));
#532=CARTESIAN_POINT('',(0.579,0.,0.729000000000003));
#533=CARTESIAN_POINT('',(0.579,72.,0.729000000000003));
#534=CARTESIAN_POINT('',(0.579,72.,0.729000000000003));
#535=CARTESIAN_POINT('',(0.625,72.,0.729000000000003));
#536=CARTESIAN_POINT('',(0.625,72.,0.729000000000003));
#537=CARTESIAN_POINT('',(0.485,0.,0.823000000000001));
#538=CARTESIAN_POINT('',(0.485,0.,0.823000000000001));
#539=CARTESIAN_POINT('',(0.485,72.,0.823000000000001));
#540=CARTESIAN_POINT('',(0.485,72.,0.823000000000001));
#541=CARTESIAN_POINT('',(0.485,72.,0.823000000000001));
#542=CARTESIAN_POINT('',(0.485,72.,0.823000000000001));
#543=CARTESIAN_POINT('',(0.485,0.,0.853000000000001));
#544=CARTESIAN_POINT('',(0.485,0.,0.853000000000001));
#545=CARTESIAN_POINT('',(0.485,72.,0.853000000000001));
#546=CARTESIAN_POINT('',(0.485,72.,0.853000000000001));
#547=CARTESIAN_POINT('',(0.485,72.,0.853000000000001));
#548=CARTESIAN_POINT('',(0.485,72.,0.853000000000001));
#549=CARTESIAN_POINT('',(0.485,0.,0.853000000000001));
#550=CARTESIAN_POINT('',(0.565,0.,0.853000000000001));
#551=CARTESIAN_POINT('',(0.565,72.,0.853000000000001));
#552=CARTESIAN_POINT('',(0.565,72.,0.853000000000001));
#553=CARTESIAN_POINT('',(0.485,72.,0.853000000000001));
#554=CARTESIAN_POINT('',(0.485,72.,0.853000000000001));
#555=CARTESIAN_POINT('',(0.565,0.,1.019));
#556=CARTESIAN_POINT('',(0.565,0.,1.019));
#557=CARTESIAN_POINT('',(0.565,72.,1.019));
#558=CARTESIAN_POINT('',(0.565,72.,1.019));
#559=CARTESIAN_POINT('',(0.565,72.,1.019));
#560=CARTESIAN_POINT('',(0.565,72.,1.019));
#561=CARTESIAN_POINT('',(0.565,0.,1.019));
#562=CARTESIAN_POINT('',(-0.565,0.,1.019));
#563=CARTESIAN_POINT('',(-0.565,72.,1.019));
#564=CARTESIAN_POINT('',(-0.565,72.,1.019));
#565=CARTESIAN_POINT('',(0.565,72.,1.019));
#566=CARTESIAN_POINT('',(0.565,72.,1.019));
#567=CARTESIAN_POINT('',(-0.565,0.,1.019));
#568=CARTESIAN_POINT('',(-0.565,0.,0.853000000000001));
#569=CARTESIAN_POINT('',(-0.565,72.,0.853000000000001));
#570=CARTESIAN_POINT('',(-0.565,72.,0.853000000000001));
#571=CARTESIAN_POINT('',(-0.565,72.,1.019));
#572=CARTESIAN_POINT('',(-0.565,72.,1.019));
#573=CARTESIAN_POINT('',(-0.485000000000001,0.,0.853000000000001));
#574=CARTESIAN_POINT('',(-0.485000000000001,72.,0.853000000000001));
#575=CARTESIAN_POINT('',(-0.485000000000001,72.,0.853000000000001));
#576=CARTESIAN_POINT('',(-0.485000000000001,72.,0.729000000000003));
#577=CARTESIAN_POINT('',(-0.485000000000001,0.,0.729000000000003));
#578=MECHANICAL_DESIGN_GEOMETRIC_PRESENTATION_REPRESENTATION('',(#86),#579);
#579=(
GEOMETRIC_REPRESENTATION_CONTEXT(3)
GLOBAL_UNCERTAINTY_ASSIGNED_CONTEXT((#580))
GLOBAL_UNIT_ASSIGNED_CONTEXT((#585,#582,#581))
REPRESENTATION_CONTEXT('NC1','TOP_LEVEL_ASSEMBLY_PART')
);
#580=UNCERTAINTY_MEASURE_WITH_UNIT(LENGTH_MEASURE(7.8740157480315E-7),#585,
'DISTANCE_ACCURACY_VALUE','Maximum Tolerance applied to model');
#581=(
NAMED_UNIT(*)
SI_UNIT($,.STERADIAN.)
SOLID_ANGLE_UNIT()
);
#582=(
CONVERSION_BASED_UNIT('DEGREE',#583)
NAMED_UNIT(#587)
PLANE_ANGLE_UNIT()
);
#583=PLANE_ANGLE_MEASURE_WITH_UNIT(PLANE_ANGLE_MEASURE(0.0174532925),#584);
#584=(
NAMED_UNIT(*)
PLANE_ANGLE_UNIT()
SI_UNIT($,.RADIAN.)
);
#585=(
CONVERSION_BASED_UNIT('INCH',#588)
LENGTH_UNIT()
NAMED_UNIT(#586)
);
#586=DIMENSIONAL_EXPONENTS(1.,0.,0.,0.,0.,0.,0.);
#587=DIMENSIONAL_EXPONENTS(0.,0.,0.,0.,0.,0.,0.);
#588=LENGTH_MEASURE_WITH_UNIT(LENGTH_MEASURE(25.4),#589);
#589=(
LENGTH_UNIT()
NAMED_UNIT(*)
SI_UNIT(.MILLI.,.METRE.)
);
ENDSEC;
END-ISO-10303-21;
