  0
SECTION
  2
HEADER
  9
$ACADVER
  1
AC1012
  9
$DWGCODEPAGE
  3
ANSI_1252
  9
$INSBASE
 10
0.0
 20
0.0
 30
0.0
  9
$EXTMIN
 10
4.318023967102938
 20
5.460447327479833
 30
-0.0000000349181948
  9
$EXTMAX
 10
6.091519649082989
 20
9.048660551303857
 30
0.0000000814935746
  9
$LIMMIN
 10
0.0
 20
0.0
  9
$LIMMAX
 10
12.0
 20
9.0
  9
$ORTHOMODE
 70
     1
  9
$REGENMODE
 70
     1
  9
$FILLMODE
 70
     1
  9
$QTEXTMODE
 70
     0
  9
$MIRRTEXT
 70
     1
  9
$DRAGMODE
 70
     2
  9
$LTSCALE
 40
1.0
  9
$OSMODE
 70
    33
  9
$ATTMODE
 70
     1
  9
$TEXTSIZE
 40
0.2
  9
$TRACEWID
 40
0.05
  9
$TEXTSTYLE
  7
STANDARD
  9
$CLAYER
  8
0
  9
$CELTYPE
  6
BYLAYER
  9
$CECOLOR
 62
   256
  9
$CELTSCALE
 40
1.0
  9
$DELOBJ
 70
     1
  9
$DISPSILH
 70
     0
  9
$DIMSCALE
 40
1.0
  9
$DIMASZ
 40
0.18
  9
$DIMEXO
 40
0.0625
  9
$DIMDLI
 40
0.38
  9
$DIMRND
 40
0.0
  9
$DIMDLE
 40
0.0
  9
$DIMEXE
 40
0.18
  9
$DIMTP
 40
0.0
  9
$DIMTM
 40
0.0
  9
$DIMTXT
 40
0.18
  9
$DIMCEN
 40
0.09
  9
$DIMTSZ
 40
0.0
  9
$DIMTOL
 70
     0
  9
$DIMLIM
 70
     0
  9
$DIMTIH
 70
     1
  9
$DIMTOH
 70
     1
  9
$DIMSE1
 70
     0
  9
$DIMSE2
 70
     0
  9
$DIMTAD
 70
     0
  9
$DIMZIN
 70
     0
  9
$DIMBLK
  1

  9
$DIMASO
 70
     1
  9
$DIMSHO
 70
     1
  9
$DIMPOST
  1

  9
$DIMAPOST
  1

  9
$DIMALT
 70
     0
  9
$DIMALTD
 70
     2
  9
$DIMALTF
 40
25.4
  9
$DIMLFAC
 40
1.0
  9
$DIMTOFL
 70
     0
  9
$DIMTVP
 40
0.0
  9
$DIMTIX
 70
     0
  9
$DIMSOXD
 70
     0
  9
$DIMSAH
 70
     0
  9
$DIMBLK1
  1

  9
$DIMBLK2
  1

  9
$DIMSTYLE
  2
STANDARD
  9
$DIMCLRD
 70
     0
  9
$DIMCLRE
 70
     0
  9
$DIMCLRT
 70
     0
  9
$DIMTFAC
 40
1.0
  9
$DIMGAP
 40
0.09
  9
$DIMJUST
 70
     0
  9
$DIMSD1
 70
     0
  9
$DIMSD2
 70
     0
  9
$DIMTOLJ
 70
     1
  9
$DIMTZIN
 70
     0
  9
$DIMALTZ
 70
     0
  9
$DIMALTTZ
 70
     0
  9
$DIMFIT
 70
     5
  9
$DIMUPT
 70
     0
  9
$DIMUNIT
 70
     2
  9
$DIMDEC
 70
     4
  9
$DIMTDEC
 70
     4
  9
$DIMALTU
 70
     2
  9
$DIMALTTD
 70
     2
  9
$DIMTXSTY
  7
STANDARD
  9
$DIMAUNIT
 70
     0
  9
$LUNITS
 70
     2
  9
$LUPREC
 70
     4
  9
$SKETCHINC
 40
0.1
  9
$FILLETRAD
 40
0.0
  9
$AUNITS
 70
     0
  9
$AUPREC
 70
     0
  9
$MENU
  1
acad
  9
$ELEVATION
 40
0.0
  9
$PELEVATION
 40
0.0
  9
$THICKNESS
 40
0.0
  9
$LIMCHECK
 70
     0
  9
$BLIPMODE
 70
     0
  9
$CHAMFERA
 40
0.0
  9
$CHAMFERB
 40
0.0
  9
$CHAMFERC
 40
0.0
  9
$CHAMFERD
 40
0.0
  9
$SKPOLY
 70
     0
  9
$TDCREATE
 40
2451900.522048611
  9
$TDUPDATE
 40
2452340.330598495
  9
$TDINDWG
 40
0.0039407870
  9
$TDUSRTIMER
 40
0.0039406019
  9
$USRTIMER
 70
     1
  9
$ANGBASE
 50
0.0
  9
$ANGDIR
 70
     0
  9
$PDMODE
 70
     0
  9
$PDSIZE
 40
0.0
  9
$PLINEWID
 40
0.0
  9
$COORDS
 70
     2
  9
$SPLFRAME
 70
     0
  9
$SPLINETYPE
 70
     6
  9
$SPLINESEGS
 70
     8
  9
$ATTDIA
 70
     0
  9
$ATTREQ
 70
     1
  9
$HANDLING
 70
  4097
  9
$HANDSEED
  5
322B
  9
$SURFTAB1
 70
     6
  9
$SURFTAB2
 70
     6
  9
$SURFTYPE
 70
     6
  9
$SURFU
 70
     6
  9
$SURFV
 70
     6
  9
$UCSNAME
  2

  9
$UCSORG
 10
0.0
 20
0.0
 30
0.0
  9
$UCSXDIR
 10
1.0
 20
0.0
 30
0.0
  9
$UCSYDIR
 10
0.0
 20
1.0
 30
0.0
  9
$PUCSNAME
  2

  9
$PUCSORG
 10
0.0
 20
0.0
 30
0.0
  9
$PUCSXDIR
 10
1.0
 20
0.0
 30
0.0
  9
$PUCSYDIR
 10
0.0
 20
1.0
 30
0.0
  9
$USERI1
 70
     0
  9
$USERI2
 70
     0
  9
$USERI3
 70
     0
  9
$USERI4
 70
     0
  9
$USERI5
 70
     0
  9
$USERR1
 40
0.0
  9
$USERR2
 40
0.0
  9
$USERR3
 40
0.0
  9
$USERR4
 40
0.0
  9
$USERR5
 40
0.0
  9
$WORLDVIEW
 70
     1
  9
$SHADEDGE
 70
     3
  9
$SHADEDIF
 70
    70
  9
$TILEMODE
 70
     1
  9
$MAXACTVP
 70
    16
  9
$PINSBASE
 10
0.0
 20
0.0
 30
0.0
  9
$PLIMCHECK
 70
     0
  9
$PEXTMIN
 10
1.000000000000000E+20
 20
1.000000000000000E+20
 30
1.000000000000000E+20
  9
$PEXTMAX
 10
-1.000000000000000E+20
 20
-1.000000000000000E+20
 30
-1.000000000000000E+20
  9
$PLIMMIN
 10
0.0
 20
0.0
  9
$PLIMMAX
 10
12.0
 20
9.0
  9
$UNITMODE
 70
     0
  9
$VISRETAIN
 70
     0
  9
$PLINEGEN
 70
     0
  9
$PSLTSCALE
 70
     1
  9
$TREEDEPTH
 70
  3020
  9
$PICKSTYLE
 70
     1
  9
$CMLSTYLE
  2
STANDARD
  9
$CMLJUST
 70
     0
  9
$CMLSCALE
 40
1.0
  9
$SAVEIMAGES
 70
     1
  0
ENDSEC
  0
SECTION
  2
CLASSES
  0
CLASS
  1
ACDBDICTIONARYWDFLT
  2
AcDbDictionaryWithDefault
  3
AutoCAD 2000
 90
    32768
280
     0
281
     0
  0
CLASS
  1
ACDBPLACEHOLDER
  2
AcDbPlaceHolder
  3
AutoCAD 2000
 90
    32768
280
     0
281
     0
  0
CLASS
  1
LAYOUT
  2
AcDbLayout
  3
AutoCAD 2000
 90
    32768
280
     0
281
     0
  0
CLASS
  1
LONG_TRANSACTION
  2
AcDbLongTransaction
  3
AutoCAD 2000
 90
    32768
280
     0
281
     0
  0
CLASS
  1
LWPOLYLINE
  2
AcDbPolyline
  3
AutoCAD 2000
 90
    32768
280
     0
281
     1
  0
CLASS
  1
HATCH
  2
AcDbHatch
  3
AutoCAD 2000
 90
    32768
280
     0
281
     1
  0
CLASS
  1
XRECORD
  2
AcDbXrecord
  3
AutoCAD 2000
 90
    32768
280
     0
281
     0
  0
CLASS
  1
LONG_TRANSACTION
  2
AcDbLongTransaction
  3
AutoCAD 2000
 90
    32768
280
     0
281
     0
  0
CLASS
  1
LWPOLYLINE
  2
AcDbPolyline
  3
AutoCAD 2000
 90
    32768
280
     0
281
     1
  0
CLASS
  1
HATCH
  2
AcDbHatch
  3
AutoCAD 2000
 90
    32768
280
     0
281
     1
  0
CLASS
  1
XRECORD
  2
AcDbXrecord
  3
AutoCAD 2000
 90
    32768
280
     0
281
     0
  0
ENDSEC
  0
SECTION
  2
TABLES
  0
TABLE
  2
VPORT
  5
8
330
0
100
AcDbSymbolTable
 70
     3
  0
VPORT
  5
3228
330
8
100
AcDbSymbolTableRecord
100
AcDbViewportTableRecord
  2
*ACTIVE
 70
     0
 10
0.0
 20
0.0
 11
1.0
 21
1.0
 12
5.204771808092964
 22
7.254553939391845
 13
0.0
 23
0.0
 14
1.0
 24
1.0
 15
0.0
 25
0.0
 16
0.0
 26
0.0
 36
1.0
 17
0.0
 27
0.0
 37
0.0
 40
3.616466871255709
 41
1.601839684625492
 42
50.0
 43
0.0
 44
0.0
 50
0.0
 51
0.0
 71
     0
 72
   100
 73
     1
 74
     1
 75
     0
 76
     0
 77
     0
 78
     0
  0
ENDTAB
  0
TABLE
  2
LTYPE
  5
5
330
0
100
AcDbSymbolTable
 70
    25
  0
LTYPE
  5
13
330
5
100
AcDbSymbolTableRecord
100
AcDbLinetypeTableRecord
  2
BYBLOCK
 70
     0
  3

 72
    65
 73
     0
 40
0.0
  0
LTYPE
  5
14
330
5
100
AcDbSymbolTableRecord
100
AcDbLinetypeTableRecord
  2
BYLAYER
 70
     0
  3

 72
    65
 73
     0
 40
0.0
  0
LTYPE
  5
15
330
5
100
AcDbSymbolTableRecord
100
AcDbLinetypeTableRecord
  2
CONTINUOUS
 70
     0
  3
Solid line
 72
    65
 73
     0
 40
0.0
  0
LTYPE
  5
22
330
5
100
AcDbSymbolTableRecord
100
AcDbLinetypeTableRecord
  2
BORDER
 70
     0
  3
__ __ . __ __ . __ __ . __ __ . __ __ . __ __ .
 72
    65
 73
     6
 40
1.75
 49
0.5
 74
     0
 49
-0.25
 74
     0
 49
0.5
 74
     0
 49
-0.25
 74
     0
 49
0.5
 74
     0
 49
-0.25
 74
     0
  0
LTYPE
  5
23
330
5
100
AcDbSymbolTableRecord
100
AcDbLinetypeTableRecord
  2
BORDER2
 70
     0
  3
__.__.__.__.__.__.__.__.__.__.__.__.__.__.__.__
 72
    65
 73
     6
 40
0.875
 49
0.25
 74
     0
 49
-0.125
 74
     0
 49
0.25
 74
     0
 49
-0.125
 74
     0
 49
0.25
 74
     0
 49
-0.125
 74
     0
  0
LTYPE
  5
24
330
5
100
AcDbSymbolTableRecord
100
AcDbLinetypeTableRecord
  2
BORDERX2
 70
     0
  3
____  ____  .  ____  ____  .  
 72
    65
 73
     6
 40
3.5
 49
1.0
 74
     0
 49
-0.5
 74
     0
 49
1.0
 74
     0
 49
-0.5
 74
     0
 49
1.0
 74
     0
 49
-0.5
 74
     0
  0
LTYPE
  5
25
330
5
100
AcDbSymbolTableRecord
100
AcDbLinetypeTableRecord
  2
CENTER
 70
     0
  3
____ _ ____ _ ____ _ ____ _ ____ _ ____ _ ____
 72
    65
 73
     4
 40
2.0
 49
1.25
 74
     0
 49
-0.25
 74
     0
 49
0.25
 74
     0
 49
-0.25
 74
     0
  0
LTYPE
  5
26
330
5
100
AcDbSymbolTableRecord
100
AcDbLinetypeTableRecord
  2
CENTER2
 70
     0
  3
____ _ ____ _ ____ _ ____ _ ____ _ ____ _ ____
 72
    65
 73
     4
 40
1.125
 49
0.75
 74
     0
 49
-0.125
 74
     0
 49
0.125
 74
     0
 49
-0.125
 74
     0
  0
LTYPE
  5
27
330
5
100
AcDbSymbolTableRecord
100
AcDbLinetypeTableRecord
  2
CENTERX2
 70
     0
  3
________  __  ________  __  ________  __  
 72
    65
 73
     4
 40
4.0
 49
2.5
 74
     0
 49
-0.5
 74
     0
 49
0.5
 74
     0
 49
-0.5
 74
     0
  0
LTYPE
  5
28
330
5
100
AcDbSymbolTableRecord
100
AcDbLinetypeTableRecord
  2
DASHDOT
 70
     0
  3
__ . __ . __ . __ . __ . __ . __ . 
 72
    65
 73
     4
 40
1.0
 49
0.5
 74
     0
 49
-0.25
 74
     0
 49
0.0
 74
     0
 49
-0.25
 74
     0
  0
LTYPE
  5
29
330
5
100
AcDbSymbolTableRecord
100
AcDbLinetypeTableRecord
  2
DASHDOT2
 70
     0
  3
_._._._._._._._._._._._._._._._.
 72
    65
 73
     4
 40
0.5
 49
0.25
 74
     0
 49
-0.125
 74
     0
 49
0.0
 74
     0
 49
-0.125
 74
     0
  0
LTYPE
  5
2A
330
5
100
AcDbSymbolTableRecord
100
AcDbLinetypeTableRecord
  2
DASHDOTX2
 70
     0
  3
____  .  ____  .  ____  .  ____  .  
 72
    65
 73
     4
 40
2.0
 49
1.0
 74
     0
 49
-0.5
 74
     0
 49
0.0
 74
     0
 49
-0.5
 74
     0
  0
LTYPE
  5
2B
330
5
100
AcDbSymbolTableRecord
100
AcDbLinetypeTableRecord
  2
DASHED
 70
     0
  3
__ __ __ __ __ __ __ __ __ __ __ __ 
 72
    65
 73
     2
 40
0.75
 49
0.5
 74
     0
 49
-0.25
 74
     0
  0
LTYPE
  5
2C
330
5
100
AcDbSymbolTableRecord
100
AcDbLinetypeTableRecord
  2
DASHED2
 70
     0
  3
_ _ _ _ _ _ _ _ _ _ _ _ _ _ _ _ _ _ 
 72
    65
 73
     2
 40
0.375
 49
0.25
 74
     0
 49
-0.125
 74
     0
  0
LTYPE
  5
2D
330
5
100
AcDbSymbolTableRecord
100
AcDbLinetypeTableRecord
  2
DASHEDX2
 70
     0
  3
____  ____  ____  ____  ____  ____  
 72
    65
 73
     2
 40
1.5
 49
1.0
 74
     0
 49
-0.5
 74
     0
  0
LTYPE
  5
2E
330
5
100
AcDbSymbolTableRecord
100
AcDbLinetypeTableRecord
  2
DIVIDE
 70
     0
  3
____ . . ____ . . ____ . . ____ . . 
 72
    65
 73
     6
 40
1.25
 49
0.5
 74
     0
 49
-0.25
 74
     0
 49
0.0
 74
     0
 49
-0.25
 74
     0
 49
0.0
 74
     0
 49
-0.25
 74
     0
  0
LTYPE
  5
2F
330
5
100
AcDbSymbolTableRecord
100
AcDbLinetypeTableRecord
  2
DIVIDE2
 70
     0
  3
__..__..__..__..__..__..__..__..__..
 72
    65
 73
     6
 40
0.625
 49
0.25
 74
     0
 49
-0.125
 74
     0
 49
0.0
 74
     0
 49
-0.125
 74
     0
 49
0.0
 74
     0
 49
-0.125
 74
     0
  0
LTYPE
  5
30
330
5
100
AcDbSymbolTableRecord
100
AcDbLinetypeTableRecord
  2
DIVIDEX2
 70
     0
  3
________  .  .  ________  .  .  ________  .  . 
 72
    65
 73
     6
 40
2.5
 49
1.0
 74
     0
 49
-0.5
 74
     0
 49
0.0
 74
     0
 49
-0.5
 74
     0
 49
0.0
 74
     0
 49
-0.5
 74
     0
  0
LTYPE
  5
31
330
5
100
AcDbSymbolTableRecord
100
AcDbLinetypeTableRecord
  2
DOT
 70
     0
  3
. . . . . . . . . . . . . . . . . . 
 72
    65
 73
     2
 40
0.25
 49
0.0
 74
     0
 49
-0.25
 74
     0
  0
LTYPE
  5
32
330
5
100
AcDbSymbolTableRecord
100
AcDbLinetypeTableRecord
  2
DOT2
 70
     0
  3
....................................
 72
    65
 73
     2
 40
0.125
 49
0.0
 74
     0
 49
-0.125
 74
     0
  0
LTYPE
  5
33
330
5
100
AcDbSymbolTableRecord
100
AcDbLinetypeTableRecord
  2
DOTX2
 70
     0
  3
.  .  .  .  .  .  .  .  .  .  .  .  .  
 72
    65
 73
     2
 40
0.5
 49
0.0
 74
     0
 49
-0.5
 74
     0
  0
LTYPE
  5
34
330
5
100
AcDbSymbolTableRecord
100
AcDbLinetypeTableRecord
  2
HIDDEN
 70
     0
  3
__ __ __ __ __ __ __ __ __ __ __ __ 
 72
    65
 73
     2
 40
0.375
 49
0.25
 74
     0
 49
-0.125
 74
     0
  0
LTYPE
  5
35
330
5
100
AcDbSymbolTableRecord
100
AcDbLinetypeTableRecord
  2
HIDDEN2
 70
     0
  3
_ _ _ _ _ _ _ _ _ _ _ _ _ _ _ _ _ _ 
 72
    65
 73
     2
 40
0.1875
 49
0.125
 74
     0
 49
-0.0625
 74
     0
  0
LTYPE
  5
36
330
5
100
AcDbSymbolTableRecord
100
AcDbLinetypeTableRecord
  2
HIDDENX2
 70
     0
  3
____ ____ ____ ____ ____ ____ ____ 
 72
    65
 73
     2
 40
0.75
 49
0.5
 74
     0
 49
-0.25
 74
     0
  0
LTYPE
  5
37
330
5
100
AcDbSymbolTableRecord
100
AcDbLinetypeTableRecord
  2
PHANTOM
 70
     0
  3
______  __  __  ______  __  __  
 72
    65
 73
     6
 40
2.5
 49
1.25
 74
     0
 49
-0.25
 74
     0
 49
0.25
 74
     0
 49
-0.25
 74
     0
 49
0.25
 74
     0
 49
-0.25
 74
     0
  0
LTYPE
  5
38
330
5
100
AcDbSymbolTableRecord
100
AcDbLinetypeTableRecord
  2
PHANTOM2
 70
     0
  3
___ _ _ ___ _ _ ___ _ _ ___ _ _ 
 72
    65
 73
     6
 40
1.25
 49
0.625
 74
     0
 49
-0.125
 74
     0
 49
0.125
 74
     0
 49
-0.125
 74
     0
 49
0.125
 74
     0
 49
-0.125
 74
     0
  0
LTYPE
  5
39
330
5
100
AcDbSymbolTableRecord
100
AcDbLinetypeTableRecord
  2
PHANTOMX2
 70
     0
  3
___ _ _ ___ _ _ ___ _ _ ___ _ _ 
 72
    65
 73
     6
 40
5.0
 49
2.5
 74
     0
 49
-0.5
 74
     0
 49
0.5
 74
     0
 49
-0.5
 74
     0
 49
0.5
 74
     0
 49
-0.5
 74
     0
  0
ENDTAB
  0
TABLE
  2
LAYER
  5
2
330
0
100
AcDbSymbolTable
 70
   256
  0
LAYER
  5
10
330
2
100
AcDbSymbolTableRecord
100
AcDbLayerTableRecord
  2
0
 70
     0
 62
     7
  6
CONTINUOUS
  0
LAYER
  5
3A
330
2
100
AcDbSymbolTableRecord
100
AcDbLayerTableRecord
  2
1
 70
     0
 62
     1
  6
CONTINUOUS
  0
LAYER
  5
3B
330
2
100
AcDbSymbolTableRecord
100
AcDbLayerTableRecord
  2
2
 70
     0
 62
     2
  6
CONTINUOUS
  0
LAYER
  5
3C
330
2
100
AcDbSymbolTableRecord
100
AcDbLayerTableRecord
  2
3
 70
     0
 62
     3
  6
CONTINUOUS
  0
LAYER
  5
3D
330
2
100
AcDbSymbolTableRecord
100
AcDbLayerTableRecord
  2
4
 70
     0
 62
     4
  6
CONTINUOUS
  0
LAYER
  5
3E
330
2
100
AcDbSymbolTableRecord
100
AcDbLayerTableRecord
  2
5
 70
     0
 62
     5
  6
CONTINUOUS
  0
LAYER
  5
3F
330
2
100
AcDbSymbolTableRecord
100
AcDbLayerTableRecord
  2
6
 70
     0
 62
     6
  6
CONTINUOUS
  0
LAYER
  5
40
330
2
100
AcDbSymbolTableRecord
100
AcDbLayerTableRecord
  2
7
 70
     0
 62
     7
  6
CONTINUOUS
  0
LAYER
  5
41
330
2
100
AcDbSymbolTableRecord
100
AcDbLayerTableRecord
  2
8
 70
     0
 62
     8
  6
CONTINUOUS
  0
LAYER
  5
42
330
2
100
AcDbSymbolTableRecord
100
AcDbLayerTableRecord
  2
9
 70
     0
 62
     9
  6
CONTINUOUS
  0
LAYER
  5
43
330
2
100
AcDbSymbolTableRecord
100
AcDbLayerTableRecord
  2
10
 70
     0
 62
    10
  6
CONTINUOUS
  0
LAYER
  5
44
330
2
100
AcDbSymbolTableRecord
100
AcDbLayerTableRecord
  2
11
 70
     0
 62
    11
  6
CONTINUOUS
  0
LAYER
  5
45
330
2
100
AcDbSymbolTableRecord
100
AcDbLayerTableRecord
  2
12
 70
     0
 62
    12
  6
CONTINUOUS
  0
LAYER
  5
46
330
2
100
AcDbSymbolTableRecord
100
AcDbLayerTableRecord
  2
13
 70
     0
 62
    13
  6
CONTINUOUS
  0
LAYER
  5
47
330
2
100
AcDbSymbolTableRecord
100
AcDbLayerTableRecord
  2
14
 70
     0
 62
    14
  6
CONTINUOUS
  0
LAYER
  5
48
330
2
100
AcDbSymbolTableRecord
100
AcDbLayerTableRecord
  2
15
 70
     0
 62
    15
  6
CONTINUOUS
  0
LAYER
  5
49
330
2
100
AcDbSymbolTableRecord
100
AcDbLayerTableRecord
  2
16
 70
     0
 62
    16
  6
CONTINUOUS
  0
LAYER
  5
4A
330
2
100
AcDbSymbolTableRecord
100
AcDbLayerTableRecord
  2
17
 70
     0
 62
    17
  6
CONTINUOUS
  0
LAYER
  5
4B
330
2
100
AcDbSymbolTableRecord
100
AcDbLayerTableRecord
  2
18
 70
     0
 62
    18
  6
CONTINUOUS
  0
LAYER
  5
4C
330
2
100
AcDbSymbolTableRecord
100
AcDbLayerTableRecord
  2
19
 70
     0
 62
    19
  6
CONTINUOUS
  0
LAYER
  5
4D
330
2
100
AcDbSymbolTableRecord
100
AcDbLayerTableRecord
  2
20
 70
     0
 62
    20
  6
CONTINUOUS
  0
LAYER
  5
4E
330
2
100
AcDbSymbolTableRecord
100
AcDbLayerTableRecord
  2
21
 70
     0
 62
    21
  6
CONTINUOUS
  0
LAYER
  5
4F
330
2
100
AcDbSymbolTableRecord
100
AcDbLayerTableRecord
  2
22
 70
     0
 62
    22
  6
CONTINUOUS
  0
LAYER
  5
50
330
2
100
AcDbSymbolTableRecord
100
AcDbLayerTableRecord
  2
23
 70
     0
 62
    23
  6
CONTINUOUS
  0
LAYER
  5
51
330
2
100
AcDbSymbolTableRecord
100
AcDbLayerTableRecord
  2
24
 70
     0
 62
    24
  6
CONTINUOUS
  0
LAYER
  5
52
330
2
100
AcDbSymbolTableRecord
100
AcDbLayerTableRecord
  2
25
 70
     0
 62
    25
  6
CONTINUOUS
  0
LAYER
  5
53
330
2
100
AcDbSymbolTableRecord
100
AcDbLayerTableRecord
  2
26
 70
     0
 62
    26
  6
CONTINUOUS
  0
LAYER
  5
54
330
2
100
AcDbSymbolTableRecord
100
AcDbLayerTableRecord
  2
27
 70
     0
 62
    27
  6
CONTINUOUS
  0
LAYER
  5
55
330
2
100
AcDbSymbolTableRecord
100
AcDbLayerTableRecord
  2
28
 70
     0
 62
    28
  6
CONTINUOUS
  0
LAYER
  5
56
330
2
100
AcDbSymbolTableRecord
100
AcDbLayerTableRecord
  2
29
 70
     0
 62
    29
  6
CONTINUOUS
  0
LAYER
  5
57
330
2
100
AcDbSymbolTableRecord
100
AcDbLayerTableRecord
  2
30
 70
     0
 62
    30
  6
CONTINUOUS
  0
LAYER
  5
58
330
2
100
AcDbSymbolTableRecord
100
AcDbLayerTableRecord
  2
31
 70
     0
 62
    31
  6
CONTINUOUS
  0
LAYER
  5
59
330
2
100
AcDbSymbolTableRecord
100
AcDbLayerTableRecord
  2
32
 70
     0
 62
    32
  6
CONTINUOUS
  0
LAYER
  5
5A
330
2
100
AcDbSymbolTableRecord
100
AcDbLayerTableRecord
  2
33
 70
     0
 62
    33
  6
CONTINUOUS
  0
LAYER
  5
5B
330
2
100
AcDbSymbolTableRecord
100
AcDbLayerTableRecord
  2
34
 70
     0
 62
    34
  6
CONTINUOUS
  0
LAYER
  5
5C
330
2
100
AcDbSymbolTableRecord
100
AcDbLayerTableRecord
  2
35
 70
     0
 62
    35
  6
CONTINUOUS
  0
LAYER
  5
5D
330
2
100
AcDbSymbolTableRecord
100
AcDbLayerTableRecord
  2
36
 70
     0
 62
    36
  6
CONTINUOUS
  0
LAYER
  5
5E
330
2
100
AcDbSymbolTableRecord
100
AcDbLayerTableRecord
  2
37
 70
     0
 62
    37
  6
CONTINUOUS
  0
LAYER
  5
5F
330
2
100
AcDbSymbolTableRecord
100
AcDbLayerTableRecord
  2
38
 70
     0
 62
    38
  6
CONTINUOUS
  0
LAYER
  5
60
330
2
100
AcDbSymbolTableRecord
100
AcDbLayerTableRecord
  2
39
 70
     0
 62
    39
  6
CONTINUOUS
  0
LAYER
  5
61
330
2
100
AcDbSymbolTableRecord
100
AcDbLayerTableRecord
  2
40
 70
     0
 62
    40
  6
CONTINUOUS
  0
LAYER
  5
62
330
2
100
AcDbSymbolTableRecord
100
AcDbLayerTableRecord
  2
41
 70
     0
 62
    41
  6
CONTINUOUS
  0
LAYER
  5
63
330
2
100
AcDbSymbolTableRecord
100
AcDbLayerTableRecord
  2
42
 70
     0
 62
    42
  6
CONTINUOUS
  0
LAYER
  5
64
330
2
100
AcDbSymbolTableRecord
100
AcDbLayerTableRecord
  2
43
 70
     0
 62
    43
  6
CONTINUOUS
  0
LAYER
  5
65
330
2
100
AcDbSymbolTableRecord
100
AcDbLayerTableRecord
  2
44
 70
     0
 62
    44
  6
CONTINUOUS
  0
LAYER
  5
66
330
2
100
AcDbSymbolTableRecord
100
AcDbLayerTableRecord
  2
45
 70
     0
 62
    45
  6
CONTINUOUS
  0
LAYER
  5
67
330
2
100
AcDbSymbolTableRecord
100
AcDbLayerTableRecord
  2
46
 70
     0
 62
    46
  6
CONTINUOUS
  0
LAYER
  5
68
330
2
100
AcDbSymbolTableRecord
100
AcDbLayerTableRecord
  2
47
 70
     0
 62
    47
  6
CONTINUOUS
  0
LAYER
  5
69
330
2
100
AcDbSymbolTableRecord
100
AcDbLayerTableRecord
  2
48
 70
     0
 62
    48
  6
CONTINUOUS
  0
LAYER
  5
6A
330
2
100
AcDbSymbolTableRecord
100
AcDbLayerTableRecord
  2
49
 70
     0
 62
    49
  6
CONTINUOUS
  0
LAYER
  5
6B
330
2
100
AcDbSymbolTableRecord
100
AcDbLayerTableRecord
  2
50
 70
     0
 62
    50
  6
CONTINUOUS
  0
LAYER
  5
6C
330
2
100
AcDbSymbolTableRecord
100
AcDbLayerTableRecord
  2
51
 70
     0
 62
    51
  6
CONTINUOUS
  0
LAYER
  5
6D
330
2
100
AcDbSymbolTableRecord
100
AcDbLayerTableRecord
  2
52
 70
     0
 62
    52
  6
CONTINUOUS
  0
LAYER
  5
6E
330
2
100
AcDbSymbolTableRecord
100
AcDbLayerTableRecord
  2
53
 70
     0
 62
    53
  6
CONTINUOUS
  0
LAYER
  5
6F
330
2
100
AcDbSymbolTableRecord
100
AcDbLayerTableRecord
  2
54
 70
     0
 62
    54
  6
CONTINUOUS
  0
LAYER
  5
70
330
2
100
AcDbSymbolTableRecord
100
AcDbLayerTableRecord
  2
55
 70
     0
 62
    55
  6
CONTINUOUS
  0
LAYER
  5
71
330
2
100
AcDbSymbolTableRecord
100
AcDbLayerTableRecord
  2
56
 70
     0
 62
    56
  6
CONTINUOUS
  0
LAYER
  5
72
330
2
100
AcDbSymbolTableRecord
100
AcDbLayerTableRecord
  2
57
 70
     0
 62
    57
  6
CONTINUOUS
  0
LAYER
  5
73
330
2
100
AcDbSymbolTableRecord
100
AcDbLayerTableRecord
  2
58
 70
     0
 62
    58
  6
CONTINUOUS
  0
LAYER
  5
74
330
2
100
AcDbSymbolTableRecord
100
AcDbLayerTableRecord
  2
59
 70
     0
 62
    59
  6
CONTINUOUS
  0
LAYER
  5
75
330
2
100
AcDbSymbolTableRecord
100
AcDbLayerTableRecord
  2
60
 70
     0
 62
    60
  6
CONTINUOUS
  0
LAYER
  5
76
330
2
100
AcDbSymbolTableRecord
100
AcDbLayerTableRecord
  2
61
 70
     0
 62
    61
  6
CONTINUOUS
  0
LAYER
  5
77
330
2
100
AcDbSymbolTableRecord
100
AcDbLayerTableRecord
  2
62
 70
     0
 62
    62
  6
CONTINUOUS
  0
LAYER
  5
78
330
2
100
AcDbSymbolTableRecord
100
AcDbLayerTableRecord
  2
63
 70
     0
 62
    63
  6
CONTINUOUS
  0
LAYER
  5
79
330
2
100
AcDbSymbolTableRecord
100
AcDbLayerTableRecord
  2
64
 70
     0
 62
    64
  6
CONTINUOUS
  0
LAYER
  5
7A
330
2
100
AcDbSymbolTableRecord
100
AcDbLayerTableRecord
  2
65
 70
     0
 62
    65
  6
CONTINUOUS
  0
LAYER
  5
7B
330
2
100
AcDbSymbolTableRecord
100
AcDbLayerTableRecord
  2
66
 70
     0
 62
    66
  6
CONTINUOUS
  0
LAYER
  5
7C
330
2
100
AcDbSymbolTableRecord
100
AcDbLayerTableRecord
  2
67
 70
     0
 62
    67
  6
CONTINUOUS
  0
LAYER
  5
7D
330
2
100
AcDbSymbolTableRecord
100
AcDbLayerTableRecord
  2
68
 70
     0
 62
    68
  6
CONTINUOUS
  0
LAYER
  5
7E
330
2
100
AcDbSymbolTableRecord
100
AcDbLayerTableRecord
  2
69
 70
     0
 62
    69
  6
CONTINUOUS
  0
LAYER
  5
7F
330
2
100
AcDbSymbolTableRecord
100
AcDbLayerTableRecord
  2
70
 70
     0
 62
    70
  6
CONTINUOUS
  0
LAYER
  5
80
330
2
100
AcDbSymbolTableRecord
100
AcDbLayerTableRecord
  2
71
 70
     0
 62
    71
  6
CONTINUOUS
  0
LAYER
  5
81
330
2
100
AcDbSymbolTableRecord
100
AcDbLayerTableRecord
  2
72
 70
     0
 62
    72
  6
CONTINUOUS
  0
LAYER
  5
82
330
2
100
AcDbSymbolTableRecord
100
AcDbLayerTableRecord
  2
73
 70
     0
 62
    73
  6
CONTINUOUS
  0
LAYER
  5
83
330
2
100
AcDbSymbolTableRecord
100
AcDbLayerTableRecord
  2
74
 70
     0
 62
    74
  6
CONTINUOUS
  0
LAYER
  5
84
330
2
100
AcDbSymbolTableRecord
100
AcDbLayerTableRecord
  2
75
 70
     0
 62
    75
  6
CONTINUOUS
  0
LAYER
  5
85
330
2
100
AcDbSymbolTableRecord
100
AcDbLayerTableRecord
  2
76
 70
     0
 62
    76
  6
CONTINUOUS
  0
LAYER
  5
86
330
2
100
AcDbSymbolTableRecord
100
AcDbLayerTableRecord
  2
77
 70
     0
 62
    77
  6
CONTINUOUS
  0
LAYER
  5
87
330
2
100
AcDbSymbolTableRecord
100
AcDbLayerTableRecord
  2
78
 70
     0
 62
    78
  6
CONTINUOUS
  0
LAYER
  5
88
330
2
100
AcDbSymbolTableRecord
100
AcDbLayerTableRecord
  2
79
 70
     0
 62
    79
  6
CONTINUOUS
  0
LAYER
  5
89
330
2
100
AcDbSymbolTableRecord
100
AcDbLayerTableRecord
  2
80
 70
     0
 62
    80
  6
CONTINUOUS
  0
LAYER
  5
8A
330
2
100
AcDbSymbolTableRecord
100
AcDbLayerTableRecord
  2
81
 70
     0
 62
    81
  6
CONTINUOUS
  0
LAYER
  5
8B
330
2
100
AcDbSymbolTableRecord
100
AcDbLayerTableRecord
  2
82
 70
     0
 62
    82
  6
CONTINUOUS
  0
LAYER
  5
8C
330
2
100
AcDbSymbolTableRecord
100
AcDbLayerTableRecord
  2
83
 70
     0
 62
    83
  6
CONTINUOUS
  0
LAYER
  5
8D
330
2
100
AcDbSymbolTableRecord
100
AcDbLayerTableRecord
  2
84
 70
     0
 62
    84
  6
CONTINUOUS
  0
LAYER
  5
8E
330
2
100
AcDbSymbolTableRecord
100
AcDbLayerTableRecord
  2
85
 70
     0
 62
    85
  6
CONTINUOUS
  0
LAYER
  5
8F
330
2
100
AcDbSymbolTableRecord
100
AcDbLayerTableRecord
  2
86
 70
     0
 62
    86
  6
CONTINUOUS
  0
LAYER
  5
90
330
2
100
AcDbSymbolTableRecord
100
AcDbLayerTableRecord
  2
87
 70
     0
 62
    87
  6
CONTINUOUS
  0
LAYER
  5
91
330
2
100
AcDbSymbolTableRecord
100
AcDbLayerTableRecord
  2
88
 70
     0
 62
    88
  6
CONTINUOUS
  0
LAYER
  5
92
330
2
100
AcDbSymbolTableRecord
100
AcDbLayerTableRecord
  2
89
 70
     0
 62
    89
  6
CONTINUOUS
  0
LAYER
  5
93
330
2
100
AcDbSymbolTableRecord
100
AcDbLayerTableRecord
  2
90
 70
     0
 62
    90
  6
CONTINUOUS
  0
LAYER
  5
94
330
2
100
AcDbSymbolTableRecord
100
AcDbLayerTableRecord
  2
91
 70
     0
 62
    91
  6
CONTINUOUS
  0
LAYER
  5
95
330
2
100
AcDbSymbolTableRecord
100
AcDbLayerTableRecord
  2
92
 70
     0
 62
    92
  6
CONTINUOUS
  0
LAYER
  5
96
330
2
100
AcDbSymbolTableRecord
100
AcDbLayerTableRecord
  2
93
 70
     0
 62
    93
  6
CONTINUOUS
  0
LAYER
  5
97
330
2
100
AcDbSymbolTableRecord
100
AcDbLayerTableRecord
  2
94
 70
     0
 62
    94
  6
CONTINUOUS
  0
LAYER
  5
98
330
2
100
AcDbSymbolTableRecord
100
AcDbLayerTableRecord
  2
95
 70
     0
 62
    95
  6
CONTINUOUS
  0
LAYER
  5
99
330
2
100
AcDbSymbolTableRecord
100
AcDbLayerTableRecord
  2
96
 70
     0
 62
    96
  6
CONTINUOUS
  0
LAYER
  5
9A
330
2
100
AcDbSymbolTableRecord
100
AcDbLayerTableRecord
  2
97
 70
     0
 62
    97
  6
CONTINUOUS
  0
LAYER
  5
9B
330
2
100
AcDbSymbolTableRecord
100
AcDbLayerTableRecord
  2
98
 70
     0
 62
    98
  6
CONTINUOUS
  0
LAYER
  5
9C
330
2
100
AcDbSymbolTableRecord
100
AcDbLayerTableRecord
  2
99
 70
     0
 62
    99
  6
CONTINUOUS
  0
LAYER
  5
9D
330
2
100
AcDbSymbolTableRecord
100
AcDbLayerTableRecord
  2
100
 70
     0
 62
   100
  6
CONTINUOUS
  0
LAYER
  5
9E
330
2
100
AcDbSymbolTableRecord
100
AcDbLayerTableRecord
  2
101
 70
     0
 62
   101
  6
CONTINUOUS
  0
LAYER
  5
9F
330
2
100
AcDbSymbolTableRecord
100
AcDbLayerTableRecord
  2
102
 70
     0
 62
   102
  6
CONTINUOUS
  0
LAYER
  5
A0
330
2
100
AcDbSymbolTableRecord
100
AcDbLayerTableRecord
  2
103
 70
     0
 62
   103
  6
CONTINUOUS
  0
LAYER
  5
A1
330
2
100
AcDbSymbolTableRecord
100
AcDbLayerTableRecord
  2
104
 70
     0
 62
   104
  6
CONTINUOUS
  0
LAYER
  5
A2
330
2
100
AcDbSymbolTableRecord
100
AcDbLayerTableRecord
  2
105
 70
     0
 62
   105
  6
CONTINUOUS
  0
LAYER
  5
A3
330
2
100
AcDbSymbolTableRecord
100
AcDbLayerTableRecord
  2
106
 70
     0
 62
   106
  6
CONTINUOUS
  0
LAYER
  5
A4
330
2
100
AcDbSymbolTableRecord
100
AcDbLayerTableRecord
  2
107
 70
     0
 62
   107
  6
CONTINUOUS
  0
LAYER
  5
A5
330
2
100
AcDbSymbolTableRecord
100
AcDbLayerTableRecord
  2
108
 70
     0
 62
   108
  6
CONTINUOUS
  0
LAYER
  5
A6
330
2
100
AcDbSymbolTableRecord
100
AcDbLayerTableRecord
  2
109
 70
     0
 62
   109
  6
CONTINUOUS
  0
LAYER
  5
A7
330
2
100
AcDbSymbolTableRecord
100
AcDbLayerTableRecord
  2
110
 70
     0
 62
   110
  6
CONTINUOUS
  0
LAYER
  5
A8
330
2
100
AcDbSymbolTableRecord
100
AcDbLayerTableRecord
  2
111
 70
     0
 62
   111
  6
CONTINUOUS
  0
LAYER
  5
A9
330
2
100
AcDbSymbolTableRecord
100
AcDbLayerTableRecord
  2
112
 70
     0
 62
   112
  6
CONTINUOUS
  0
LAYER
  5
AA
330
2
100
AcDbSymbolTableRecord
100
AcDbLayerTableRecord
  2
113
 70
     0
 62
   113
  6
CONTINUOUS
  0
LAYER
  5
AB
330
2
100
AcDbSymbolTableRecord
100
AcDbLayerTableRecord
  2
114
 70
     0
 62
   114
  6
CONTINUOUS
  0
LAYER
  5
AC
330
2
100
AcDbSymbolTableRecord
100
AcDbLayerTableRecord
  2
115
 70
     0
 62
   115
  6
CONTINUOUS
  0
LAYER
  5
AD
330
2
100
AcDbSymbolTableRecord
100
AcDbLayerTableRecord
  2
116
 70
     0
 62
   116
  6
CONTINUOUS
  0
LAYER
  5
AE
330
2
100
AcDbSymbolTableRecord
100
AcDbLayerTableRecord
  2
117
 70
     0
 62
   117
  6
CONTINUOUS
  0
LAYER
  5
AF
330
2
100
AcDbSymbolTableRecord
100
AcDbLayerTableRecord
  2
118
 70
     0
 62
   118
  6
CONTINUOUS
  0
LAYER
  5
B0
330
2
100
AcDbSymbolTableRecord
100
AcDbLayerTableRecord
  2
119
 70
     0
 62
   119
  6
CONTINUOUS
  0
LAYER
  5
B1
330
2
100
AcDbSymbolTableRecord
100
AcDbLayerTableRecord
  2
120
 70
     0
 62
   120
  6
CONTINUOUS
  0
LAYER
  5
B2
330
2
100
AcDbSymbolTableRecord
100
AcDbLayerTableRecord
  2
121
 70
     0
 62
   121
  6
CONTINUOUS
  0
LAYER
  5
B3
330
2
100
AcDbSymbolTableRecord
100
AcDbLayerTableRecord
  2
122
 70
     0
 62
   122
  6
CONTINUOUS
  0
LAYER
  5
B4
330
2
100
AcDbSymbolTableRecord
100
AcDbLayerTableRecord
  2
123
 70
     0
 62
   123
  6
CONTINUOUS
  0
LAYER
  5
B5
330
2
100
AcDbSymbolTableRecord
100
AcDbLayerTableRecord
  2
124
 70
     0
 62
   124
  6
CONTINUOUS
  0
LAYER
  5
B6
330
2
100
AcDbSymbolTableRecord
100
AcDbLayerTableRecord
  2
125
 70
     0
 62
   125
  6
CONTINUOUS
  0
LAYER
  5
B7
330
2
100
AcDbSymbolTableRecord
100
AcDbLayerTableRecord
  2
126
 70
     0
 62
   126
  6
CONTINUOUS
  0
LAYER
  5
B8
330
2
100
AcDbSymbolTableRecord
100
AcDbLayerTableRecord
  2
127
 70
     0
 62
   127
  6
CONTINUOUS
  0
LAYER
  5
B9
330
2
100
AcDbSymbolTableRecord
100
AcDbLayerTableRecord
  2
128
 70
     0
 62
   128
  6
CONTINUOUS
  0
LAYER
  5
BA
330
2
100
AcDbSymbolTableRecord
100
AcDbLayerTableRecord
  2
129
 70
     0
 62
   129
  6
CONTINUOUS
  0
LAYER
  5
BB
330
2
100
AcDbSymbolTableRecord
100
AcDbLayerTableRecord
  2
130
 70
     0
 62
   130
  6
CONTINUOUS
  0
LAYER
  5
BC
330
2
100
AcDbSymbolTableRecord
100
AcDbLayerTableRecord
  2
131
 70
     0
 62
   131
  6
CONTINUOUS
  0
LAYER
  5
BD
330
2
100
AcDbSymbolTableRecord
100
AcDbLayerTableRecord
  2
132
 70
     0
 62
   132
  6
CONTINUOUS
  0
LAYER
  5
BE
330
2
100
AcDbSymbolTableRecord
100
AcDbLayerTableRecord
  2
133
 70
     0
 62
   133
  6
CONTINUOUS
  0
LAYER
  5
BF
330
2
100
AcDbSymbolTableRecord
100
AcDbLayerTableRecord
  2
134
 70
     0
 62
   134
  6
CONTINUOUS
  0
LAYER
  5
C0
330
2
100
AcDbSymbolTableRecord
100
AcDbLayerTableRecord
  2
135
 70
     0
 62
   135
  6
CONTINUOUS
  0
LAYER
  5
C1
330
2
100
AcDbSymbolTableRecord
100
AcDbLayerTableRecord
  2
136
 70
     0
 62
   136
  6
CONTINUOUS
  0
LAYER
  5
C2
330
2
100
AcDbSymbolTableRecord
100
AcDbLayerTableRecord
  2
137
 70
     0
 62
   137
  6
CONTINUOUS
  0
LAYER
  5
C3
330
2
100
AcDbSymbolTableRecord
100
AcDbLayerTableRecord
  2
138
 70
     0
 62
   138
  6
CONTINUOUS
  0
LAYER
  5
C4
330
2
100
AcDbSymbolTableRecord
100
AcDbLayerTableRecord
  2
139
 70
     0
 62
   139
  6
CONTINUOUS
  0
LAYER
  5
C5
330
2
100
AcDbSymbolTableRecord
100
AcDbLayerTableRecord
  2
140
 70
     0
 62
   140
  6
CONTINUOUS
  0
LAYER
  5
C6
330
2
100
AcDbSymbolTableRecord
100
AcDbLayerTableRecord
  2
141
 70
     0
 62
   141
  6
CONTINUOUS
  0
LAYER
  5
C7
330
2
100
AcDbSymbolTableRecord
100
AcDbLayerTableRecord
  2
142
 70
     0
 62
   142
  6
CONTINUOUS
  0
LAYER
  5
C8
330
2
100
AcDbSymbolTableRecord
100
AcDbLayerTableRecord
  2
143
 70
     0
 62
   143
  6
CONTINUOUS
  0
LAYER
  5
C9
330
2
100
AcDbSymbolTableRecord
100
AcDbLayerTableRecord
  2
144
 70
     0
 62
   144
  6
CONTINUOUS
  0
LAYER
  5
CA
330
2
100
AcDbSymbolTableRecord
100
AcDbLayerTableRecord
  2
145
 70
     0
 62
   145
  6
CONTINUOUS
  0
LAYER
  5
CB
330
2
100
AcDbSymbolTableRecord
100
AcDbLayerTableRecord
  2
146
 70
     0
 62
   146
  6
CONTINUOUS
  0
LAYER
  5
CC
330
2
100
AcDbSymbolTableRecord
100
AcDbLayerTableRecord
  2
147
 70
     0
 62
   147
  6
CONTINUOUS
  0
LAYER
  5
CD
330
2
100
AcDbSymbolTableRecord
100
AcDbLayerTableRecord
  2
148
 70
     0
 62
   148
  6
CONTINUOUS
  0
LAYER
  5
CE
330
2
100
AcDbSymbolTableRecord
100
AcDbLayerTableRecord
  2
149
 70
     0
 62
   149
  6
CONTINUOUS
  0
LAYER
  5
CF
330
2
100
AcDbSymbolTableRecord
100
AcDbLayerTableRecord
  2
150
 70
     0
 62
   150
  6
CONTINUOUS
  0
LAYER
  5
D0
330
2
100
AcDbSymbolTableRecord
100
AcDbLayerTableRecord
  2
151
 70
     0
 62
   151
  6
CONTINUOUS
  0
LAYER
  5
D1
330
2
100
AcDbSymbolTableRecord
100
AcDbLayerTableRecord
  2
152
 70
     0
 62
   152
  6
CONTINUOUS
  0
LAYER
  5
D2
330
2
100
AcDbSymbolTableRecord
100
AcDbLayerTableRecord
  2
153
 70
     0
 62
   153
  6
CONTINUOUS
  0
LAYER
  5
D3
330
2
100
AcDbSymbolTableRecord
100
AcDbLayerTableRecord
  2
154
 70
     0
 62
   154
  6
CONTINUOUS
  0
LAYER
  5
D4
330
2
100
AcDbSymbolTableRecord
100
AcDbLayerTableRecord
  2
155
 70
     0
 62
   155
  6
CONTINUOUS
  0
LAYER
  5
D5
330
2
100
AcDbSymbolTableRecord
100
AcDbLayerTableRecord
  2
156
 70
     0
 62
   156
  6
CONTINUOUS
  0
LAYER
  5
D6
330
2
100
AcDbSymbolTableRecord
100
AcDbLayerTableRecord
  2
157
 70
     0
 62
   157
  6
CONTINUOUS
  0
LAYER
  5
D7
330
2
100
AcDbSymbolTableRecord
100
AcDbLayerTableRecord
  2
158
 70
     0
 62
   158
  6
CONTINUOUS
  0
LAYER
  5
D8
330
2
100
AcDbSymbolTableRecord
100
AcDbLayerTableRecord
  2
159
 70
     0
 62
   159
  6
CONTINUOUS
  0
LAYER
  5
D9
330
2
100
AcDbSymbolTableRecord
100
AcDbLayerTableRecord
  2
160
 70
     0
 62
   160
  6
CONTINUOUS
  0
LAYER
  5
DA
330
2
100
AcDbSymbolTableRecord
100
AcDbLayerTableRecord
  2
161
 70
     0
 62
   161
  6
CONTINUOUS
  0
LAYER
  5
DB
330
2
100
AcDbSymbolTableRecord
100
AcDbLayerTableRecord
  2
162
 70
     0
 62
   162
  6
CONTINUOUS
  0
LAYER
  5
DC
330
2
100
AcDbSymbolTableRecord
100
AcDbLayerTableRecord
  2
163
 70
     0
 62
   163
  6
CONTINUOUS
  0
LAYER
  5
DD
330
2
100
AcDbSymbolTableRecord
100
AcDbLayerTableRecord
  2
164
 70
     0
 62
   164
  6
CONTINUOUS
  0
LAYER
  5
DE
330
2
100
AcDbSymbolTableRecord
100
AcDbLayerTableRecord
  2
165
 70
     0
 62
   165
  6
CONTINUOUS
  0
LAYER
  5
DF
330
2
100
AcDbSymbolTableRecord
100
AcDbLayerTableRecord
  2
166
 70
     0
 62
   166
  6
CONTINUOUS
  0
LAYER
  5
E0
330
2
100
AcDbSymbolTableRecord
100
AcDbLayerTableRecord
  2
167
 70
     0
 62
   167
  6
CONTINUOUS
  0
LAYER
  5
E1
330
2
100
AcDbSymbolTableRecord
100
AcDbLayerTableRecord
  2
168
 70
     0
 62
   168
  6
CONTINUOUS
  0
LAYER
  5
E2
330
2
100
AcDbSymbolTableRecord
100
AcDbLayerTableRecord
  2
169
 70
     0
 62
   169
  6
CONTINUOUS
  0
LAYER
  5
E3
330
2
100
AcDbSymbolTableRecord
100
AcDbLayerTableRecord
  2
170
 70
     0
 62
   170
  6
CONTINUOUS
  0
LAYER
  5
E4
330
2
100
AcDbSymbolTableRecord
100
AcDbLayerTableRecord
  2
171
 70
     0
 62
   171
  6
CONTINUOUS
  0
LAYER
  5
E5
330
2
100
AcDbSymbolTableRecord
100
AcDbLayerTableRecord
  2
172
 70
     0
 62
   172
  6
CONTINUOUS
  0
LAYER
  5
E6
330
2
100
AcDbSymbolTableRecord
100
AcDbLayerTableRecord
  2
173
 70
     0
 62
   173
  6
CONTINUOUS
  0
LAYER
  5
E7
330
2
100
AcDbSymbolTableRecord
100
AcDbLayerTableRecord
  2
174
 70
     0
 62
   174
  6
CONTINUOUS
  0
LAYER
  5
E8
330
2
100
AcDbSymbolTableRecord
100
AcDbLayerTableRecord
  2
175
 70
     0
 62
   175
  6
CONTINUOUS
  0
LAYER
  5
E9
330
2
100
AcDbSymbolTableRecord
100
AcDbLayerTableRecord
  2
176
 70
     0
 62
   176
  6
CONTINUOUS
  0
LAYER
  5
EA
330
2
100
AcDbSymbolTableRecord
100
AcDbLayerTableRecord
  2
177
 70
     0
 62
   177
  6
CONTINUOUS
  0
LAYER
  5
EB
330
2
100
AcDbSymbolTableRecord
100
AcDbLayerTableRecord
  2
178
 70
     0
 62
   178
  6
CONTINUOUS
  0
LAYER
  5
EC
330
2
100
AcDbSymbolTableRecord
100
AcDbLayerTableRecord
  2
179
 70
     0
 62
   179
  6
CONTINUOUS
  0
LAYER
  5
ED
330
2
100
AcDbSymbolTableRecord
100
AcDbLayerTableRecord
  2
180
 70
     0
 62
   180
  6
CONTINUOUS
  0
LAYER
  5
EE
330
2
100
AcDbSymbolTableRecord
100
AcDbLayerTableRecord
  2
181
 70
     0
 62
   181
  6
CONTINUOUS
  0
LAYER
  5
EF
330
2
100
AcDbSymbolTableRecord
100
AcDbLayerTableRecord
  2
182
 70
     0
 62
   182
  6
CONTINUOUS
  0
LAYER
  5
F0
330
2
100
AcDbSymbolTableRecord
100
AcDbLayerTableRecord
  2
183
 70
     0
 62
   183
  6
CONTINUOUS
  0
LAYER
  5
F1
330
2
100
AcDbSymbolTableRecord
100
AcDbLayerTableRecord
  2
184
 70
     0
 62
   184
  6
CONTINUOUS
  0
LAYER
  5
F2
330
2
100
AcDbSymbolTableRecord
100
AcDbLayerTableRecord
  2
185
 70
     0
 62
   185
  6
CONTINUOUS
  0
LAYER
  5
F3
330
2
100
AcDbSymbolTableRecord
100
AcDbLayerTableRecord
  2
186
 70
     0
 62
   186
  6
CONTINUOUS
  0
LAYER
  5
F4
330
2
100
AcDbSymbolTableRecord
100
AcDbLayerTableRecord
  2
187
 70
     0
 62
   187
  6
CONTINUOUS
  0
LAYER
  5
F5
330
2
100
AcDbSymbolTableRecord
100
AcDbLayerTableRecord
  2
188
 70
     0
 62
   188
  6
CONTINUOUS
  0
LAYER
  5
F6
330
2
100
AcDbSymbolTableRecord
100
AcDbLayerTableRecord
  2
189
 70
     0
 62
   189
  6
CONTINUOUS
  0
LAYER
  5
F7
330
2
100
AcDbSymbolTableRecord
100
AcDbLayerTableRecord
  2
190
 70
     0
 62
   190
  6
CONTINUOUS
  0
LAYER
  5
F8
330
2
100
AcDbSymbolTableRecord
100
AcDbLayerTableRecord
  2
191
 70
     0
 62
   191
  6
CONTINUOUS
  0
LAYER
  5
F9
330
2
100
AcDbSymbolTableRecord
100
AcDbLayerTableRecord
  2
192
 70
     0
 62
   192
  6
CONTINUOUS
  0
LAYER
  5
FA
330
2
100
AcDbSymbolTableRecord
100
AcDbLayerTableRecord
  2
193
 70
     0
 62
   193
  6
CONTINUOUS
  0
LAYER
  5
FB
330
2
100
AcDbSymbolTableRecord
100
AcDbLayerTableRecord
  2
194
 70
     0
 62
   194
  6
CONTINUOUS
  0
LAYER
  5
FC
330
2
100
AcDbSymbolTableRecord
100
AcDbLayerTableRecord
  2
195
 70
     0
 62
   195
  6
CONTINUOUS
  0
LAYER
  5
FD
330
2
100
AcDbSymbolTableRecord
100
AcDbLayerTableRecord
  2
196
 70
     0
 62
   196
  6
CONTINUOUS
  0
LAYER
  5
FE
330
2
100
AcDbSymbolTableRecord
100
AcDbLayerTableRecord
  2
197
 70
     0
 62
   197
  6
CONTINUOUS
  0
LAYER
  5
FF
330
2
100
AcDbSymbolTableRecord
100
AcDbLayerTableRecord
  2
198
 70
     0
 62
   198
  6
CONTINUOUS
  0
LAYER
  5
100
330
2
100
AcDbSymbolTableRecord
100
AcDbLayerTableRecord
  2
199
 70
     0
 62
   199
  6
CONTINUOUS
  0
LAYER
  5
101
330
2
100
AcDbSymbolTableRecord
100
AcDbLayerTableRecord
  2
200
 70
     0
 62
   200
  6
CONTINUOUS
  0
LAYER
  5
102
330
2
100
AcDbSymbolTableRecord
100
AcDbLayerTableRecord
  2
201
 70
     0
 62
   201
  6
CONTINUOUS
  0
LAYER
  5
103
330
2
100
AcDbSymbolTableRecord
100
AcDbLayerTableRecord
  2
202
 70
     0
 62
   202
  6
CONTINUOUS
  0
LAYER
  5
104
330
2
100
AcDbSymbolTableRecord
100
AcDbLayerTableRecord
  2
203
 70
     0
 62
   203
  6
CONTINUOUS
  0
LAYER
  5
105
330
2
100
AcDbSymbolTableRecord
100
AcDbLayerTableRecord
  2
204
 70
     0
 62
   204
  6
CONTINUOUS
  0
LAYER
  5
106
330
2
100
AcDbSymbolTableRecord
100
AcDbLayerTableRecord
  2
205
 70
     0
 62
   205
  6
CONTINUOUS
  0
LAYER
  5
107
330
2
100
AcDbSymbolTableRecord
100
AcDbLayerTableRecord
  2
206
 70
     0
 62
   206
  6
CONTINUOUS
  0
LAYER
  5
108
330
2
100
AcDbSymbolTableRecord
100
AcDbLayerTableRecord
  2
207
 70
     0
 62
   207
  6
CONTINUOUS
  0
LAYER
  5
109
330
2
100
AcDbSymbolTableRecord
100
AcDbLayerTableRecord
  2
208
 70
     0
 62
   208
  6
CONTINUOUS
  0
LAYER
  5
10A
330
2
100
AcDbSymbolTableRecord
100
AcDbLayerTableRecord
  2
209
 70
     0
 62
   209
  6
CONTINUOUS
  0
LAYER
  5
10B
330
2
100
AcDbSymbolTableRecord
100
AcDbLayerTableRecord
  2
210
 70
     0
 62
   210
  6
CONTINUOUS
  0
LAYER
  5
10C
330
2
100
AcDbSymbolTableRecord
100
AcDbLayerTableRecord
  2
211
 70
     0
 62
   211
  6
CONTINUOUS
  0
LAYER
  5
10D
330
2
100
AcDbSymbolTableRecord
100
AcDbLayerTableRecord
  2
212
 70
     0
 62
   212
  6
CONTINUOUS
  0
LAYER
  5
10E
330
2
100
AcDbSymbolTableRecord
100
AcDbLayerTableRecord
  2
213
 70
     0
 62
   213
  6
CONTINUOUS
  0
LAYER
  5
10F
330
2
100
AcDbSymbolTableRecord
100
AcDbLayerTableRecord
  2
214
 70
     0
 62
   214
  6
CONTINUOUS
  0
LAYER
  5
110
330
2
100
AcDbSymbolTableRecord
100
AcDbLayerTableRecord
  2
215
 70
     0
 62
   215
  6
CONTINUOUS
  0
LAYER
  5
111
330
2
100
AcDbSymbolTableRecord
100
AcDbLayerTableRecord
  2
216
 70
     0
 62
   216
  6
CONTINUOUS
  0
LAYER
  5
112
330
2
100
AcDbSymbolTableRecord
100
AcDbLayerTableRecord
  2
217
 70
     0
 62
   217
  6
CONTINUOUS
  0
LAYER
  5
113
330
2
100
AcDbSymbolTableRecord
100
AcDbLayerTableRecord
  2
218
 70
     0
 62
   218
  6
CONTINUOUS
  0
LAYER
  5
114
330
2
100
AcDbSymbolTableRecord
100
AcDbLayerTableRecord
  2
219
 70
     0
 62
   219
  6
CONTINUOUS
  0
LAYER
  5
115
330
2
100
AcDbSymbolTableRecord
100
AcDbLayerTableRecord
  2
220
 70
     0
 62
   220
  6
CONTINUOUS
  0
LAYER
  5
116
330
2
100
AcDbSymbolTableRecord
100
AcDbLayerTableRecord
  2
221
 70
     0
 62
   221
  6
CONTINUOUS
  0
LAYER
  5
117
330
2
100
AcDbSymbolTableRecord
100
AcDbLayerTableRecord
  2
222
 70
     0
 62
   222
  6
CONTINUOUS
  0
LAYER
  5
118
330
2
100
AcDbSymbolTableRecord
100
AcDbLayerTableRecord
  2
223
 70
     0
 62
   223
  6
CONTINUOUS
  0
LAYER
  5
119
330
2
100
AcDbSymbolTableRecord
100
AcDbLayerTableRecord
  2
224
 70
     0
 62
   224
  6
CONTINUOUS
  0
LAYER
  5
11A
330
2
100
AcDbSymbolTableRecord
100
AcDbLayerTableRecord
  2
225
 70
     0
 62
   225
  6
CONTINUOUS
  0
LAYER
  5
11B
330
2
100
AcDbSymbolTableRecord
100
AcDbLayerTableRecord
  2
226
 70
     0
 62
   226
  6
CONTINUOUS
  0
LAYER
  5
11C
330
2
100
AcDbSymbolTableRecord
100
AcDbLayerTableRecord
  2
227
 70
     0
 62
   227
  6
CONTINUOUS
  0
LAYER
  5
11D
330
2
100
AcDbSymbolTableRecord
100
AcDbLayerTableRecord
  2
228
 70
     0
 62
   228
  6
CONTINUOUS
  0
LAYER
  5
11E
330
2
100
AcDbSymbolTableRecord
100
AcDbLayerTableRecord
  2
229
 70
     0
 62
   229
  6
CONTINUOUS
  0
LAYER
  5
11F
330
2
100
AcDbSymbolTableRecord
100
AcDbLayerTableRecord
  2
230
 70
     0
 62
   230
  6
CONTINUOUS
  0
LAYER
  5
120
330
2
100
AcDbSymbolTableRecord
100
AcDbLayerTableRecord
  2
231
 70
     0
 62
   231
  6
CONTINUOUS
  0
LAYER
  5
121
330
2
100
AcDbSymbolTableRecord
100
AcDbLayerTableRecord
  2
232
 70
     0
 62
   232
  6
CONTINUOUS
  0
LAYER
  5
122
330
2
100
AcDbSymbolTableRecord
100
AcDbLayerTableRecord
  2
233
 70
     0
 62
   233
  6
CONTINUOUS
  0
LAYER
  5
123
330
2
100
AcDbSymbolTableRecord
100
AcDbLayerTableRecord
  2
234
 70
     0
 62
   234
  6
CONTINUOUS
  0
LAYER
  5
124
330
2
100
AcDbSymbolTableRecord
100
AcDbLayerTableRecord
  2
235
 70
     0
 62
   235
  6
CONTINUOUS
  0
LAYER
  5
125
330
2
100
AcDbSymbolTableRecord
100
AcDbLayerTableRecord
  2
236
 70
     0
 62
   236
  6
CONTINUOUS
  0
LAYER
  5
126
330
2
100
AcDbSymbolTableRecord
100
AcDbLayerTableRecord
  2
237
 70
     0
 62
   237
  6
CONTINUOUS
  0
LAYER
  5
127
330
2
100
AcDbSymbolTableRecord
100
AcDbLayerTableRecord
  2
238
 70
     0
 62
   238
  6
CONTINUOUS
  0
LAYER
  5
128
330
2
100
AcDbSymbolTableRecord
100
AcDbLayerTableRecord
  2
239
 70
     0
 62
   239
  6
CONTINUOUS
  0
LAYER
  5
129
330
2
100
AcDbSymbolTableRecord
100
AcDbLayerTableRecord
  2
240
 70
     0
 62
   240
  6
CONTINUOUS
  0
LAYER
  5
12A
330
2
100
AcDbSymbolTableRecord
100
AcDbLayerTableRecord
  2
241
 70
     0
 62
   241
  6
CONTINUOUS
  0
LAYER
  5
12B
330
2
100
AcDbSymbolTableRecord
100
AcDbLayerTableRecord
  2
242
 70
     0
 62
   242
  6
CONTINUOUS
  0
LAYER
  5
12C
330
2
100
AcDbSymbolTableRecord
100
AcDbLayerTableRecord
  2
243
 70
     0
 62
   243
  6
CONTINUOUS
  0
LAYER
  5
12D
330
2
100
AcDbSymbolTableRecord
100
AcDbLayerTableRecord
  2
244
 70
     0
 62
   244
  6
CONTINUOUS
  0
LAYER
  5
12E
330
2
100
AcDbSymbolTableRecord
100
AcDbLayerTableRecord
  2
245
 70
     0
 62
   245
  6
CONTINUOUS
  0
LAYER
  5
12F
330
2
100
AcDbSymbolTableRecord
100
AcDbLayerTableRecord
  2
246
 70
     0
 62
   246
  6
CONTINUOUS
  0
LAYER
  5
130
330
2
100
AcDbSymbolTableRecord
100
AcDbLayerTableRecord
  2
247
 70
     0
 62
   247
  6
CONTINUOUS
  0
LAYER
  5
131
330
2
100
AcDbSymbolTableRecord
100
AcDbLayerTableRecord
  2
248
 70
     0
 62
   248
  6
CONTINUOUS
  0
LAYER
  5
132
330
2
100
AcDbSymbolTableRecord
100
AcDbLayerTableRecord
  2
249
 70
     0
 62
   249
  6
CONTINUOUS
  0
LAYER
  5
133
330
2
100
AcDbSymbolTableRecord
100
AcDbLayerTableRecord
  2
250
 70
     0
 62
   250
  6
CONTINUOUS
  0
LAYER
  5
134
330
2
100
AcDbSymbolTableRecord
100
AcDbLayerTableRecord
  2
251
 70
     0
 62
   251
  6
CONTINUOUS
  0
LAYER
  5
135
330
2
100
AcDbSymbolTableRecord
100
AcDbLayerTableRecord
  2
252
 70
     0
 62
   252
  6
CONTINUOUS
  0
LAYER
  5
136
330
2
100
AcDbSymbolTableRecord
100
AcDbLayerTableRecord
  2
253
 70
     0
 62
   253
  6
CONTINUOUS
  0
LAYER
  5
137
330
2
100
AcDbSymbolTableRecord
100
AcDbLayerTableRecord
  2
254
 70
     0
 62
   254
  6
CONTINUOUS
  0
LAYER
  5
138
330
2
100
AcDbSymbolTableRecord
100
AcDbLayerTableRecord
  2
255
 70
     0
 62
   255
  6
CONTINUOUS
  0
ENDTAB
  0
TABLE
  2
STYLE
  5
3
330
0
100
AcDbSymbolTable
 70
     1
  0
STYLE
  5
11
330
3
100
AcDbSymbolTableRecord
100
AcDbTextStyleTableRecord
  2
STANDARD
 70
     0
 40
0.0
 41
1.0
 50
0.0
 71
     0
 42
0.2
  3
monotxt
  4

  0
ENDTAB
  0
TABLE
  2
VIEW
  5
6
330
0
100
AcDbSymbolTable
 70
     0
  0
ENDTAB
  0
TABLE
  2
UCS
  5
7
330
0
100
AcDbSymbolTable
 70
     0
  0
ENDTAB
  0
TABLE
  2
APPID
  5
9
330
0
100
AcDbSymbolTable
 70
     1
  0
APPID
  5
12
330
9
100
AcDbSymbolTableRecord
100
AcDbRegAppTableRecord
  2
ACAD
 70
     0
  0
ENDTAB
  0
TABLE
  2
DIMSTYLE
  5
A
330
0
100
AcDbSymbolTable
 70
     1
  0
DIMSTYLE
105
2CEB
330
A
100
AcDbSymbolTableRecord
100
AcDbDimStyleTableRecord
  2
STANDARD
 70
     0
  3

  4

  5

  6

  7

 40
1.0
 41
0.18
 42
0.0625
 43
0.38
 44
0.18
 45
0.0
 46
0.0
 47
0.0
 48
0.0
140
0.18
141
0.09
142
0.0
143
25.4
144
1.0
145
0.0
146
1.0
147
0.09
 71
     0
 72
     0
 73
     1
 74
     1
 75
     0
 76
     0
 77
     0
 78
     0
170
     0
171
     2
172
     0
173
     0
174
     0
175
     0
176
     0
177
     0
178
     0
270
     2
271
     4
272
     4
273
     2
274
     2
340
11
275
     0
280
     0
281
     0
282
     0
283
     1
284
     0
285
     0
286
     0
287
     3
288
     0
  0
ENDTAB
  0
TABLE
  2
BLOCK_RECORD
  5
1
330
0
100
AcDbSymbolTable
 70
     0
  0
BLOCK_RECORD
  5
1E
102
{ACAD_XDICTIONARY
360
31C0
102
}
330
1
100
AcDbSymbolTableRecord
100
AcDbBlockTableRecord
  2
*MODEL_SPACE
  0
BLOCK_RECORD
  5
1A
102
{ACAD_XDICTIONARY
360
31C2
102
}
330
1
100
AcDbSymbolTableRecord
100
AcDbBlockTableRecord
  2
*PAPER_SPACE
  0
ENDTAB
  0
ENDSEC
  0
SECTION
  2
BLOCKS
  0
BLOCK
  5
13B
330
1E
100
AcDbEntity
  8
0
100
AcDbBlockBegin
  2
*MODEL_SPACE
 70
     0
 10
0.0
 20
0.0
 30
0.0
  3
*MODEL_SPACE
  1

  0
ENDBLK
  5
13C
330
1E
100
AcDbEntity
  8
0
100
AcDbBlockEnd
  0
BLOCK
  5
139
330
1A
100
AcDbEntity
 67
     1
  8
0
100
AcDbBlockBegin
  2
*PAPER_SPACE
 70
     0
 10
0.0
 20
0.0
 30
0.0
  3
*PAPER_SPACE
  1

  0
ENDBLK
  5
13A
330
1A
100
AcDbEntity
 67
     1
  8
0
100
AcDbBlockEnd
  0
ENDSEC
  0
SECTION
  2
ENTITIES
  0
LINE
  5
13E
330
1E
100
AcDbEntity
  8
7
100
AcDbLine
 10
6.036417322834644
 20
6.337598425196849
 30
0.0
 11
4.374015748031495
 21
6.337598425196849
 31
0.0
  0
LINE
  5
13F
330
1E
100
AcDbEntity
  8
7
100
AcDbLine
 10
5.893700787401573
 20
6.649606299212597
 30
0.0
 11
4.516732283464566
 21
6.649606299212597
 31
0.0
  0
LINE
  5
16C
330
1E
100
AcDbEntity
  8
7
100
AcDbLine
 10
5.269685039370077
 20
5.775590551181101
 30
0.0
 11
6.036417322834644
 21
5.775590551181101
 31
0.0
  0
LINE
  5
16D
330
1E
100
AcDbEntity
  8
7
100
AcDbLine
 10
5.269685039370077
 20
5.775590551181101
 30
0.0
 11
5.268700787401574
 21
5.775590551181101
 31
0.0
  0
LINE
  5
175
330
1E
100
AcDbEntity
  8
7
100
AcDbLine
 10
4.374015748031495
 20
5.775590551181101
 30
0.0
 11
5.139763779527558
 21
5.775590551181101
 31
0.0
  0
LINE
  5
17D
330
1E
100
AcDbEntity
  8
7
100
AcDbLine
 10
5.141732283464566
 20
5.775590551181101
 30
0.0
 11
5.139763779527558
 21
5.775590551181101
 31
0.0
  0
LINE
  5
184
330
1E
100
AcDbEntity
  8
7
100
AcDbLine
 10
5.24803149606299
 20
6.028543307086612
 30
0.0
 11
5.162401574803148
 21
6.028543307086612
 31
0.0
  0
LINE
  5
198
330
1E
100
AcDbEntity
  8
7
100
AcDbLine
 10
4.323818897637795
 20
6.288385826771652
 30
0.0
 11
4.323818897637795
 21
6.287401574803148
 31
0.0
  0
LINE
  5
1AA
330
1E
100
AcDbEntity
  8
7
100
AcDbLine
 10
5.302165354330707
 20
5.577755905511811
 30
0.0
 11
5.302165354330707
 21
5.590551181102362
 31
0.0
  0
LINE
  5
1B8
330
1E
100
AcDbEntity
  8
7
100
AcDbLine
 10
5.302165354330707
 20
5.590551181102362
 30
0.0
 11
5.305118110236219
 21
5.736220472440943
 31
0.0
  0
LINE
  5
1BE
330
1E
100
AcDbEntity
  8
7
100
AcDbLine
 10
5.164370078740157
 20
6.025590551181101
 30
0.0
 11
5.245078740157478
 21
6.025590551181101
 31
0.0
  0
LINE
  5
1BF
330
1E
100
AcDbEntity
  8
7
100
AcDbLine
 10
5.139763779527558
 20
5.736220472440943
 30
0.0
 11
5.164370078740157
 21
6.025590551181101
 31
0.0
  0
LINE
  5
1C0
330
1E
100
AcDbEntity
  8
7
100
AcDbLine
 10
5.139763779527558
 20
5.736220472440943
 30
0.0
 11
5.105314960629921
 21
5.736220472440943
 31
0.0
  0
LINE
  5
1C1
330
1E
100
AcDbEntity
  8
7
100
AcDbLine
 10
5.107283464566927
 20
5.590551181102362
 30
0.0
 11
5.105314960629921
 21
5.736220472440943
 31
0.0
  0
LINE
  5
1C2
330
1E
100
AcDbEntity
  8
7
100
AcDbLine
 10
5.3001968503937
 20
5.460629921259841
 30
0.0
 11
5.11023622047244
 21
5.460629921259841
 31
0.0
  0
LINE
  5
1D0
330
1E
100
AcDbEntity
  8
7
100
AcDbLine
 10
5.11023622047244
 20
5.460629921259841
 30
0.0
 11
5.11023622047244
 21
5.468503937007874
 31
0.0
  0
LINE
  5
1D1
330
1E
100
AcDbEntity
  8
7
100
AcDbLine
 10
5.302165354330707
 20
5.590551181102362
 30
0.0
 11
5.107283464566927
 21
5.590551181102362
 31
0.0
  0
LINE
  5
1D2
330
1E
100
AcDbEntity
  8
7
100
AcDbLine
 10
5.108267716535431
 20
5.577755905511811
 30
0.0
 11
5.302165354330707
 21
5.577755905511811
 31
0.0
  0
LINE
  5
1D3
330
1E
100
AcDbEntity
  8
7
100
AcDbLine
 10
5.302165354330707
 20
5.565944881889762
 30
0.0
 11
5.108267716535431
 21
5.565944881889762
 31
0.0
  0
LINE
  5
1D4
330
1E
100
AcDbEntity
  8
7
100
AcDbLine
 10
5.11023622047244
 20
5.468503937007874
 30
0.0
 11
5.3001968503937
 21
5.468503937007874
 31
0.0
  0
LINE
  5
1D5
330
1E
100
AcDbEntity
  8
7
100
AcDbLine
 10
4.691929133858266
 20
5.480314960629921
 30
0.0
 11
4.687007874015747
 21
5.775590551181101
 31
0.0
  0
LINE
  5
1D6
330
1E
100
AcDbEntity
  8
7
100
AcDbLine
 10
4.691929133858266
 20
5.480314960629921
 30
0.0
 11
4.882874015748031
 21
5.480314960629921
 31
0.0
  0
LINE
  5
1D7
330
1E
100
AcDbEntity
  8
7
100
AcDbLine
 10
4.882874015748031
 20
5.480314960629921
 30
0.0
 11
4.88779527559055
 21
5.775590551181101
 31
0.0
  0
LINE
  5
1E0
330
1E
100
AcDbEntity
  8
7
100
AcDbLine
 10
4.406496062992125
 20
5.590551181102362
 30
0.0
 11
4.406496062992125
 21
5.736220472440943
 31
0.0
  0
LINE
  5
1E1
330
1E
100
AcDbEntity
  8
7
100
AcDbLine
 10
4.472440944881888
 20
5.480314960629921
 30
0.0
 11
4.477362204724409
 21
5.775590551181101
 31
0.0
  0
LINE
  5
1E9
330
1E
100
AcDbEntity
  8
7
100
AcDbLine
 10
4.406496062992125
 20
5.590551181102362
 30
0.0
 11
4.354330708661415
 21
5.590551181102362
 31
0.0
  0
LINE
  5
1EA
330
1E
100
AcDbEntity
  8
7
100
AcDbLine
 10
4.354330708661415
 20
5.577755905511811
 30
0.0
 11
4.354330708661415
 21
5.590551181102362
 31
0.0
  0
LINE
  5
1F6
330
1E
100
AcDbEntity
  8
7
100
AcDbLine
 10
6.002952755905511
 20
5.590551181102362
 30
0.0
 11
6.002952755905511
 21
5.736220472440943
 31
0.0
  0
LINE
  5
1F7
330
1E
100
AcDbEntity
  8
7
100
AcDbLine
 10
5.937992125984251
 20
5.480314960629921
 30
0.0
 11
5.933070866141731
 21
5.775590551181101
 31
0.0
  0
LINE
  5
206
330
1E
100
AcDbEntity
  8
7
100
AcDbLine
 10
5.52755905511811
 20
5.480314960629921
 30
0.0
 11
5.522637795275588
 21
5.775590551181101
 31
0.0
  0
LINE
  5
211
330
1E
100
AcDbEntity
  8
7
100
AcDbLine
 10
5.717519685039368
 20
5.460629921259841
 30
0.0
 11
5.52755905511811
 21
5.460629921259841
 31
0.0
  0
LINE
  5
235
330
1E
100
AcDbEntity
  8
7
100
AcDbLine
 10
5.162401574803148
 20
6.028543307086612
 30
0.0
 11
5.164370078740157
 21
6.025590551181101
 31
0.0
  0
LINE
  5
236
330
1E
100
AcDbEntity
  8
7
100
AcDbLine
 10
5.245078740157478
 20
6.025590551181101
 30
0.0
 11
5.24803149606299
 21
6.028543307086612
 31
0.0
  0
LINE
  5
237
330
1E
100
AcDbEntity
  8
7
100
AcDbLine
 10
5.162401574803148
 20
6.028543307086612
 30
0.0
 11
5.139763779527558
 21
5.775590551181101
 31
0.0
  0
LINE
  5
23F
330
1E
100
AcDbEntity
  8
7
100
AcDbLine
 10
5.269685039370077
 20
5.775590551181101
 30
0.0
 11
5.24803149606299
 21
6.028543307086612
 31
0.0
  0
LINE
  5
247
330
1E
100
AcDbEntity
  8
7
100
AcDbLine
 10
4.323818897637795
 20
5.775590551181101
 30
0.0
 11
4.318897637795275
 21
6.028543307086612
 31
0.0
  0
LINE
  5
248
330
1E
100
AcDbEntity
  8
7
100
AcDbLine
 10
4.369094488188975
 20
6.028543307086612
 30
0.0
 11
4.374015748031495
 21
5.775590551181101
 31
0.0
  0
LINE
  5
249
330
1E
100
AcDbEntity
  8
7
100
AcDbLine
 10
6.036417322834644
 20
5.775590551181101
 30
0.0
 11
6.040354330708661
 21
6.028543307086612
 31
0.0
  0
LINE
  5
24A
330
1E
100
AcDbEntity
  8
7
100
AcDbLine
 10
6.090551181102362
 20
6.028543307086612
 30
0.0
 11
6.086614173228346
 21
5.775590551181101
 31
0.0
  0
LINE
  5
28E
330
1E
100
AcDbEntity
  8
7
100
AcDbLine
 10
5.834645669291337
 20
6.469488188976378
 30
0.0
 11
5.76771653543307
 21
6.469488188976378
 31
0.0
  0
LINE
  5
28F
330
1E
100
AcDbEntity
  8
7
100
AcDbLine
 10
5.76771653543307
 20
6.504921259842518
 30
0.0
 11
5.718503937007874
 21
6.504921259842518
 31
0.0
  0
LINE
  5
290
330
1E
100
AcDbEntity
  8
7
100
AcDbLine
 10
4.64271653543307
 20
6.504921259842518
 30
0.0
 11
4.691929133858266
 21
6.504921259842518
 31
0.0
  0
LINE
  5
291
330
1E
100
AcDbEntity
  8
7
100
AcDbLine
 10
4.641732283464566
 20
6.469488188976378
 30
0.0
 11
4.574803149606299
 21
6.469488188976378
 31
0.0
  0
LINE
  5
292
330
1E
100
AcDbEntity
  8
7
100
AcDbLine
 10
5.680118110236219
 20
6.530511811023621
 30
0.0
 11
5.625
 21
6.530511811023621
 31
0.0
  0
LINE
  5
293
330
1E
100
AcDbEntity
  8
7
100
AcDbLine
 10
5.681102362204723
 20
6.504921259842518
 30
0.0
 11
5.624015748031494
 21
6.504921259842518
 31
0.0
  0
LINE
  5
294
330
1E
100
AcDbEntity
  8
7
100
AcDbLine
 10
5.718503937007874
 20
6.504921259842518
 30
0.0
 11
5.718503937007874
 21
6.530511811023621
 31
0.0
  0
LINE
  5
295
330
1E
100
AcDbEntity
  8
7
100
AcDbLine
 10
5.76771653543307
 20
6.530511811023621
 30
0.0
 11
5.718503937007874
 21
6.530511811023621
 31
0.0
  0
LINE
  5
296
330
1E
100
AcDbEntity
  8
7
100
AcDbLine
 10
5.276574803149605
 20
6.58267716535433
 30
0.0
 11
5.419291338582675
 21
6.58267716535433
 31
0.0
  0
LINE
  5
297
330
1E
100
AcDbEntity
  8
7
100
AcDbLine
 10
5.276574803149605
 20
6.58267716535433
 30
0.0
 11
5.27755905511811
 21
6.530511811023621
 31
0.0
  0
LINE
  5
298
330
1E
100
AcDbEntity
  8
7
100
AcDbLine
 10
5.326771653543306
 20
6.530511811023621
 30
0.0
 11
5.27755905511811
 21
6.530511811023621
 31
0.0
  0
LINE
  5
299
330
1E
100
AcDbEntity
  8
7
100
AcDbLine
 10
5.364173228346456
 20
6.530511811023621
 30
0.0
 11
5.326771653543306
 21
6.530511811023621
 31
0.0
  0
LINE
  5
29A
330
1E
100
AcDbEntity
  8
7
100
AcDbLine
 10
5.420275590551179
 20
6.530511811023621
 30
0.0
 11
5.364173228346456
 21
6.530511811023621
 31
0.0
  0
LINE
  5
29B
330
1E
100
AcDbEntity
  8
7
100
AcDbLine
 10
5.420275590551179
 20
6.504921259842518
 30
0.0
 11
5.364173228346456
 21
6.504921259842518
 31
0.0
  0
LINE
  5
29C
330
1E
100
AcDbEntity
  8
7
100
AcDbLine
 10
4.99015748031496
 20
6.530511811023621
 30
0.0
 11
5.045275590551179
 21
6.530511811023621
 31
0.0
  0
LINE
  5
29D
330
1E
100
AcDbEntity
  8
7
100
AcDbLine
 10
4.989173228346456
 20
6.504921259842518
 30
0.0
 11
5.045275590551179
 21
6.504921259842518
 31
0.0
  0
LINE
  5
29E
330
1E
100
AcDbEntity
  8
7
100
AcDbLine
 10
4.729330708661415
 20
6.504921259842518
 30
0.0
 11
4.785433070866141
 21
6.504921259842518
 31
0.0
  0
LINE
  5
29F
330
1E
100
AcDbEntity
  8
7
100
AcDbLine
 10
4.729330708661415
 20
6.530511811023621
 30
0.0
 11
4.785433070866141
 21
6.530511811023621
 31
0.0
  0
LINE
  5
2A0
330
1E
100
AcDbEntity
  8
7
100
AcDbLine
 10
5.133858267716535
 20
6.58267716535433
 30
0.0
 11
4.991141732283463
 21
6.58267716535433
 31
0.0
  0
LINE
  5
2A6
330
1E
100
AcDbEntity
  8
7
100
AcDbLine
 10
5.133858267716535
 20
6.58267716535433
 30
0.0
 11
5.132874015748031
 21
6.530511811023621
 31
0.0
  0
LINE
  5
2A7
330
1E
100
AcDbEntity
  8
7
100
AcDbLine
 10
5.083661417322834
 20
6.504921259842518
 30
0.0
 11
5.082677165354329
 21
6.530511811023621
 31
0.0
  0
LINE
  5
2A8
330
1E
100
AcDbEntity
  8
7
100
AcDbLine
 10
5.083661417322834
 20
6.504921259842518
 30
0.0
 11
5.132874015748031
 21
6.504921259842518
 31
0.0
  0
LINE
  5
2A9
330
1E
100
AcDbEntity
  8
7
100
AcDbLine
 10
5.276574803149605
 20
6.469488188976378
 30
0.0
 11
5.132874015748031
 21
6.469488188976378
 31
0.0
  0
LINE
  5
2B0
330
1E
100
AcDbEntity
  8
7
100
AcDbLine
 10
5.326771653543306
 20
6.504921259842518
 30
0.0
 11
5.27755905511811
 21
6.504921259842518
 31
0.0
  0
LINE
  5
2B1
330
1E
100
AcDbEntity
  8
7
100
AcDbLine
 10
5.76771653543307
 20
6.469488188976378
 30
0.0
 11
5.76771653543307
 21
6.497047244094487
 31
0.0
  0
LINE
  5
2B2
330
1E
100
AcDbEntity
  8
7
100
AcDbLine
 10
5.76771653543307
 20
6.497047244094487
 30
0.0
 11
5.834645669291337
 21
6.497047244094487
 31
0.0
  0
LINE
  5
2B3
330
1E
100
AcDbEntity
  8
7
100
AcDbLine
 10
5.835629921259843
 20
6.5501968503937
 30
0.0
 11
5.835629921259843
 21
6.337598425196849
 31
0.0
  0
LINE
  5
2BA
330
1E
100
AcDbEntity
  8
7
100
AcDbLine
 10
4.573818897637795
 20
6.5501968503937
 30
0.0
 11
4.573818897637795
 21
6.337598425196849
 31
0.0
  0
LINE
  5
2BB
330
1E
100
AcDbEntity
  8
7
100
AcDbLine
 10
4.641732283464566
 20
6.5501968503937
 30
0.0
 11
4.573818897637795
 21
6.5501968503937
 31
0.0
  0
LINE
  5
2BC
330
1E
100
AcDbEntity
  8
7
100
AcDbLine
 10
4.641732283464566
 20
6.58267716535433
 30
0.0
 11
4.641732283464566
 21
6.5501968503937
 31
0.0
  0
LINE
  5
2BD
330
1E
100
AcDbEntity
  8
7
100
AcDbLine
 10
4.784448818897636
 20
6.58267716535433
 30
0.0
 11
4.641732283464566
 21
6.58267716535433
 31
0.0
  0
LINE
  5
2BE
330
1E
100
AcDbEntity
  8
7
100
AcDbLine
 10
4.784448818897636
 20
6.58267716535433
 30
0.0
 11
4.991141732283463
 21
6.58267716535433
 31
0.0
  0
LINE
  5
2C4
330
1E
100
AcDbEntity
  8
7
100
AcDbLine
 10
5.276574803149605
 20
6.58267716535433
 30
0.0
 11
5.276574803149605
 21
6.5501968503937
 31
0.0
  0
LINE
  5
2C5
330
1E
100
AcDbEntity
  8
7
100
AcDbLine
 10
5.625984251968502
 20
6.58267716535433
 30
0.0
 11
5.419291338582675
 21
6.58267716535433
 31
0.0
  0
LINE
  5
2CB
330
1E
100
AcDbEntity
  8
7
100
AcDbLine
 10
5.835629921259843
 20
6.5501968503937
 30
0.0
 11
5.768700787401573
 21
6.5501968503937
 31
0.0
  0
LINE
  5
2CC
330
1E
100
AcDbEntity
  8
7
100
AcDbLine
 10
5.132874015748031
 20
6.497047244094487
 30
0.0
 11
5.132874015748031
 21
6.530511811023621
 31
0.0
  0
LINE
  5
2CD
330
1E
100
AcDbEntity
  8
7
100
AcDbLine
 10
5.133858267716535
 20
6.5501968503937
 30
0.0
 11
5.132874015748031
 21
6.497047244094487
 31
0.0
  0
LINE
  5
2D3
330
1E
100
AcDbEntity
  8
7
100
AcDbLine
 10
4.789370078740157
 20
6.337598425196849
 30
0.0
 11
4.784448818897636
 21
6.58267716535433
 31
0.0
  0
LINE
  5
2D4
330
1E
100
AcDbEntity
  8
7
100
AcDbLine
 10
4.99015748031496
 20
6.529527559055117
 30
0.0
 11
4.986220472440942
 21
6.337598425196849
 31
0.0
  0
LINE
  5
2D5
330
1E
100
AcDbEntity
  8
7
100
AcDbLine
 10
4.987204724409448
 20
6.529527559055117
 30
0.0
 11
4.99015748031496
 21
6.529527559055117
 31
0.0
  0
LINE
  5
2D6
330
1E
100
AcDbEntity
  8
7
100
AcDbLine
 10
4.987204724409448
 20
6.529527559055117
 30
0.0
 11
4.99015748031496
 21
6.529527559055117
 31
0.0
  0
LINE
  5
2D7
330
1E
100
AcDbEntity
  8
7
100
AcDbLine
 10
4.991141732283463
 20
6.58267716535433
 30
0.0
 11
4.99015748031496
 21
6.529527559055117
 31
0.0
  0
LINE
  5
2D8
330
1E
100
AcDbEntity
  8
7
100
AcDbLine
 10
5.424212598425196
 20
6.337598425196849
 30
0.0
 11
5.420275590551179
 21
6.529527559055117
 31
0.0
  0
LINE
  5
2D9
330
1E
100
AcDbEntity
  8
7
100
AcDbLine
 10
5.625984251968502
 20
6.58267716535433
 30
0.0
 11
5.621062992125983
 21
6.337598425196849
 31
0.0
  0
LINE
  5
2DA
330
1E
100
AcDbEntity
  8
7
100
AcDbLine
 10
5.419291338582675
 20
6.58267716535433
 30
0.0
 11
5.420275590551179
 21
6.529527559055117
 31
0.0
  0
LINE
  5
2DB
330
1E
100
AcDbEntity
  8
7
100
AcDbLine
 10
5.422244094488188
 20
6.529527559055117
 30
0.0
 11
5.420275590551179
 21
6.529527559055117
 31
0.0
  0
LINE
  5
2DC
330
1E
100
AcDbEntity
  8
7
100
AcDbLine
 10
5.422244094488188
 20
6.529527559055117
 30
0.0
 11
5.420275590551179
 21
6.529527559055117
 31
0.0
  0
LINE
  5
2DD
330
1E
100
AcDbEntity
  8
7
100
AcDbLine
 10
5.893700787401573
 20
5.765748031496062
 30
0.0
 11
5.893700787401573
 21
5.775590551181101
 31
0.0
  0
LINE
  5
2DE
330
1E
100
AcDbEntity
  8
7
100
AcDbLine
 10
4.516732283464566
 20
5.775590551181101
 30
0.0
 11
4.516732283464566
 21
5.765748031496062
 31
0.0
  0
LINE
  5
2DF
330
1E
100
AcDbEntity
  8
7
100
AcDbLine
 10
4.424212598425196
 20
6.337598425196849
 30
0.0
 11
4.424212598425196
 21
6.556102362204723
 31
0.0
  0
LINE
  5
304
330
1E
100
AcDbEntity
  8
7
100
AcDbLine
 10
4.406496062992125
 20
5.717519685039368
 30
0.0
 11
4.388779527559053
 21
5.748031496062991
 31
0.0
  0
LINE
  5
30A
330
1E
100
AcDbEntity
  8
7
100
AcDbLine
 10
4.48523622047244
 20
5.622047244094487
 30
0.0
 11
4.48523622047244
 21
5.706692913385825
 31
0.0
  0
LINE
  5
30B
330
1E
100
AcDbEntity
  8
7
100
AcDbLine
 10
4.388779527559053
 20
5.748031496062991
 30
0.0
 11
4.388779527559053
 21
5.769685039370076
 31
0.0
  0
LINE
  5
311
330
1E
100
AcDbEntity
  8
7
100
AcDbLine
 10
6.021653543307086
 20
5.748031496062991
 30
0.0
 11
6.002952755905511
 21
5.717519685039368
 31
0.0
  0
LINE
  5
317
330
1E
100
AcDbEntity
  8
7
100
AcDbLine
 10
5.9251968503937
 20
5.706692913385825
 30
0.0
 11
5.9251968503937
 21
5.622047244094487
 31
0.0
  0
LINE
  5
318
330
1E
100
AcDbEntity
  8
7
100
AcDbLine
 10
6.021653543307086
 20
5.769685039370076
 30
0.0
 11
6.021653543307086
 21
5.748031496062991
 31
0.0
  0
LINE
  5
319
330
1E
100
AcDbEntity
  8
7
100
AcDbLine
 10
5.362204724409448
 20
6.337598425196849
 30
0.0
 11
5.364173228346456
 21
6.501968503937008
 31
0.0
  0
LINE
  5
31A
330
1E
100
AcDbEntity
  8
7
100
AcDbLine
 10
5.326771653543306
 20
6.501968503937008
 30
0.0
 11
5.328740157480313
 21
6.337598425196849
 31
0.0
  0
LINE
  5
31B
330
1E
100
AcDbEntity
  8
7
100
AcDbLine
 10
5.326771653543306
 20
6.501968503937008
 30
0.0
 11
5.326771653543306
 21
6.504921259842518
 31
0.0
  0
LINE
  5
31C
330
1E
100
AcDbEntity
  8
7
100
AcDbLine
 10
5.364173228346456
 20
6.530511811023621
 30
0.0
 11
5.364173228346456
 21
6.501968503937008
 31
0.0
  0
LINE
  5
31D
330
1E
100
AcDbEntity
  8
7
100
AcDbLine
 10
5.326771653543306
 20
6.501968503937008
 30
0.0
 11
5.326771653543306
 21
6.530511811023621
 31
0.0
  0
LINE
  5
31E
330
1E
100
AcDbEntity
  8
7
100
AcDbLine
 10
5.682086614173227
 20
6.337598425196849
 30
0.0
 11
5.681102362204723
 21
6.501968503937008
 31
0.0
  0
LINE
  5
31F
330
1E
100
AcDbEntity
  8
7
100
AcDbLine
 10
5.718503937007874
 20
6.501968503937008
 30
0.0
 11
5.716535433070864
 21
6.337598425196849
 31
0.0
  0
LINE
  5
325
330
1E
100
AcDbEntity
  8
7
100
AcDbLine
 10
5.680118110236219
 20
6.530511811023621
 30
0.0
 11
5.718503937007874
 21
6.530511811023621
 31
0.0
  0
LINE
  5
326
330
1E
100
AcDbEntity
  8
7
100
AcDbLine
 10
5.680118110236219
 20
6.530511811023621
 30
0.0
 11
5.681102362204723
 21
6.501968503937008
 31
0.0
  0
LINE
  5
327
330
1E
100
AcDbEntity
  8
7
100
AcDbLine
 10
4.727362204724409
 20
6.337598425196849
 30
0.0
 11
4.729330708661415
 21
6.501968503937008
 31
0.0
  0
LINE
  5
328
330
1E
100
AcDbEntity
  8
7
100
AcDbLine
 10
4.691929133858266
 20
6.501968503937008
 30
0.0
 11
4.692913385826771
 21
6.337598425196849
 31
0.0
  0
LINE
  5
329
330
1E
100
AcDbEntity
  8
7
100
AcDbLine
 10
4.691929133858266
 20
6.501968503937008
 30
0.0
 11
4.691929133858266
 21
6.504921259842518
 31
0.0
  0
LINE
  5
32A
330
1E
100
AcDbEntity
  8
7
100
AcDbLine
 10
4.729330708661415
 20
6.530511811023621
 30
0.0
 11
4.729330708661415
 21
6.501968503937008
 31
0.0
  0
LINE
  5
32B
330
1E
100
AcDbEntity
  8
7
100
AcDbLine
 10
4.729330708661415
 20
6.530511811023621
 30
0.0
 11
4.691929133858266
 21
6.530511811023621
 31
0.0
  0
LINE
  5
32C
330
1E
100
AcDbEntity
  8
7
100
AcDbLine
 10
4.691929133858266
 20
6.501968503937008
 30
0.0
 11
4.691929133858266
 21
6.530511811023621
 31
0.0
  0
LINE
  5
32D
330
1E
100
AcDbEntity
  8
7
100
AcDbLine
 10
5.047244094488188
 20
6.337598425196849
 30
0.0
 11
5.045275590551179
 21
6.501968503937008
 31
0.0
  0
LINE
  5
32E
330
1E
100
AcDbEntity
  8
7
100
AcDbLine
 10
5.083661417322834
 20
6.501968503937008
 30
0.0
 11
5.081692913385825
 21
6.337598425196849
 31
0.0
  0
LINE
  5
334
330
1E
100
AcDbEntity
  8
7
100
AcDbLine
 10
5.045275590551179
 20
6.530511811023621
 30
0.0
 11
5.045275590551179
 21
6.501968503937008
 31
0.0
  0
LINE
  5
335
330
1E
100
AcDbEntity
  8
7
100
AcDbLine
 10
4.574803149606299
 20
6.497047244094487
 30
0.0
 11
4.574803149606299
 21
6.337598425196849
 31
0.0
  0
LINE
  5
336
330
1E
100
AcDbEntity
  8
7
100
AcDbLine
 10
4.574803149606299
 20
6.497047244094487
 30
0.0
 11
4.573818897637795
 21
6.5501968503937
 31
0.0
  0
LINE
  5
337
330
1E
100
AcDbEntity
  8
7
100
AcDbLine
 10
4.64271653543307
 20
6.497047244094487
 30
0.0
 11
4.641732283464566
 21
6.5501968503937
 31
0.0
  0
LINE
  5
338
330
1E
100
AcDbEntity
  8
7
100
AcDbLine
 10
4.64271653543307
 20
6.497047244094487
 30
0.0
 11
4.574803149606299
 21
6.497047244094487
 31
0.0
  0
LINE
  5
33E
330
1E
100
AcDbEntity
  8
7
100
AcDbLine
 10
4.64271653543307
 20
6.530511811023621
 30
0.0
 11
4.691929133858266
 21
6.530511811023621
 31
0.0
  0
LINE
  5
33F
330
1E
100
AcDbEntity
  8
7
100
AcDbLine
 10
5.76771653543307
 20
6.530511811023621
 30
0.0
 11
5.768700787401573
 21
6.58267716535433
 31
0.0
  0
LINE
  5
34A
330
1E
100
AcDbEntity
  8
7
100
AcDbLine
 10
4.64271653543307
 20
6.497047244094487
 30
0.0
 11
4.641732283464566
 21
6.469488188976378
 31
0.0
  0
LINE
  5
34B
330
1E
100
AcDbEntity
  8
7
100
AcDbLine
 10
4.691929133858266
 20
6.501968503937008
 30
0.0
 11
4.691929133858266
 21
6.504921259842518
 31
0.0
  0
LINE
  5
34C
330
1E
100
AcDbEntity
  8
7
100
AcDbLine
 10
5.083661417322834
 20
6.501968503937008
 30
0.0
 11
5.083661417322834
 21
6.504921259842518
 31
0.0
  0
LINE
  5
34D
330
1E
100
AcDbEntity
  8
7
100
AcDbLine
 10
4.691929133858266
 20
6.504921259842518
 30
0.0
 11
4.691929133858266
 21
6.530511811023621
 31
0.0
  0
LINE
  5
34E
330
1E
100
AcDbEntity
  8
7
100
AcDbLine
 10
5.326771653543306
 20
6.501968503937008
 30
0.0
 11
5.326771653543306
 21
6.504921259842518
 31
0.0
  0
LINE
  5
34F
330
1E
100
AcDbEntity
  8
7
100
AcDbLine
 10
5.718503937007874
 20
6.501968503937008
 30
0.0
 11
5.718503937007874
 21
6.504921259842518
 31
0.0
  0
LINE
  5
350
330
1E
100
AcDbEntity
  8
7
100
AcDbLine
 10
5.326771653543306
 20
6.504921259842518
 30
0.0
 11
5.326771653543306
 21
6.530511811023621
 31
0.0
  0
LINE
  5
672
330
1E
100
AcDbEntity
  8
7
100
AcDbLine
 10
4.418307086614173
 20
8.061023622047244
 30
0.0
 11
4.418307086614173
 21
7.554133858267715
 31
0.0
  0
LINE
  5
673
330
1E
100
AcDbEntity
  8
7
100
AcDbLine
 10
4.385826771653541
 20
8.061023622047244
 30
0.0
 11
4.418307086614173
 21
8.061023622047244
 31
0.0
  0
LINE
  5
674
330
1E
100
AcDbEntity
  8
7
100
AcDbLine
 10
4.385826771653541
 20
8.310039370078737
 30
0.0
 11
4.385826771653541
 21
8.061023622047244
 31
0.0
  0
LINE
  5
675
330
1E
100
AcDbEntity
  8
7
100
AcDbLine
 10
4.418307086614173
 20
8.310039370078737
 30
0.0
 11
4.385826771653541
 21
8.310039370078737
 31
0.0
  0
LINE
  5
676
330
1E
100
AcDbEntity
  8
7
100
AcDbLine
 10
4.418307086614173
 20
8.376968503937009
 30
0.0
 11
4.418307086614173
 21
8.310039370078737
 31
0.0
  0
LINE
  5
683
330
1E
100
AcDbEntity
  8
7
100
AcDbLine
 10
4.418307086614173
 20
8.063976377952753
 30
0.0
 11
4.418307086614173
 21
8.061023622047244
 31
0.0
  0
LINE
  5
684
330
1E
100
AcDbEntity
  8
7
100
AcDbLine
 10
5.991141732283463
 20
7.871062992125982
 30
0.0
 11
5.986220472440943
 21
7.871062992125982
 31
0.0
  0
LINE
  5
685
330
1E
100
AcDbEntity
  8
7
100
AcDbLine
 10
5.986220472440943
 20
7.627952755905511
 30
0.0
 11
5.991141732283463
 21
7.627952755905511
 31
0.0
  0
LINE
  5
686
330
1E
100
AcDbEntity
  8
7
100
AcDbLine
 10
4.424212598425196
 20
7.871062992125982
 30
0.0
 11
4.418307086614173
 21
7.871062992125982
 31
0.0
  0
LINE
  5
687
330
1E
100
AcDbEntity
  8
7
100
AcDbLine
 10
4.418307086614173
 20
7.627952755905511
 30
0.0
 11
4.424212598425196
 21
7.627952755905511
 31
0.0
  0
LINE
  5
688
330
1E
100
AcDbEntity
  8
7
100
AcDbLine
 10
4.424212598425196
 20
8.786417322834642
 30
0.0
 11
4.418307086614173
 21
8.786417322834642
 31
0.0
  0
LINE
  5
689
330
1E
100
AcDbEntity
  8
7
100
AcDbLine
 10
4.418307086614173
 20
8.508858267716535
 30
0.0
 11
4.424212598425196
 21
8.508858267716535
 31
0.0
  0
LINE
  5
690
330
1E
100
AcDbEntity
  8
7
100
AcDbLine
 10
4.418307086614173
 20
8.951771653543307
 30
0.0
 11
4.418307086614173
 21
8.402559055118109
 31
0.0
  0
LINE
  5
691
330
1E
100
AcDbEntity
  8
7
100
AcDbLine
 10
4.418307086614173
 20
8.951771653543307
 30
0.0
 11
5.991141732283463
 21
8.951771653543307
 31
0.0
  0
LINE
  5
692
330
1E
100
AcDbEntity
  8
7
100
AcDbLine
 10
5.991141732283463
 20
8.402559055118109
 30
0.0
 11
5.991141732283463
 21
8.951771653543307
 31
0.0
  0
LINE
  5
69E
330
1E
100
AcDbEntity
  8
7
100
AcDbLine
 10
5.24803149606299
 20
7.276574803149605
 30
0.0
 11
5.162401574803148
 21
7.276574803149605
 31
0.0
  0
LINE
  5
6AA
330
1E
100
AcDbEntity
  8
7
100
AcDbLine
 10
4.318897637795275
 20
7.701771653543307
 30
0.0
 11
4.318897637795275
 21
7.788385826771652
 31
0.0
  0
LINE
  5
6C6
330
1E
100
AcDbEntity
  8
7
100
AcDbLine
 10
6.040354330708661
 20
9.048228346456692
 30
0.0
 11
5.665354330708661
 21
9.048228346456692
 31
0.0
  0
LINE
  5
6C7
330
1E
100
AcDbEntity
  8
7
100
AcDbLine
 10
5.579724409448817
 20
9.048228346456692
 30
0.0
 11
5.665354330708661
 21
9.048228346456692
 31
0.0
  0
LINE
  5
6C8
330
1E
100
AcDbEntity
  8
7
100
AcDbLine
 10
5.579724409448817
 20
9.048228346456692
 30
0.0
 11
4.829724409448818
 21
9.048228346456692
 31
0.0
  0
LINE
  5
6C9
330
1E
100
AcDbEntity
  8
7
100
AcDbLine
 10
4.744094488188975
 20
9.048228346456692
 30
0.0
 11
4.829724409448818
 21
9.048228346456692
 31
0.0
  0
LINE
  5
6D2
330
1E
100
AcDbEntity
  8
7
100
AcDbLine
 10
6.090551181102362
 20
7.788385826771652
 30
0.0
 11
6.090551181102362
 21
7.701771653543307
 31
0.0
  0
LINE
  5
6E2
330
1E
100
AcDbEntity
  8
7
100
AcDbLine
 10
6.089566929133857
 20
7.394685039370076
 30
0.0
 11
6.089566929133857
 21
7.351377952755905
 31
0.0
  0
LINE
  5
6E9
330
1E
100
AcDbEntity
  8
7
100
AcDbLine
 10
5.991141732283463
 20
8.310039370078737
 30
0.0
 11
5.991141732283463
 21
8.376968503937009
 31
0.0
  0
LINE
  5
6EA
330
1E
100
AcDbEntity
  8
7
100
AcDbLine
 10
6.024606299212597
 20
8.310039370078737
 30
0.0
 11
5.991141732283463
 21
8.310039370078737
 31
0.0
  0
LINE
  5
6EB
330
1E
100
AcDbEntity
  8
7
100
AcDbLine
 10
6.024606299212597
 20
8.061023622047244
 30
0.0
 11
6.024606299212597
 21
8.310039370078737
 31
0.0
  0
LINE
  5
6EC
330
1E
100
AcDbEntity
  8
7
100
AcDbLine
 10
5.991141732283463
 20
8.061023622047244
 30
0.0
 11
6.024606299212597
 21
8.061023622047244
 31
0.0
  0
LINE
  5
6ED
330
1E
100
AcDbEntity
  8
7
100
AcDbLine
 10
5.991141732283463
 20
8.786417322834642
 30
0.0
 11
5.986220472440943
 21
8.786417322834642
 31
0.0
  0
LINE
  5
6EE
330
1E
100
AcDbEntity
  8
7
100
AcDbLine
 10
4.418307086614173
 20
8.815944881889761
 30
0.0
 11
4.454724409448818
 21
8.815944881889761
 31
0.0
  0
LINE
  5
6EF
330
1E
100
AcDbEntity
  8
7
100
AcDbLine
 10
5.954724409448817
 20
8.815944881889761
 30
0.0
 11
5.991141732283463
 21
8.815944881889761
 31
0.0
  0
LINE
  5
6F0
330
1E
100
AcDbEntity
  8
7
100
AcDbLine
 10
5.991141732283463
 20
8.835629921259842
 30
0.0
 11
4.418307086614173
 21
8.835629921259842
 31
0.0
  0
LINE
  5
6F6
330
1E
100
AcDbEntity
  8
7
100
AcDbLine
 10
4.418307086614173
 20
8.310039370078737
 30
0.0
 11
4.418307086614173
 21
8.209645669291337
 31
0.0
  0
LINE
  5
6F7
330
1E
100
AcDbEntity
  8
7
100
AcDbLine
 10
5.991141732283463
 20
8.209645669291337
 30
0.0
 11
5.991141732283463
 21
8.310039370078737
 31
0.0
  0
LINE
  5
6FD
330
1E
100
AcDbEntity
  8
7
100
AcDbLine
 10
4.418307086614173
 20
7.535433070866139
 30
0.0
 11
5.991141732283463
 21
7.535433070866139
 31
0.0
  0
LINE
  5
6FE
330
1E
100
AcDbEntity
  8
7
100
AcDbLine
 10
5.986220472440943
 20
8.508858267716535
 30
0.0
 11
5.991141732283463
 21
8.508858267716535
 31
0.0
  0
LINE
  5
6FF
330
1E
100
AcDbEntity
  8
7
100
AcDbLine
 10
4.424212598425196
 20
7.872047244094487
 30
0.0
 11
4.418307086614173
 21
7.871062992125982
 31
0.0
  0
LINE
  5
700
330
1E
100
AcDbEntity
  8
7
100
AcDbLine
 10
4.424212598425196
 20
8.483267716535431
 30
0.0
 11
4.418307086614173
 21
8.508858267716535
 31
0.0
  0
LINE
  5
701
330
1E
100
AcDbEntity
  8
7
100
AcDbLine
 10
4.418307086614173
 20
8.063976377952753
 30
0.0
 11
4.418307086614173
 21
8.209645669291337
 31
0.0
  0
LINE
  5
702
330
1E
100
AcDbEntity
  8
7
100
AcDbLine
 10
5.986220472440943
 20
7.872047244094487
 30
0.0
 11
5.991141732283463
 21
7.871062992125982
 31
0.0
  0
LINE
  5
703
330
1E
100
AcDbEntity
  8
7
100
AcDbLine
 10
5.986220472440943
 20
8.483267716535431
 30
0.0
 11
5.991141732283463
 21
8.508858267716535
 31
0.0
  0
LINE
  5
704
330
1E
100
AcDbEntity
  8
7
100
AcDbLine
 10
5.991141732283463
 20
8.209645669291337
 30
0.0
 11
5.991141732283463
 21
8.063976377952753
 31
0.0
  0
LINE
  5
70B
330
1E
100
AcDbEntity
  8
7
100
AcDbLine
 10
4.388779527559053
 20
8.063976377952753
 30
0.0
 11
4.385826771653541
 21
8.061023622047244
 31
0.0
  0
LINE
  5
70C
330
1E
100
AcDbEntity
  8
7
100
AcDbLine
 10
4.388779527559053
 20
8.209645669291337
 30
0.0
 11
4.385826771653541
 21
8.310039370078737
 31
0.0
  0
LINE
  5
713
330
1E
100
AcDbEntity
  8
7
100
AcDbLine
 10
6.021653543307086
 20
8.063976377952753
 30
0.0
 11
6.024606299212597
 21
8.061023622047244
 31
0.0
  0
LINE
  5
714
330
1E
100
AcDbEntity
  8
7
100
AcDbLine
 10
6.021653543307086
 20
8.209645669291337
 30
0.0
 11
6.024606299212597
 21
8.310039370078737
 31
0.0
  0
LINE
  5
735
330
1E
100
AcDbEntity
  8
7
100
AcDbLine
 10
6.040354330708661
 20
8.376968503937009
 30
0.0
 11
6.040354330708661
 21
8.402559055118109
 31
0.0
  0
LINE
  5
736
330
1E
100
AcDbEntity
  8
7
100
AcDbLine
 10
4.370078740157478
 20
8.402559055118109
 30
0.0
 11
4.370078740157478
 21
8.376968503937009
 31
0.0
  0
LINE
  5
764
330
1E
100
AcDbEntity
  8
7
100
AcDbLine
 10
6.083661417322833
 20
7.302165354330706
 30
0.0
 11
6.090551181102362
 21
7.327755905511811
 31
0.0
  0
LINE
  5
789
330
1E
100
AcDbEntity
  8
7
100
AcDbLine
 10
6.040354330708661
 20
9.048228346456692
 30
0.0
 11
6.064960629921258
 21
9.041338582677164
 31
0.0
  0
LINE
  5
7C6
330
1E
100
AcDbEntity
  8
7
100
AcDbLine
 10
4.345472440944881
 20
8.99803149606299
 30
0.0
 11
4.370078740157478
 21
8.99803149606299
 31
0.0
  0
LINE
  5
7CD
330
1E
100
AcDbEntity
  8
7
100
AcDbLine
 10
4.787401574803148
 20
7.619094488188975
 30
0.0
 11
4.781496062992125
 21
7.585629921259843
 31
0.0
  0
LINE
  5
7CE
330
1E
100
AcDbEntity
  8
7
100
AcDbLine
 10
4.993110236220472
 20
7.585629921259843
 30
0.0
 11
4.987204724409448
 21
7.619094488188975
 31
0.0
  0
LINE
  5
7CF
330
1E
100
AcDbEntity
  8
7
100
AcDbLine
 10
4.993110236220472
 20
7.585629921259843
 30
0.0
 11
4.994094488188975
 21
7.585629921259843
 31
0.0
  0
LINE
  5
7D0
330
1E
100
AcDbEntity
  8
7
100
AcDbLine
 10
5.422244094488188
 20
7.619094488188975
 30
0.0
 11
5.416338582677163
 21
7.585629921259843
 31
0.0
  0
LINE
  5
7D1
330
1E
100
AcDbEntity
  8
7
100
AcDbLine
 10
5.627952755905511
 20
7.585629921259843
 30
0.0
 11
5.622047244094487
 21
7.619094488188975
 31
0.0
  0
LINE
  5
7D2
330
1E
100
AcDbEntity
  8
7
100
AcDbLine
 10
5.627952755905511
 20
7.585629921259843
 30
0.0
 11
5.628937007874013
 21
7.585629921259843
 31
0.0
  0
LINE
  5
7D8
330
1E
100
AcDbEntity
  8
7
100
AcDbLine
 10
4.783464566929133
 20
7.619094488188975
 30
0.0
 11
4.781496062992125
 21
7.590551181102362
 31
0.0
  0
LINE
  5
7D9
330
1E
100
AcDbEntity
  8
7
100
AcDbLine
 10
4.773622047244094
 20
7.535433070866139
 30
0.0
 11
4.778543307086613
 21
7.619094488188975
 31
0.0
  0
LINE
  5
7DA
330
1E
100
AcDbEntity
  8
7
100
AcDbLine
 10
4.789370078740157
 20
7.619094488188975
 30
0.0
 11
4.774606299212597
 21
7.535433070866139
 31
0.0
  0
LINE
  5
7DB
330
1E
100
AcDbEntity
  8
7
100
AcDbLine
 10
4.781496062992125
 20
7.590551181102362
 30
0.0
 11
4.781496062992125
 21
7.585629921259843
 31
0.0
  0
LINE
  5
7DC
330
1E
100
AcDbEntity
  8
7
100
AcDbLine
 10
4.994094488188975
 20
7.590551181102362
 30
0.0
 11
4.992125984251967
 21
7.619094488188975
 31
0.0
  0
LINE
  5
7E2
330
1E
100
AcDbEntity
  8
7
100
AcDbLine
 10
5.0
 20
7.535433070866139
 30
0.0
 11
4.986220472440942
 21
7.619094488188975
 31
0.0
  0
LINE
  5
7E3
330
1E
100
AcDbEntity
  8
7
100
AcDbLine
 10
4.996062992125983
 20
7.619094488188975
 30
0.0
 11
5.001968503937006
 21
7.535433070866139
 31
0.0
  0
LINE
  5
7E4
330
1E
100
AcDbEntity
  8
7
100
AcDbLine
 10
4.778543307086613
 20
7.619094488188975
 30
0.0
 11
4.996062992125983
 21
7.619094488188975
 31
0.0
  0
LINE
  5
7E5
330
1E
100
AcDbEntity
  8
7
100
AcDbLine
 10
5.628937007874013
 20
7.590551181102362
 30
0.0
 11
5.626968503937007
 21
7.619094488188975
 31
0.0
  0
LINE
  5
7EB
330
1E
100
AcDbEntity
  8
7
100
AcDbLine
 10
5.621062992125983
 20
7.619094488188975
 30
0.0
 11
5.634842519685037
 21
7.535433070866139
 31
0.0
  0
LINE
  5
7EC
330
1E
100
AcDbEntity
  8
7
100
AcDbLine
 10
5.636811023622048
 20
7.535433070866139
 30
0.0
 11
5.630905511811023
 21
7.619094488188975
 31
0.0
  0
LINE
  5
7ED
330
1E
100
AcDbEntity
  8
7
100
AcDbLine
 10
5.418307086614172
 20
7.619094488188975
 30
0.0
 11
5.416338582677163
 21
7.590551181102362
 31
0.0
  0
LINE
  5
7EE
330
1E
100
AcDbEntity
  8
7
100
AcDbLine
 10
5.413385826771652
 20
7.619094488188975
 30
0.0
 11
5.408464566929133
 21
7.535433070866139
 31
0.0
  0
LINE
  5
7EF
330
1E
100
AcDbEntity
  8
7
100
AcDbLine
 10
5.410433070866141
 20
7.535433070866139
 30
0.0
 11
5.424212598425196
 21
7.619094488188975
 31
0.0
  0
LINE
  5
7F0
330
1E
100
AcDbEntity
  8
7
100
AcDbLine
 10
5.416338582677163
 20
7.590551181102362
 30
0.0
 11
5.416338582677163
 21
7.585629921259843
 31
0.0
  0
LINE
  5
7F1
330
1E
100
AcDbEntity
  8
7
100
AcDbLine
 10
5.630905511811023
 20
7.619094488188975
 30
0.0
 11
5.413385826771652
 21
7.619094488188975
 31
0.0
  0
LINE
  5
7F2
330
1E
100
AcDbEntity
  8
7
100
AcDbLine
 10
5.276574803149605
 20
8.237204724409446
 30
0.0
 11
5.419291338582675
 21
8.237204724409446
 31
0.0
  0
LINE
  5
7F3
330
1E
100
AcDbEntity
  8
7
100
AcDbLine
 10
5.133858267716535
 20
8.237204724409446
 30
0.0
 11
4.991141732283463
 21
8.237204724409446
 31
0.0
  0
LINE
  5
7F4
330
1E
100
AcDbEntity
  8
7
100
AcDbLine
 10
5.986220472440943
 20
7.535433070866139
 30
0.0
 11
5.636811023622048
 21
7.535433070866139
 31
0.0
  0
LINE
  5
7F5
330
1E
100
AcDbEntity
  8
7
100
AcDbLine
 10
5.408464566929133
 20
7.535433070866139
 30
0.0
 11
5.001968503937006
 21
7.535433070866139
 31
0.0
  0
LINE
  5
7F6
330
1E
100
AcDbEntity
  8
7
100
AcDbLine
 10
4.773622047244094
 20
7.535433070866139
 30
0.0
 11
4.424212598425196
 21
7.535433070866139
 31
0.0
  0
LINE
  5
7F7
330
1E
100
AcDbEntity
  8
7
100
AcDbLine
 10
5.835629921259843
 20
7.724409448818897
 30
0.0
 11
5.835629921259843
 21
7.714566929133857
 31
0.0
  0
LINE
  5
7F8
330
1E
100
AcDbEntity
  8
7
100
AcDbLine
 10
4.574803149606299
 20
7.714566929133857
 30
0.0
 11
5.835629921259843
 21
7.714566929133857
 31
0.0
  0
LINE
  5
7F9
330
1E
100
AcDbEntity
  8
7
100
AcDbLine
 10
4.574803149606299
 20
7.714566929133857
 30
0.0
 11
4.573818897637795
 21
7.724409448818897
 31
0.0
  0
LINE
  5
7FA
330
1E
100
AcDbEntity
  8
7
100
AcDbLine
 10
4.516732283464566
 20
7.724409448818897
 30
0.0
 11
4.573818897637795
 21
7.724409448818897
 31
0.0
  0
LINE
  5
807
330
1E
100
AcDbEntity
  8
7
100
AcDbLine
 10
4.424212598425196
 20
7.535433070866139
 30
0.0
 11
4.424212598425196
 21
7.851377952755905
 31
0.0
  0
LINE
  5
808
330
1E
100
AcDbEntity
  8
7
100
AcDbLine
 10
5.986220472440943
 20
7.851377952755905
 30
0.0
 11
5.986220472440943
 21
7.535433070866139
 31
0.0
  0
LINE
  5
815
330
1E
100
AcDbEntity
  8
7
100
AcDbLine
 10
5.835629921259843
 20
7.724409448818897
 30
0.0
 11
5.893700787401573
 21
7.724409448818897
 31
0.0
  0
LINE
  5
816
330
1E
100
AcDbEntity
  8
7
100
AcDbLine
 10
5.835629921259843
 20
8.180118110236218
 30
0.0
 11
5.835629921259843
 21
7.724409448818897
 31
0.0
  0
LINE
  5
81D
330
1E
100
AcDbEntity
  8
7
100
AcDbLine
 10
4.573818897637795
 20
8.180118110236218
 30
0.0
 11
4.573818897637795
 21
7.724409448818897
 31
0.0
  0
LINE
  5
81E
330
1E
100
AcDbEntity
  8
7
100
AcDbLine
 10
4.641732283464566
 20
8.180118110236218
 30
0.0
 11
4.573818897637795
 21
8.180118110236218
 31
0.0
  0
LINE
  5
81F
330
1E
100
AcDbEntity
  8
7
100
AcDbLine
 10
4.641732283464566
 20
8.237204724409446
 30
0.0
 11
4.641732283464566
 21
8.180118110236218
 31
0.0
  0
LINE
  5
820
330
1E
100
AcDbEntity
  8
7
100
AcDbLine
 10
4.784448818897636
 20
8.237204724409446
 30
0.0
 11
4.641732283464566
 21
8.237204724409446
 31
0.0
  0
LINE
  5
821
330
1E
100
AcDbEntity
  8
7
100
AcDbLine
 10
4.784448818897636
 20
8.237204724409446
 30
0.0
 11
4.991141732283463
 21
8.237204724409446
 31
0.0
  0
LINE
  5
827
330
1E
100
AcDbEntity
  8
7
100
AcDbLine
 10
5.276574803149605
 20
8.237204724409446
 30
0.0
 11
5.276574803149605
 21
8.180118110236218
 31
0.0
  0
LINE
  5
828
330
1E
100
AcDbEntity
  8
7
100
AcDbLine
 10
5.625984251968502
 20
8.237204724409446
 30
0.0
 11
5.419291338582675
 21
8.237204724409446
 31
0.0
  0
LINE
  5
82E
330
1E
100
AcDbEntity
  8
7
100
AcDbLine
 10
5.835629921259843
 20
8.180118110236218
 30
0.0
 11
5.768700787401573
 21
8.180118110236218
 31
0.0
  0
LINE
  5
82F
330
1E
100
AcDbEntity
  8
7
100
AcDbLine
 10
5.132874015748031
 20
8.209645669291337
 30
0.0
 11
5.132874015748031
 21
8.237204724409446
 31
0.0
  0
LINE
  5
830
330
1E
100
AcDbEntity
  8
7
100
AcDbLine
 10
5.133858267716535
 20
8.180118110236218
 30
0.0
 11
5.132874015748031
 21
8.209645669291337
 31
0.0
  0
LINE
  5
84E
330
1E
100
AcDbEntity
  8
7
100
AcDbLine
 10
5.986220472440943
 20
8.376968503937009
 30
0.0
 11
5.986220472440943
 21
7.851377952755905
 31
0.0
  0
LINE
  5
84F
330
1E
100
AcDbEntity
  8
7
100
AcDbLine
 10
5.986220472440943
 20
8.791338582677164
 30
0.0
 11
5.986220472440943
 21
8.376968503937009
 31
0.0
  0
LINE
  5
855
330
1E
100
AcDbEntity
  8
7
100
AcDbLine
 10
4.516732283464566
 20
8.824803149606296
 30
0.0
 11
4.516732283464566
 21
8.456692913385825
 31
0.0
  0
LINE
  5
886
330
1E
100
AcDbEntity
  8
7
100
AcDbLine
 10
4.573818897637795
 20
7.768700787401573
 30
0.0
 11
4.573818897637795
 21
7.7253937007874
 31
0.0
  0
LINE
  5
887
330
1E
100
AcDbEntity
  8
7
100
AcDbLine
 10
4.573818897637795
 20
7.768700787401573
 30
0.0
 11
4.574803149606299
 21
7.802165354330706
 31
0.0
  0
LINE
  5
888
330
1E
100
AcDbEntity
  8
7
100
AcDbLine
 10
4.574803149606299
 20
8.180118110236218
 30
0.0
 11
4.574803149606299
 21
7.802165354330706
 31
0.0
  0
LINE
  5
889
330
1E
100
AcDbEntity
  8
7
100
AcDbLine
 10
4.64271653543307
 20
8.209645669291337
 30
0.0
 11
4.641732283464566
 21
8.180118110236218
 31
0.0
  0
LINE
  5
88F
330
1E
100
AcDbEntity
  8
7
100
AcDbLine
 10
4.64271653543307
 20
8.209645669291337
 30
0.0
 11
4.64271653543307
 21
8.237204724409446
 31
0.0
  0
LINE
  5
895
330
1E
100
AcDbEntity
  8
7
100
AcDbLine
 10
5.835629921259843
 20
7.768700787401573
 30
0.0
 11
5.834645669291337
 21
7.802165354330706
 31
0.0
  0
LINE
  5
896
330
1E
100
AcDbEntity
  8
7
100
AcDbLine
 10
5.835629921259843
 20
7.7253937007874
 30
0.0
 11
5.835629921259843
 21
7.768700787401573
 31
0.0
  0
LINE
  5
897
330
1E
100
AcDbEntity
  8
7
100
AcDbLine
 10
5.834645669291337
 20
8.180118110236218
 30
0.0
 11
5.834645669291337
 21
7.802165354330706
 31
0.0
  0
LINE
  5
2F45
330
1E
100
AcDbEntity
  8
7
100
AcDbLine
 10
5.768700787401573
 20
8.180118110236218
 30
0.0
 11
5.76771653543307
 21
8.209645669291337
 31
0.0
  0
LINE
  5
2F46
330
1E
100
AcDbEntity
  8
7
100
AcDbLine
 10
5.76771653543307
 20
8.209645669291337
 30
0.0
 11
5.76771653543307
 21
8.237204724409446
 31
0.0
  0
LINE
  5
2F47
330
1E
100
AcDbEntity
  8
7
100
AcDbLine
 10
5.835629921259843
 20
7.724409448818897
 30
0.0
 11
5.835629921259843
 21
7.7253937007874
 31
0.0
  0
LINE
  5
2F48
330
1E
100
AcDbEntity
  8
7
100
AcDbLine
 10
5.835629921259843
 20
7.7253937007874
 30
0.0
 11
5.835629921259843
 21
7.724409448818897
 31
0.0
  0
LINE
  5
2F49
330
1E
100
AcDbEntity
  8
7
100
AcDbLine
 10
5.986220472440943
 20
8.376968503937009
 30
0.0
 11
5.981299212598425
 21
8.36318897637795
 31
0.0
  0
LINE
  5
2F4A
330
1E
100
AcDbEntity
  8
7
100
AcDbLine
 10
5.981299212598425
 20
8.36318897637795
 30
0.0
 11
5.968503937007874
 21
8.350393700787401
 31
0.0
  0
LINE
  5
2F4B
330
1E
100
AcDbEntity
  8
7
100
AcDbLine
 10
5.968503937007874
 20
8.350393700787401
 30
0.0
 11
5.947834645669289
 21
8.339566929133857
 31
0.0
  0
LINE
  5
2F4C
330
1E
100
AcDbEntity
  8
7
100
AcDbLine
 10
5.947834645669289
 20
8.339566929133857
 30
0.0
 11
5.922244094488188
 21
8.332677165354329
 31
0.0
  0
LINE
  5
2F4D
330
1E
100
AcDbEntity
  8
7
100
AcDbLine
 10
5.922244094488188
 20
8.332677165354329
 30
0.0
 11
5.893700787401573
 21
8.330708661417322
 31
0.0
  0
LINE
  5
2F4E
330
1E
100
AcDbEntity
  8
7
100
AcDbLine
 10
5.986220472440943
 20
8.376968503937009
 30
0.0
 11
5.981299212598425
 21
8.401574803149605
 31
0.0
  0
LINE
  5
2F4F
330
1E
100
AcDbEntity
  8
7
100
AcDbLine
 10
5.981299212598425
 20
8.401574803149605
 30
0.0
 11
5.968503937007874
 21
8.424212598425196
 31
0.0
  0
LINE
  5
2F50
330
1E
100
AcDbEntity
  8
7
100
AcDbLine
 10
5.968503937007874
 20
8.424212598425196
 30
0.0
 11
5.947834645669289
 21
8.441929133858266
 31
0.0
  0
LINE
  5
2F51
330
1E
100
AcDbEntity
  8
7
100
AcDbLine
 10
5.947834645669289
 20
8.441929133858266
 30
0.0
 11
5.922244094488188
 21
8.452755905511811
 31
0.0
  0
LINE
  5
2F52
330
1E
100
AcDbEntity
  8
7
100
AcDbLine
 10
5.922244094488188
 20
8.452755905511811
 30
0.0
 11
5.893700787401573
 21
8.456692913385825
 31
0.0
  0
LINE
  5
2F53
330
1E
100
AcDbEntity
  8
7
100
AcDbLine
 10
5.893700787401573
 20
8.456692913385825
 30
0.0
 11
5.893700787401573
 21
8.438976377952753
 31
0.0
  0
LINE
  5
2F54
330
1E
100
AcDbEntity
  8
7
100
AcDbLine
 10
5.893700787401573
 20
8.438976377952753
 30
0.0
 11
5.893700787401573
 21
8.414370078740157
 31
0.0
  0
LINE
  5
2F55
330
1E
100
AcDbEntity
  8
7
100
AcDbLine
 10
5.893700787401573
 20
8.414370078740157
 30
0.0
 11
5.893700787401573
 21
8.386811023622046
 31
0.0
  0
LINE
  5
2F56
330
1E
100
AcDbEntity
  8
7
100
AcDbLine
 10
5.893700787401573
 20
8.386811023622046
 30
0.0
 11
5.893700787401573
 21
8.357283464566927
 31
0.0
  0
LINE
  5
2F57
330
1E
100
AcDbEntity
  8
7
100
AcDbLine
 10
5.893700787401573
 20
8.357283464566927
 30
0.0
 11
5.893700787401573
 21
8.330708661417322
 31
0.0
  0
LINE
  5
2F58
330
1E
100
AcDbEntity
  8
7
100
AcDbLine
 10
4.516732283464566
 20
8.456692913385825
 30
0.0
 11
4.516732283464566
 21
8.438976377952753
 31
0.0
  0
LINE
  5
2F59
330
1E
100
AcDbEntity
  8
7
100
AcDbLine
 10
4.516732283464566
 20
8.438976377952753
 30
0.0
 11
4.516732283464566
 21
8.414370078740157
 31
0.0
  0
LINE
  5
2F5A
330
1E
100
AcDbEntity
  8
7
100
AcDbLine
 10
4.516732283464566
 20
8.414370078740157
 30
0.0
 11
4.516732283464566
 21
8.386811023622046
 31
0.0
  0
LINE
  5
2F5B
330
1E
100
AcDbEntity
  8
7
100
AcDbLine
 10
4.516732283464566
 20
8.386811023622046
 30
0.0
 11
4.516732283464566
 21
8.357283464566927
 31
0.0
  0
LINE
  5
2F5C
330
1E
100
AcDbEntity
  8
7
100
AcDbLine
 10
4.516732283464566
 20
8.357283464566927
 30
0.0
 11
4.516732283464566
 21
8.330708661417322
 31
0.0
  0
LINE
  5
2F5D
330
1E
100
AcDbEntity
  8
7
100
AcDbLine
 10
4.516732283464566
 20
8.456692913385825
 30
0.0
 11
4.488188976377951
 21
8.452755905511811
 31
0.0
  0
LINE
  5
2F5E
330
1E
100
AcDbEntity
  8
7
100
AcDbLine
 10
4.488188976377951
 20
8.452755905511811
 30
0.0
 11
4.461614173228346
 21
8.441929133858266
 31
0.0
  0
LINE
  5
2F5F
330
1E
100
AcDbEntity
  8
7
100
AcDbLine
 10
4.461614173228346
 20
8.441929133858266
 30
0.0
 11
4.441929133858266
 21
8.424212598425196
 31
0.0
  0
LINE
  5
2F60
330
1E
100
AcDbEntity
  8
7
100
AcDbLine
 10
4.441929133858266
 20
8.424212598425196
 30
0.0
 11
4.428149606299212
 21
8.401574803149605
 31
0.0
  0
LINE
  5
2F61
330
1E
100
AcDbEntity
  8
7
100
AcDbLine
 10
4.428149606299212
 20
8.401574803149605
 30
0.0
 11
4.424212598425196
 21
8.376968503937009
 31
0.0
  0
LINE
  5
2F62
330
1E
100
AcDbEntity
  8
7
100
AcDbLine
 10
4.424212598425196
 20
8.376968503937009
 30
0.0
 11
4.428149606299212
 21
8.36318897637795
 31
0.0
  0
LINE
  5
2F63
330
1E
100
AcDbEntity
  8
7
100
AcDbLine
 10
4.428149606299212
 20
8.36318897637795
 30
0.0
 11
4.441929133858266
 21
8.350393700787401
 31
0.0
  0
LINE
  5
2F64
330
1E
100
AcDbEntity
  8
7
100
AcDbLine
 10
4.441929133858266
 20
8.350393700787401
 30
0.0
 11
4.461614173228346
 21
8.339566929133857
 31
0.0
  0
LINE
  5
2F65
330
1E
100
AcDbEntity
  8
7
100
AcDbLine
 10
4.461614173228346
 20
8.339566929133857
 30
0.0
 11
4.488188976377951
 21
8.332677165354329
 31
0.0
  0
LINE
  5
2F66
330
1E
100
AcDbEntity
  8
7
100
AcDbLine
 10
4.488188976377951
 20
8.332677165354329
 30
0.0
 11
4.516732283464566
 21
8.330708661417322
 31
0.0
  0
LINE
  5
2F67
330
1E
100
AcDbEntity
  8
7
100
AcDbLine
 10
4.516732283464566
 20
8.456692913385825
 30
0.0
 11
5.893700787401573
 21
8.456692913385825
 31
0.0
  0
LINE
  5
2F68
330
1E
100
AcDbEntity
  8
7
100
AcDbLine
 10
5.893700787401573
 20
8.456692913385825
 30
0.0
 11
5.893700787401573
 21
8.824803149606296
 31
0.0
  0
LINE
  5
2F69
330
1E
100
AcDbEntity
  8
7
100
AcDbLine
 10
4.424212598425196
 20
7.851377952755905
 30
0.0
 11
4.424212598425196
 21
8.376968503937009
 31
0.0
  0
LINE
  5
2F6A
330
1E
100
AcDbEntity
  8
7
100
AcDbLine
 10
4.424212598425196
 20
8.376968503937009
 30
0.0
 11
4.424212598425196
 21
8.791338582677164
 31
0.0
  0
LINE
  5
2F6B
330
1E
100
AcDbEntity
  8
7
100
AcDbLine
 10
5.893700787401573
 20
8.824803149606296
 30
0.0
 11
5.917322834645668
 21
8.823818897637792
 31
0.0
  0
LINE
  5
2F6C
330
1E
100
AcDbEntity
  8
7
100
AcDbLine
 10
5.917322834645668
 20
8.823818897637792
 30
0.0
 11
5.939960629921258
 21
8.819881889763779
 31
0.0
  0
LINE
  5
2F6D
330
1E
100
AcDbEntity
  8
7
100
AcDbLine
 10
5.939960629921258
 20
8.819881889763779
 30
0.0
 11
5.958661417322833
 21
8.814960629921257
 31
0.0
  0
LINE
  5
2F6E
330
1E
100
AcDbEntity
  8
7
100
AcDbLine
 10
5.958661417322833
 20
8.814960629921257
 30
0.0
 11
5.973425196850392
 21
8.808070866141729
 31
0.0
  0
LINE
  5
2F6F
330
1E
100
AcDbEntity
  8
7
100
AcDbLine
 10
5.973425196850392
 20
8.808070866141729
 30
0.0
 11
5.983267716535432
 21
8.8001968503937
 31
0.0
  0
LINE
  5
2F70
330
1E
100
AcDbEntity
  8
7
100
AcDbLine
 10
5.983267716535432
 20
8.8001968503937
 30
0.0
 11
5.986220472440943
 21
8.791338582677164
 31
0.0
  0
LINE
  5
2F71
330
1E
100
AcDbEntity
  8
7
100
AcDbLine
 10
4.424212598425196
 20
8.791338582677164
 30
0.0
 11
4.427165354330707
 21
8.8001968503937
 31
0.0
  0
LINE
  5
2F72
330
1E
100
AcDbEntity
  8
7
100
AcDbLine
 10
4.427165354330707
 20
8.8001968503937
 30
0.0
 11
4.436023622047243
 21
8.808070866141729
 31
0.0
  0
LINE
  5
2F73
330
1E
100
AcDbEntity
  8
7
100
AcDbLine
 10
4.436023622047243
 20
8.808070866141729
 30
0.0
 11
4.450787401574801
 21
8.814960629921257
 31
0.0
  0
LINE
  5
2F74
330
1E
100
AcDbEntity
  8
7
100
AcDbLine
 10
4.450787401574801
 20
8.814960629921257
 30
0.0
 11
4.47047244094488
 21
8.819881889763779
 31
0.0
  0
LINE
  5
2F75
330
1E
100
AcDbEntity
  8
7
100
AcDbLine
 10
4.47047244094488
 20
8.819881889763779
 30
0.0
 11
4.493110236220472
 21
8.823818897637792
 31
0.0
  0
LINE
  5
2F76
330
1E
100
AcDbEntity
  8
7
100
AcDbLine
 10
4.493110236220472
 20
8.823818897637792
 30
0.0
 11
4.516732283464566
 21
8.824803149606296
 31
0.0
  0
LINE
  5
2F77
330
1E
100
AcDbEntity
  8
7
100
AcDbLine
 10
4.516732283464566
 20
8.824803149606296
 30
0.0
 11
5.893700787401573
 21
8.824803149606296
 31
0.0
  0
LINE
  5
2F78
330
1E
100
AcDbEntity
  8
7
100
AcDbLine
 10
5.276574803149605
 20
8.180118110236218
 30
0.0
 11
5.27755905511811
 21
8.209645669291337
 31
0.0
  0
LINE
  5
2F79
330
1E
100
AcDbEntity
  8
7
100
AcDbLine
 10
5.27755905511811
 20
8.209645669291337
 30
0.0
 11
5.27755905511811
 21
8.237204724409446
 31
0.0
  0
LINE
  5
2F7A
330
1E
100
AcDbEntity
  8
7
100
AcDbLine
 10
5.625984251968502
 20
8.237204724409446
 30
0.0
 11
5.768700787401573
 21
8.237204724409446
 31
0.0
  0
LINE
  5
2F7B
330
1E
100
AcDbEntity
  8
7
100
AcDbLine
 10
5.768700787401573
 20
8.237204724409446
 30
0.0
 11
5.768700787401573
 21
8.180118110236218
 31
0.0
  0
LINE
  5
2F7C
330
1E
100
AcDbEntity
  8
7
100
AcDbLine
 10
5.133858267716535
 20
8.237204724409446
 30
0.0
 11
5.133858267716535
 21
8.180118110236218
 31
0.0
  0
LINE
  5
2F7D
330
1E
100
AcDbEntity
  8
7
100
AcDbLine
 10
5.133858267716535
 20
8.180118110236218
 30
0.0
 11
5.276574803149605
 21
8.180118110236218
 31
0.0
  0
LINE
  5
2F7E
330
1E
100
AcDbEntity
  8
7
100
AcDbLine
 10
5.893700787401573
 20
7.724409448818897
 30
0.0
 11
5.893700787401573
 21
8.330708661417322
 31
0.0
  0
LINE
  5
2F7F
330
1E
100
AcDbEntity
  8
7
100
AcDbLine
 10
5.893700787401573
 20
8.330708661417322
 30
0.0
 11
4.516732283464566
 21
8.330708661417322
 31
0.0
  0
LINE
  5
2F80
330
1E
100
AcDbEntity
  8
7
100
AcDbLine
 10
4.516732283464566
 20
8.330708661417322
 30
0.0
 11
4.516732283464566
 21
7.724409448818897
 31
0.0
  0
LINE
  5
2F81
330
1E
100
AcDbEntity
  8
7
100
AcDbLine
 10
5.958661417322833
 20
7.761811023622045
 30
0.0
 11
5.939960629921258
 21
7.742125984251967
 31
0.0
  0
LINE
  5
2F82
330
1E
100
AcDbEntity
  8
7
100
AcDbLine
 10
5.939960629921258
 20
7.742125984251967
 30
0.0
 11
5.917322834645668
 21
7.729330708661415
 31
0.0
  0
LINE
  5
2F83
330
1E
100
AcDbEntity
  8
7
100
AcDbLine
 10
5.917322834645668
 20
7.729330708661415
 30
0.0
 11
5.893700787401573
 21
7.724409448818897
 31
0.0
  0
LINE
  5
2F84
330
1E
100
AcDbEntity
  8
7
100
AcDbLine
 10
5.986220472440943
 20
7.851377952755905
 30
0.0
 11
5.983267716535432
 21
7.818897637795275
 31
0.0
  0
LINE
  5
2F85
330
1E
100
AcDbEntity
  8
7
100
AcDbLine
 10
5.983267716535432
 20
7.818897637795275
 30
0.0
 11
5.973425196850392
 21
7.788385826771652
 31
0.0
  0
LINE
  5
2F86
330
1E
100
AcDbEntity
  8
7
100
AcDbLine
 10
5.973425196850392
 20
7.788385826771652
 30
0.0
 11
5.958661417322833
 21
7.761811023622045
 31
0.0
  0
LINE
  5
2F87
330
1E
100
AcDbEntity
  8
7
100
AcDbLine
 10
4.47047244094488
 20
7.742125984251967
 30
0.0
 11
4.450787401574801
 21
7.761811023622045
 31
0.0
  0
LINE
  5
2F88
330
1E
100
AcDbEntity
  8
7
100
AcDbLine
 10
4.450787401574801
 20
7.761811023622045
 30
0.0
 11
4.436023622047243
 21
7.788385826771652
 31
0.0
  0
LINE
  5
2F89
330
1E
100
AcDbEntity
  8
7
100
AcDbLine
 10
4.436023622047243
 20
7.788385826771652
 30
0.0
 11
4.427165354330707
 21
7.818897637795275
 31
0.0
  0
LINE
  5
2F8A
330
1E
100
AcDbEntity
  8
7
100
AcDbLine
 10
4.427165354330707
 20
7.818897637795275
 30
0.0
 11
4.424212598425196
 21
7.851377952755905
 31
0.0
  0
LINE
  5
2F8B
330
1E
100
AcDbEntity
  8
7
100
AcDbLine
 10
4.516732283464566
 20
7.724409448818897
 30
0.0
 11
4.493110236220472
 21
7.729330708661415
 31
0.0
  0
LINE
  5
2F8C
330
1E
100
AcDbEntity
  8
7
100
AcDbLine
 10
4.493110236220472
 20
7.729330708661415
 30
0.0
 11
4.47047244094488
 21
7.742125984251967
 31
0.0
  0
LINE
  5
2F8D
330
1E
100
AcDbEntity
  8
7
100
AcDbLine
 10
5.627952755905511
 20
7.585629921259843
 30
0.0
 11
5.628937007874013
 21
7.585629921259843
 31
0.0
  0
LINE
  5
2F8E
330
1E
100
AcDbEntity
  8
7
100
AcDbLine
 10
5.628937007874013
 20
7.585629921259843
 30
0.0
 11
5.628937007874013
 21
7.590551181102362
 31
0.0
  0
LINE
  5
2F8F
330
1E
100
AcDbEntity
  8
7
100
AcDbLine
 10
4.993110236220472
 20
7.585629921259843
 30
0.0
 11
4.994094488188975
 21
7.585629921259843
 31
0.0
  0
LINE
  5
2F90
330
1E
100
AcDbEntity
  8
7
100
AcDbLine
 10
4.994094488188975
 20
7.585629921259843
 30
0.0
 11
4.994094488188975
 21
7.590551181102362
 31
0.0
  0
LINE
  5
2F91
330
1E
100
AcDbEntity
  8
7
100
AcDbLine
 10
4.573818897637795
 20
7.7253937007874
 30
0.0
 11
4.573818897637795
 21
7.724409448818897
 31
0.0
  0
LINE
  5
2F92
330
1E
100
AcDbEntity
  8
7
100
AcDbLine
 10
4.573818897637795
 20
7.724409448818897
 30
0.0
 11
4.573818897637795
 21
7.7253937007874
 31
0.0
  0
LINE
  5
2F93
330
1E
100
AcDbEntity
  8
7
100
AcDbLine
 10
4.370078740157478
 20
9.048228346456692
 30
0.0
 11
4.344488188976376
 21
9.041338582677164
 31
0.0
  0
LINE
  5
2F94
330
1E
100
AcDbEntity
  8
7
100
AcDbLine
 10
4.344488188976376
 20
9.041338582677164
 30
0.0
 11
4.326771653543305
 21
9.02263779527559
 31
0.0
  0
LINE
  5
2F95
330
1E
100
AcDbEntity
  8
7
100
AcDbLine
 10
4.326771653543305
 20
9.02263779527559
 30
0.0
 11
4.319881889763778
 21
8.99803149606299
 31
0.0
  0
LINE
  5
2F96
330
1E
100
AcDbEntity
  8
7
100
AcDbLine
 10
4.319881889763778
 20
8.99803149606299
 30
0.0
 11
4.326771653543305
 21
8.99803149606299
 31
0.0
  0
LINE
  5
2F97
330
1E
100
AcDbEntity
  8
7
100
AcDbLine
 10
4.326771653543305
 20
8.99803149606299
 30
0.0
 11
4.345472440944881
 21
8.99803149606299
 31
0.0
  0
LINE
  5
2F98
330
1E
100
AcDbEntity
  8
7
100
AcDbLine
 10
4.319881889763778
 20
8.402559055118109
 30
0.0
 11
4.326771653543305
 21
8.402559055118109
 31
0.0
  0
LINE
  5
2F99
330
1E
100
AcDbEntity
  8
7
100
AcDbLine
 10
4.326771653543305
 20
8.402559055118109
 30
0.0
 11
4.345472440944881
 21
8.402559055118109
 31
0.0
  0
LINE
  5
2F9A
330
1E
100
AcDbEntity
  8
7
100
AcDbLine
 10
4.345472440944881
 20
8.402559055118109
 30
0.0
 11
4.370078740157478
 21
8.402559055118109
 31
0.0
  0
LINE
  5
2F9B
330
1E
100
AcDbEntity
  8
7
100
AcDbLine
 10
4.319881889763778
 20
8.364173228346455
 30
0.0
 11
4.326771653543305
 21
8.370078740157479
 31
0.0
  0
LINE
  5
2F9C
330
1E
100
AcDbEntity
  8
7
100
AcDbLine
 10
4.326771653543305
 20
8.370078740157479
 30
0.0
 11
4.345472440944881
 21
8.375
 31
0.0
  0
LINE
  5
2F9D
330
1E
100
AcDbEntity
  8
7
100
AcDbLine
 10
4.345472440944881
 20
8.375
 30
0.0
 11
4.370078740157478
 21
8.376968503937009
 31
0.0
  0
LINE
  5
2F9E
330
1E
100
AcDbEntity
  8
7
100
AcDbLine
 10
4.323818897637795
 20
7.541338582677163
 30
0.0
 11
4.330708661417321
 21
7.548228346456692
 31
0.0
  0
LINE
  5
2F9F
330
1E
100
AcDbEntity
  8
7
100
AcDbLine
 10
4.330708661417321
 20
7.548228346456692
 30
0.0
 11
4.348425196850392
 21
7.553149606299212
 31
0.0
  0
LINE
  5
2FA0
330
1E
100
AcDbEntity
  8
7
100
AcDbLine
 10
4.348425196850392
 20
7.553149606299212
 30
0.0
 11
4.374015748031495
 21
7.554133858267715
 31
0.0
  0
LINE
  5
2FA1
330
1E
100
AcDbEntity
  8
7
100
AcDbLine
 10
4.322834645669289
 20
7.481299212598424
 30
0.0
 11
4.329724409448818
 21
7.457677165354329
 31
0.0
  0
LINE
  5
2FA2
330
1E
100
AcDbEntity
  8
7
100
AcDbLine
 10
4.329724409448818
 20
7.457677165354329
 30
0.0
 11
4.348425196850392
 21
7.439960629921258
 31
0.0
  0
LINE
  5
2FA3
330
1E
100
AcDbEntity
  8
7
100
AcDbLine
 10
4.348425196850392
 20
7.439960629921258
 30
0.0
 11
4.37303149606299
 21
7.434055118110236
 31
0.0
  0
LINE
  5
2FA4
330
1E
100
AcDbEntity
  8
7
100
AcDbLine
 10
4.319881889763778
 20
7.351377952755905
 30
0.0
 11
4.326771653543305
 21
7.338582677165351
 31
0.0
  0
LINE
  5
2FA5
330
1E
100
AcDbEntity
  8
7
100
AcDbLine
 10
4.326771653543305
 20
7.338582677165351
 30
0.0
 11
4.345472440944881
 21
7.328740157480313
 31
0.0
  0
LINE
  5
2FA6
330
1E
100
AcDbEntity
  8
7
100
AcDbLine
 10
4.345472440944881
 20
7.328740157480313
 30
0.0
 11
4.370078740157478
 21
7.325787401574802
 31
0.0
  0
LINE
  5
2FA7
330
1E
100
AcDbEntity
  8
7
100
AcDbLine
 10
4.319881889763778
 20
7.327755905511811
 30
0.0
 11
4.325787401574801
 21
7.302165354330706
 31
0.0
  0
LINE
  5
2FA8
330
1E
100
AcDbEntity
  8
7
100
AcDbLine
 10
4.325787401574801
 20
7.302165354330706
 30
0.0
 11
4.344488188976376
 21
7.284448818897637
 31
0.0
  0
LINE
  5
2FA9
330
1E
100
AcDbEntity
  8
7
100
AcDbLine
 10
4.344488188976376
 20
7.284448818897637
 30
0.0
 11
4.369094488188975
 21
7.277559055118109
 31
0.0
  0
LINE
  5
2FAA
330
1E
100
AcDbEntity
  8
7
100
AcDbLine
 10
4.318897637795275
 20
8.999015748031496
 30
0.0
 11
4.322834645669289
 21
9.01771653543307
 31
0.0
  0
LINE
  5
2FAB
330
1E
100
AcDbEntity
  8
7
100
AcDbLine
 10
4.322834645669289
 20
9.01771653543307
 30
0.0
 11
4.333661417322834
 21
9.034448818897637
 31
0.0
  0
LINE
  5
2FAC
330
1E
100
AcDbEntity
  8
7
100
AcDbLine
 10
4.333661417322834
 20
9.034448818897637
 30
0.0
 11
4.3503937007874
 21
9.045275590551179
 31
0.0
  0
LINE
  5
2FAD
330
1E
100
AcDbEntity
  8
7
100
AcDbLine
 10
4.3503937007874
 20
9.045275590551179
 30
0.0
 11
4.369094488188975
 21
9.048228346456692
 31
0.0
  0
LINE
  5
2FAE
330
1E
100
AcDbEntity
  8
7
100
AcDbLine
 10
4.369094488188975
 20
7.276574803149605
 30
0.0
 11
4.3503937007874
 21
7.280511811023621
 31
0.0
  0
LINE
  5
2FAF
330
1E
100
AcDbEntity
  8
7
100
AcDbLine
 10
4.3503937007874
 20
7.280511811023621
 30
0.0
 11
4.333661417322834
 21
7.291338582677163
 31
0.0
  0
LINE
  5
2FB0
330
1E
100
AcDbEntity
  8
7
100
AcDbLine
 10
4.333661417322834
 20
7.291338582677163
 30
0.0
 11
4.322834645669289
 21
7.308070866141731
 31
0.0
  0
LINE
  5
2FB1
330
1E
100
AcDbEntity
  8
7
100
AcDbLine
 10
4.322834645669289
 20
7.308070866141731
 30
0.0
 11
4.318897637795275
 21
7.326771653543307
 31
0.0
  0
LINE
  5
2FB2
330
1E
100
AcDbEntity
  8
7
100
AcDbLine
 10
6.064960629921258
 20
9.041338582677164
 30
0.0
 11
6.083661417322833
 21
9.02263779527559
 31
0.0
  0
LINE
  5
2FB3
330
1E
100
AcDbEntity
  8
7
100
AcDbLine
 10
6.083661417322833
 20
9.02263779527559
 30
0.0
 11
6.090551181102362
 21
8.99803149606299
 31
0.0
  0
LINE
  5
2FB4
330
1E
100
AcDbEntity
  8
7
100
AcDbLine
 10
6.040354330708661
 20
8.99803149606299
 30
0.0
 11
6.064960629921258
 21
8.99803149606299
 31
0.0
  0
LINE
  5
2FB5
330
1E
100
AcDbEntity
  8
7
100
AcDbLine
 10
6.064960629921258
 20
8.99803149606299
 30
0.0
 11
6.083661417322833
 21
8.99803149606299
 31
0.0
  0
LINE
  5
2FB6
330
1E
100
AcDbEntity
  8
7
100
AcDbLine
 10
6.083661417322833
 20
8.99803149606299
 30
0.0
 11
6.090551181102362
 21
8.99803149606299
 31
0.0
  0
LINE
  5
2FB7
330
1E
100
AcDbEntity
  8
7
100
AcDbLine
 10
6.040354330708661
 20
8.402559055118109
 30
0.0
 11
6.064960629921258
 21
8.402559055118109
 31
0.0
  0
LINE
  5
2FB8
330
1E
100
AcDbEntity
  8
7
100
AcDbLine
 10
6.064960629921258
 20
8.402559055118109
 30
0.0
 11
6.083661417322833
 21
8.402559055118109
 31
0.0
  0
LINE
  5
2FB9
330
1E
100
AcDbEntity
  8
7
100
AcDbLine
 10
6.083661417322833
 20
8.402559055118109
 30
0.0
 11
6.090551181102362
 21
8.402559055118109
 31
0.0
  0
LINE
  5
2FBA
330
1E
100
AcDbEntity
  8
7
100
AcDbLine
 10
6.040354330708661
 20
8.376968503937009
 30
0.0
 11
6.064960629921258
 21
8.375
 31
0.0
  0
LINE
  5
2FBB
330
1E
100
AcDbEntity
  8
7
100
AcDbLine
 10
6.064960629921258
 20
8.375
 30
0.0
 11
6.083661417322833
 21
8.370078740157479
 31
0.0
  0
LINE
  5
2FBC
330
1E
100
AcDbEntity
  8
7
100
AcDbLine
 10
6.083661417322833
 20
8.370078740157479
 30
0.0
 11
6.090551181102362
 21
8.364173228346455
 31
0.0
  0
LINE
  5
2FBD
330
1E
100
AcDbEntity
  8
7
100
AcDbLine
 10
6.036417322834644
 20
7.554133858267715
 30
0.0
 11
6.061023622047241
 21
7.553149606299212
 31
0.0
  0
LINE
  5
2FBE
330
1E
100
AcDbEntity
  8
7
100
AcDbLine
 10
6.061023622047241
 20
7.553149606299212
 30
0.0
 11
6.079724409448817
 21
7.548228346456692
 31
0.0
  0
LINE
  5
2FBF
330
1E
100
AcDbEntity
  8
7
100
AcDbLine
 10
6.079724409448817
 20
7.548228346456692
 30
0.0
 11
6.086614173228346
 21
7.541338582677163
 31
0.0
  0
LINE
  5
2FC0
330
1E
100
AcDbEntity
  8
7
100
AcDbLine
 10
6.036417322834644
 20
7.434055118110236
 30
0.0
 11
6.062007874015747
 21
7.439960629921258
 31
0.0
  0
LINE
  5
2FC1
330
1E
100
AcDbEntity
  8
7
100
AcDbLine
 10
6.062007874015747
 20
7.439960629921258
 30
0.0
 11
6.079724409448817
 21
7.457677165354329
 31
0.0
  0
LINE
  5
2FC2
330
1E
100
AcDbEntity
  8
7
100
AcDbLine
 10
6.079724409448817
 20
7.457677165354329
 30
0.0
 11
6.086614173228346
 21
7.481299212598424
 31
0.0
  0
LINE
  5
2FC3
330
1E
100
AcDbEntity
  8
7
100
AcDbLine
 10
6.039370078740156
 20
7.325787401574802
 30
0.0
 11
6.064960629921258
 21
7.328740157480313
 31
0.0
  0
LINE
  5
2FC4
330
1E
100
AcDbEntity
  8
7
100
AcDbLine
 10
6.064960629921258
 20
7.328740157480313
 30
0.0
 11
6.08267716535433
 21
7.338582677165351
 31
0.0
  0
LINE
  5
2FC5
330
1E
100
AcDbEntity
  8
7
100
AcDbLine
 10
6.08267716535433
 20
7.338582677165351
 30
0.0
 11
6.089566929133857
 21
7.351377952755905
 31
0.0
  0
LINE
  5
2FC6
330
1E
100
AcDbEntity
  8
7
100
AcDbLine
 10
6.040354330708661
 20
7.277559055118109
 30
0.0
 11
6.064960629921258
 21
7.284448818897637
 31
0.0
  0
LINE
  5
2FC7
330
1E
100
AcDbEntity
  8
7
100
AcDbLine
 10
6.064960629921258
 20
7.284448818897637
 30
0.0
 11
6.083661417322833
 21
7.302165354330706
 31
0.0
  0
LINE
  5
2FC8
330
1E
100
AcDbEntity
  8
7
100
AcDbLine
 10
6.040354330708661
 20
9.048228346456692
 30
0.0
 11
6.060039370078738
 21
9.045275590551179
 31
0.0
  0
LINE
  5
2FC9
330
1E
100
AcDbEntity
  8
7
100
AcDbLine
 10
6.060039370078738
 20
9.045275590551179
 30
0.0
 11
6.075787401574802
 21
9.034448818897637
 31
0.0
  0
LINE
  5
2FCA
330
1E
100
AcDbEntity
  8
7
100
AcDbLine
 10
6.075787401574802
 20
9.034448818897637
 30
0.0
 11
6.086614173228346
 21
9.01771653543307
 31
0.0
  0
LINE
  5
2FCB
330
1E
100
AcDbEntity
  8
7
100
AcDbLine
 10
6.086614173228346
 20
9.01771653543307
 30
0.0
 11
6.090551181102362
 21
8.999015748031496
 31
0.0
  0
LINE
  5
2FCC
330
1E
100
AcDbEntity
  8
7
100
AcDbLine
 10
6.090551181102362
 20
7.326771653543307
 30
0.0
 11
6.086614173228346
 21
7.308070866141731
 31
0.0
  0
LINE
  5
2FCD
330
1E
100
AcDbEntity
  8
7
100
AcDbLine
 10
6.086614173228346
 20
7.308070866141731
 30
0.0
 11
6.075787401574802
 21
7.291338582677163
 31
0.0
  0
LINE
  5
2FCE
330
1E
100
AcDbEntity
  8
7
100
AcDbLine
 10
6.075787401574802
 20
7.291338582677163
 30
0.0
 11
6.060039370078738
 21
7.280511811023621
 31
0.0
  0
LINE
  5
2FCF
330
1E
100
AcDbEntity
  8
7
100
AcDbLine
 10
6.060039370078738
 20
7.280511811023621
 30
0.0
 11
6.040354330708661
 21
7.276574803149605
 31
0.0
  0
LINE
  5
2FD0
330
1E
100
AcDbEntity
  8
7
100
AcDbLine
 10
6.040354330708661
 20
8.99803149606299
 30
0.0
 11
6.040354330708661
 21
9.02263779527559
 31
0.0
  0
LINE
  5
2FD1
330
1E
100
AcDbEntity
  8
7
100
AcDbLine
 10
6.040354330708661
 20
9.02263779527559
 30
0.0
 11
6.040354330708661
 21
9.041338582677164
 31
0.0
  0
LINE
  5
2FD2
330
1E
100
AcDbEntity
  8
7
100
AcDbLine
 10
6.040354330708661
 20
9.041338582677164
 30
0.0
 11
6.040354330708661
 21
9.048228346456692
 31
0.0
  0
LINE
  5
2FD3
330
1E
100
AcDbEntity
  8
7
100
AcDbLine
 10
4.370078740157478
 20
9.048228346456692
 30
0.0
 11
4.370078740157478
 21
9.041338582677164
 31
0.0
  0
LINE
  5
2FD4
330
1E
100
AcDbEntity
  8
7
100
AcDbLine
 10
4.370078740157478
 20
9.041338582677164
 30
0.0
 11
4.370078740157478
 21
9.02263779527559
 31
0.0
  0
LINE
  5
2FD5
330
1E
100
AcDbEntity
  8
7
100
AcDbLine
 10
4.370078740157478
 20
9.02263779527559
 30
0.0
 11
4.370078740157478
 21
8.99803149606299
 31
0.0
  0
LINE
  5
2FD6
330
1E
100
AcDbEntity
  8
7
100
AcDbLine
 10
6.040354330708661
 20
7.277559055118109
 30
0.0
 11
6.040354330708661
 21
7.280511811023621
 31
0.0
  0
LINE
  5
2FD7
330
1E
100
AcDbEntity
  8
7
100
AcDbLine
 10
6.040354330708661
 20
7.280511811023621
 30
0.0
 11
6.040354330708661
 21
7.290354330708661
 31
0.0
  0
LINE
  5
2FD8
330
1E
100
AcDbEntity
  8
7
100
AcDbLine
 10
6.040354330708661
 20
7.290354330708661
 30
0.0
 11
6.040354330708661
 21
7.306102362204723
 31
0.0
  0
LINE
  5
2FD9
330
1E
100
AcDbEntity
  8
7
100
AcDbLine
 10
6.040354330708661
 20
7.306102362204723
 30
0.0
 11
6.039370078740156
 21
7.325787401574802
 31
0.0
  0
LINE
  5
2FDA
330
1E
100
AcDbEntity
  8
7
100
AcDbLine
 10
4.370078740157478
 20
7.325787401574802
 30
0.0
 11
4.370078740157478
 21
7.306102362204723
 31
0.0
  0
LINE
  5
2FDB
330
1E
100
AcDbEntity
  8
7
100
AcDbLine
 10
4.370078740157478
 20
7.306102362204723
 30
0.0
 11
4.370078740157478
 21
7.290354330708661
 31
0.0
  0
LINE
  5
2FDC
330
1E
100
AcDbEntity
  8
7
100
AcDbLine
 10
4.370078740157478
 20
7.290354330708661
 30
0.0
 11
4.370078740157478
 21
7.280511811023621
 31
0.0
  0
LINE
  5
2FDD
330
1E
100
AcDbEntity
  8
7
100
AcDbLine
 10
4.370078740157478
 20
7.280511811023621
 30
0.0
 11
4.369094488188975
 21
7.277559055118109
 31
0.0
  0
LINE
  5
2FDE
330
1E
100
AcDbEntity
  8
7
100
AcDbLine
 10
6.036417322834644
 20
7.434055118110236
 30
0.0
 11
6.036417322834644
 21
7.447834645669289
 31
0.0
  0
LINE
  5
2FDF
330
1E
100
AcDbEntity
  8
7
100
AcDbLine
 10
6.036417322834644
 20
7.447834645669289
 30
0.0
 11
6.036417322834644
 21
7.468503937007874
 31
0.0
  0
LINE
  5
2FE0
330
1E
100
AcDbEntity
  8
7
100
AcDbLine
 10
6.036417322834644
 20
7.468503937007874
 30
0.0
 11
6.036417322834644
 21
7.495078740157478
 31
0.0
  0
LINE
  5
2FE1
330
1E
100
AcDbEntity
  8
7
100
AcDbLine
 10
6.036417322834644
 20
7.495078740157478
 30
0.0
 11
6.036417322834644
 21
7.524606299212597
 31
0.0
  0
LINE
  5
2FE2
330
1E
100
AcDbEntity
  8
7
100
AcDbLine
 10
6.036417322834644
 20
7.524606299212597
 30
0.0
 11
6.036417322834644
 21
7.554133858267715
 31
0.0
  0
LINE
  5
2FE3
330
1E
100
AcDbEntity
  8
7
100
AcDbLine
 10
4.374015748031495
 20
7.554133858267715
 30
0.0
 11
4.374015748031495
 21
7.524606299212597
 31
0.0
  0
LINE
  5
2FE4
330
1E
100
AcDbEntity
  8
7
100
AcDbLine
 10
4.374015748031495
 20
7.524606299212597
 30
0.0
 11
4.374015748031495
 21
7.495078740157478
 31
0.0
  0
LINE
  5
2FE5
330
1E
100
AcDbEntity
  8
7
100
AcDbLine
 10
4.374015748031495
 20
7.495078740157478
 30
0.0
 11
4.37303149606299
 21
7.468503937007874
 31
0.0
  0
LINE
  5
2FE6
330
1E
100
AcDbEntity
  8
7
100
AcDbLine
 10
4.37303149606299
 20
7.468503937007874
 30
0.0
 11
4.37303149606299
 21
7.447834645669289
 31
0.0
  0
LINE
  5
2FE7
330
1E
100
AcDbEntity
  8
7
100
AcDbLine
 10
4.37303149606299
 20
7.447834645669289
 30
0.0
 11
4.37303149606299
 21
7.434055118110236
 31
0.0
  0
LINE
  5
2FE8
330
1E
100
AcDbEntity
  8
7
100
AcDbLine
 10
4.371062992125984
 20
7.361220472440943
 30
0.0
 11
4.370078740157478
 21
7.325787401574802
 31
0.0
  0
LINE
  5
2FE9
330
1E
100
AcDbEntity
  8
7
100
AcDbLine
 10
4.370078740157478
 20
7.325787401574802
 30
0.0
 11
6.039370078740156
 21
7.325787401574802
 31
0.0
  0
LINE
  5
2FEA
330
1E
100
AcDbEntity
  8
7
100
AcDbLine
 10
6.039370078740156
 20
7.325787401574802
 30
0.0
 11
6.039370078740156
 21
7.361220472440943
 31
0.0
  0
LINE
  5
2FEB
330
1E
100
AcDbEntity
  8
7
100
AcDbLine
 10
6.039370078740156
 20
7.361220472440943
 30
0.0
 11
6.038385826771652
 21
7.391732283464566
 31
0.0
  0
LINE
  5
2FEC
330
1E
100
AcDbEntity
  8
7
100
AcDbLine
 10
6.038385826771652
 20
7.391732283464566
 30
0.0
 11
6.037401574803148
 21
7.416338582677163
 31
0.0
  0
LINE
  5
2FED
330
1E
100
AcDbEntity
  8
7
100
AcDbLine
 10
6.037401574803148
 20
7.416338582677163
 30
0.0
 11
6.036417322834644
 21
7.434055118110236
 31
0.0
  0
LINE
  5
2FEE
330
1E
100
AcDbEntity
  8
7
100
AcDbLine
 10
6.036417322834644
 20
7.434055118110236
 30
0.0
 11
4.37303149606299
 21
7.434055118110236
 31
0.0
  0
LINE
  5
2FEF
330
1E
100
AcDbEntity
  8
7
100
AcDbLine
 10
4.37303149606299
 20
7.434055118110236
 30
0.0
 11
4.372047244094487
 21
7.416338582677163
 31
0.0
  0
LINE
  5
2FF0
330
1E
100
AcDbEntity
  8
7
100
AcDbLine
 10
4.372047244094487
 20
7.416338582677163
 30
0.0
 11
4.371062992125984
 21
7.391732283464566
 31
0.0
  0
LINE
  5
2FF1
330
1E
100
AcDbEntity
  8
7
100
AcDbLine
 10
4.371062992125984
 20
7.391732283464566
 30
0.0
 11
4.371062992125984
 21
7.361220472440943
 31
0.0
  0
LINE
  5
2FF2
330
1E
100
AcDbEntity
  8
7
100
AcDbLine
 10
5.991141732283463
 20
8.063976377952753
 30
0.0
 11
6.021653543307086
 21
8.063976377952753
 31
0.0
  0
LINE
  5
2FF3
330
1E
100
AcDbEntity
  8
7
100
AcDbLine
 10
6.021653543307086
 20
8.063976377952753
 30
0.0
 11
6.021653543307086
 21
8.209645669291337
 31
0.0
  0
LINE
  5
2FF4
330
1E
100
AcDbEntity
  8
7
100
AcDbLine
 10
6.021653543307086
 20
8.209645669291337
 30
0.0
 11
5.991141732283463
 21
8.209645669291337
 31
0.0
  0
LINE
  5
2FF5
330
1E
100
AcDbEntity
  8
7
100
AcDbLine
 10
4.418307086614173
 20
8.209645669291337
 30
0.0
 11
4.388779527559053
 21
8.209645669291337
 31
0.0
  0
LINE
  5
2FF6
330
1E
100
AcDbEntity
  8
7
100
AcDbLine
 10
4.388779527559053
 20
8.209645669291337
 30
0.0
 11
4.388779527559053
 21
8.063976377952753
 31
0.0
  0
LINE
  5
2FF7
330
1E
100
AcDbEntity
  8
7
100
AcDbLine
 10
4.388779527559053
 20
8.063976377952753
 30
0.0
 11
4.418307086614173
 21
8.063976377952753
 31
0.0
  0
LINE
  5
2FF8
330
1E
100
AcDbEntity
  8
7
100
AcDbLine
 10
5.991141732283463
 20
8.376968503937009
 30
0.0
 11
5.991141732283463
 21
8.389763779527557
 31
0.0
  0
LINE
  5
2FF9
330
1E
100
AcDbEntity
  8
7
100
AcDbLine
 10
5.991141732283463
 20
8.389763779527557
 30
0.0
 11
5.991141732283463
 21
8.402559055118109
 31
0.0
  0
LINE
  5
2FFA
330
1E
100
AcDbEntity
  8
7
100
AcDbLine
 10
4.418307086614173
 20
8.402559055118109
 30
0.0
 11
4.418307086614173
 21
8.389763779527557
 31
0.0
  0
LINE
  5
2FFB
330
1E
100
AcDbEntity
  8
7
100
AcDbLine
 10
4.418307086614173
 20
8.389763779527557
 30
0.0
 11
4.418307086614173
 21
8.376968503937009
 31
0.0
  0
LINE
  5
2FFC
330
1E
100
AcDbEntity
  8
7
100
AcDbLine
 10
5.991141732283463
 20
7.554133858267715
 30
0.0
 11
6.036417322834644
 21
7.554133858267715
 31
0.0
  0
LINE
  5
2FFD
330
1E
100
AcDbEntity
  8
7
100
AcDbLine
 10
6.036417322834644
 20
7.554133858267715
 30
0.0
 11
6.040354330708661
 21
8.376968503937009
 31
0.0
  0
LINE
  5
2FFE
330
1E
100
AcDbEntity
  8
7
100
AcDbLine
 10
6.040354330708661
 20
8.376968503937009
 30
0.0
 11
5.991141732283463
 21
8.376968503937009
 31
0.0
  0
LINE
  5
2FFF
330
1E
100
AcDbEntity
  8
7
100
AcDbLine
 10
6.090551181102362
 20
7.788385826771652
 30
0.0
 11
6.090551181102362
 21
8.999015748031496
 31
0.0
  0
LINE
  5
3000
330
1E
100
AcDbEntity
  8
7
100
AcDbLine
 10
6.090551181102362
 20
8.999015748031496
 30
0.0
 11
6.090551181102362
 21
8.99803149606299
 31
0.0
  0
LINE
  5
3001
330
1E
100
AcDbEntity
  8
7
100
AcDbLine
 10
6.090551181102362
 20
8.99803149606299
 30
0.0
 11
6.090551181102362
 21
8.402559055118109
 31
0.0
  0
LINE
  5
3002
330
1E
100
AcDbEntity
  8
7
100
AcDbLine
 10
6.090551181102362
 20
8.402559055118109
 30
0.0
 11
6.090551181102362
 21
8.364173228346455
 31
0.0
  0
LINE
  5
3003
330
1E
100
AcDbEntity
  8
7
100
AcDbLine
 10
6.090551181102362
 20
8.364173228346455
 30
0.0
 11
6.086614173228346
 21
7.541338582677163
 31
0.0
  0
LINE
  5
3004
330
1E
100
AcDbEntity
  8
7
100
AcDbLine
 10
6.086614173228346
 20
7.541338582677163
 30
0.0
 11
6.086614173228346
 21
7.52263779527559
 31
0.0
  0
LINE
  5
3005
330
1E
100
AcDbEntity
  8
7
100
AcDbLine
 10
6.086614173228346
 20
7.52263779527559
 30
0.0
 11
6.086614173228346
 21
7.504921259842517
 31
0.0
  0
LINE
  5
3006
330
1E
100
AcDbEntity
  8
7
100
AcDbLine
 10
6.086614173228346
 20
7.504921259842517
 30
0.0
 11
6.086614173228346
 21
7.49015748031496
 31
0.0
  0
LINE
  5
3007
330
1E
100
AcDbEntity
  8
7
100
AcDbLine
 10
6.086614173228346
 20
7.49015748031496
 30
0.0
 11
6.086614173228346
 21
7.481299212598424
 31
0.0
  0
LINE
  5
3008
330
1E
100
AcDbEntity
  8
7
100
AcDbLine
 10
6.086614173228346
 20
7.481299212598424
 30
0.0
 11
6.087598425196849
 21
7.460629921259843
 31
0.0
  0
LINE
  5
3009
330
1E
100
AcDbEntity
  8
7
100
AcDbLine
 10
6.087598425196849
 20
7.460629921259843
 30
0.0
 11
6.088582677165351
 21
7.431102362204723
 31
0.0
  0
LINE
  5
300A
330
1E
100
AcDbEntity
  8
7
100
AcDbLine
 10
6.088582677165351
 20
7.431102362204723
 30
0.0
 11
6.089566929133857
 21
7.394685039370076
 31
0.0
  0
LINE
  5
300B
330
1E
100
AcDbEntity
  8
7
100
AcDbLine
 10
6.089566929133857
 20
7.351377952755905
 30
0.0
 11
6.089566929133857
 21
7.338582677165351
 31
0.0
  0
LINE
  5
300C
330
1E
100
AcDbEntity
  8
7
100
AcDbLine
 10
6.089566929133857
 20
7.338582677165351
 30
0.0
 11
6.090551181102362
 21
7.330708661417322
 31
0.0
  0
LINE
  5
300D
330
1E
100
AcDbEntity
  8
7
100
AcDbLine
 10
6.090551181102362
 20
7.330708661417322
 30
0.0
 11
6.090551181102362
 21
7.327755905511811
 31
0.0
  0
LINE
  5
300E
330
1E
100
AcDbEntity
  8
7
100
AcDbLine
 10
6.090551181102362
 20
7.327755905511811
 30
0.0
 11
6.090551181102362
 21
7.326771653543307
 31
0.0
  0
LINE
  5
300F
330
1E
100
AcDbEntity
  8
7
100
AcDbLine
 10
6.090551181102362
 20
7.326771653543307
 30
0.0
 11
6.090551181102362
 21
7.701771653543307
 31
0.0
  0
LINE
  5
3010
330
1E
100
AcDbEntity
  8
7
100
AcDbLine
 10
4.744094488188975
 20
9.048228346456692
 30
0.0
 11
4.369094488188975
 21
9.048228346456692
 31
0.0
  0
LINE
  5
3011
330
1E
100
AcDbEntity
  8
7
100
AcDbLine
 10
4.369094488188975
 20
9.048228346456692
 30
0.0
 11
4.370078740157478
 21
9.048228346456692
 31
0.0
  0
LINE
  5
3012
330
1E
100
AcDbEntity
  8
7
100
AcDbLine
 10
4.370078740157478
 20
9.048228346456692
 30
0.0
 11
6.040354330708661
 21
9.048228346456692
 31
0.0
  0
LINE
  5
3013
330
1E
100
AcDbEntity
  8
7
100
AcDbLine
 10
4.319881889763778
 20
7.327755905511811
 30
0.0
 11
4.319881889763778
 21
7.330708661417322
 31
0.0
  0
LINE
  5
3014
330
1E
100
AcDbEntity
  8
7
100
AcDbLine
 10
4.319881889763778
 20
7.330708661417322
 30
0.0
 11
4.319881889763778
 21
7.338582677165351
 31
0.0
  0
LINE
  5
3015
330
1E
100
AcDbEntity
  8
7
100
AcDbLine
 10
4.319881889763778
 20
7.338582677165351
 30
0.0
 11
4.319881889763778
 21
7.351377952755905
 31
0.0
  0
LINE
  5
3016
330
1E
100
AcDbEntity
  8
7
100
AcDbLine
 10
4.319881889763778
 20
7.351377952755905
 30
0.0
 11
4.320866141732283
 21
7.394685039370076
 31
0.0
  0
LINE
  5
3017
330
1E
100
AcDbEntity
  8
7
100
AcDbLine
 10
4.320866141732283
 20
7.394685039370076
 30
0.0
 11
4.321850393700787
 21
7.431102362204723
 31
0.0
  0
LINE
  5
3018
330
1E
100
AcDbEntity
  8
7
100
AcDbLine
 10
4.321850393700787
 20
7.431102362204723
 30
0.0
 11
4.321850393700787
 21
7.460629921259843
 31
0.0
  0
LINE
  5
3019
330
1E
100
AcDbEntity
  8
7
100
AcDbLine
 10
4.321850393700787
 20
7.460629921259843
 30
0.0
 11
4.322834645669289
 21
7.481299212598424
 31
0.0
  0
LINE
  5
301A
330
1E
100
AcDbEntity
  8
7
100
AcDbLine
 10
4.322834645669289
 20
7.481299212598424
 30
0.0
 11
4.323818897637795
 21
7.49015748031496
 31
0.0
  0
LINE
  5
301B
330
1E
100
AcDbEntity
  8
7
100
AcDbLine
 10
4.323818897637795
 20
7.49015748031496
 30
0.0
 11
4.323818897637795
 21
7.504921259842517
 31
0.0
  0
LINE
  5
301C
330
1E
100
AcDbEntity
  8
7
100
AcDbLine
 10
4.323818897637795
 20
7.504921259842517
 30
0.0
 11
4.323818897637795
 21
7.52263779527559
 31
0.0
  0
LINE
  5
301D
330
1E
100
AcDbEntity
  8
7
100
AcDbLine
 10
4.323818897637795
 20
7.52263779527559
 30
0.0
 11
4.323818897637795
 21
7.541338582677163
 31
0.0
  0
LINE
  5
301E
330
1E
100
AcDbEntity
  8
7
100
AcDbLine
 10
4.323818897637795
 20
7.541338582677163
 30
0.0
 11
4.319881889763778
 21
8.364173228346455
 31
0.0
  0
LINE
  5
301F
330
1E
100
AcDbEntity
  8
7
100
AcDbLine
 10
4.319881889763778
 20
8.364173228346455
 30
0.0
 11
4.319881889763778
 21
8.402559055118109
 31
0.0
  0
LINE
  5
3020
330
1E
100
AcDbEntity
  8
7
100
AcDbLine
 10
4.318897637795275
 20
7.701771653543307
 30
0.0
 11
4.318897637795275
 21
7.326771653543307
 31
0.0
  0
LINE
  5
3021
330
1E
100
AcDbEntity
  8
7
100
AcDbLine
 10
4.318897637795275
 20
7.326771653543307
 30
0.0
 11
4.319881889763778
 21
7.327755905511811
 31
0.0
  0
LINE
  5
3022
330
1E
100
AcDbEntity
  8
7
100
AcDbLine
 10
4.319881889763778
 20
8.402559055118109
 30
0.0
 11
4.319881889763778
 21
8.99803149606299
 31
0.0
  0
LINE
  5
3023
330
1E
100
AcDbEntity
  8
7
100
AcDbLine
 10
4.319881889763778
 20
8.99803149606299
 30
0.0
 11
4.318897637795275
 21
8.999015748031496
 31
0.0
  0
LINE
  5
3024
330
1E
100
AcDbEntity
  8
7
100
AcDbLine
 10
4.318897637795275
 20
8.999015748031496
 30
0.0
 11
4.318897637795275
 21
7.788385826771652
 31
0.0
  0
LINE
  5
3025
330
1E
100
AcDbEntity
  8
7
100
AcDbLine
 10
5.24803149606299
 20
7.276574803149605
 30
0.0
 11
6.040354330708661
 21
7.276574803149605
 31
0.0
  0
LINE
  5
3026
330
1E
100
AcDbEntity
  8
7
100
AcDbLine
 10
6.040354330708661
 20
7.276574803149605
 30
0.0
 11
6.040354330708661
 21
7.277559055118109
 31
0.0
  0
LINE
  5
3027
330
1E
100
AcDbEntity
  8
7
100
AcDbLine
 10
6.040354330708661
 20
7.277559055118109
 30
0.0
 11
4.369094488188975
 21
7.277559055118109
 31
0.0
  0
LINE
  5
3028
330
1E
100
AcDbEntity
  8
7
100
AcDbLine
 10
4.369094488188975
 20
7.277559055118109
 30
0.0
 11
4.369094488188975
 21
7.276574803149605
 31
0.0
  0
LINE
  5
3029
330
1E
100
AcDbEntity
  8
7
100
AcDbLine
 10
4.369094488188975
 20
7.276574803149605
 30
0.0
 11
5.162401574803148
 21
7.276574803149605
 31
0.0
  0
LINE
  5
302A
330
1E
100
AcDbEntity
  8
7
100
AcDbLine
 10
5.991141732283463
 20
8.402559055118109
 30
0.0
 11
6.040354330708661
 21
8.402559055118109
 31
0.0
  0
LINE
  5
302B
330
1E
100
AcDbEntity
  8
7
100
AcDbLine
 10
6.040354330708661
 20
8.402559055118109
 30
0.0
 11
6.040354330708661
 21
8.99803149606299
 31
0.0
  0
LINE
  5
302C
330
1E
100
AcDbEntity
  8
7
100
AcDbLine
 10
6.040354330708661
 20
8.99803149606299
 30
0.0
 11
4.370078740157478
 21
8.99803149606299
 31
0.0
  0
LINE
  5
302D
330
1E
100
AcDbEntity
  8
7
100
AcDbLine
 10
4.370078740157478
 20
8.99803149606299
 30
0.0
 11
4.370078740157478
 21
8.402559055118109
 31
0.0
  0
LINE
  5
302E
330
1E
100
AcDbEntity
  8
7
100
AcDbLine
 10
4.370078740157478
 20
8.402559055118109
 30
0.0
 11
4.418307086614173
 21
8.402559055118109
 31
0.0
  0
LINE
  5
302F
330
1E
100
AcDbEntity
  8
7
100
AcDbLine
 10
4.418307086614173
 20
7.554133858267715
 30
0.0
 11
4.418307086614173
 21
7.545275590551182
 31
0.0
  0
LINE
  5
3030
330
1E
100
AcDbEntity
  8
7
100
AcDbLine
 10
4.418307086614173
 20
7.545275590551182
 30
0.0
 11
4.418307086614173
 21
7.535433070866139
 31
0.0
  0
LINE
  5
3031
330
1E
100
AcDbEntity
  8
7
100
AcDbLine
 10
5.991141732283463
 20
7.535433070866139
 30
0.0
 11
5.991141732283463
 21
7.545275590551182
 31
0.0
  0
LINE
  5
3032
330
1E
100
AcDbEntity
  8
7
100
AcDbLine
 10
5.991141732283463
 20
7.545275590551182
 30
0.0
 11
5.991141732283463
 21
7.554133858267715
 31
0.0
  0
LINE
  5
3033
330
1E
100
AcDbEntity
  8
7
100
AcDbLine
 10
5.991141732283463
 20
7.554133858267715
 30
0.0
 11
5.991141732283463
 21
8.061023622047244
 31
0.0
  0
LINE
  5
3034
330
1E
100
AcDbEntity
  8
7
100
AcDbLine
 10
5.991141732283463
 20
8.061023622047244
 30
0.0
 11
5.991141732283463
 21
8.063976377952753
 31
0.0
  0
LINE
  5
3035
330
1E
100
AcDbEntity
  8
7
100
AcDbLine
 10
4.418307086614173
 20
8.376968503937009
 30
0.0
 11
4.370078740157478
 21
8.376968503937009
 31
0.0
  0
LINE
  5
3036
330
1E
100
AcDbEntity
  8
7
100
AcDbLine
 10
4.370078740157478
 20
8.376968503937009
 30
0.0
 11
4.374015748031495
 21
7.554133858267715
 31
0.0
  0
LINE
  5
3037
330
1E
100
AcDbEntity
  8
7
100
AcDbLine
 10
4.374015748031495
 20
7.554133858267715
 30
0.0
 11
4.418307086614173
 21
7.554133858267715
 31
0.0
  0
LINE
  5
30ED
330
1E
100
AcDbEntity
  8
7
100
AcDbLine
 10
5.835629921259843
 20
6.5501968503937
 30
0.0
 11
5.834645669291337
 21
6.497047244094487
 31
0.0
  0
LINE
  5
30EE
330
1E
100
AcDbEntity
  8
7
100
AcDbLine
 10
5.834645669291337
 20
6.497047244094487
 30
0.0
 11
5.834645669291337
 21
6.337598425196849
 31
0.0
  0
LINE
  5
30EF
330
1E
100
AcDbEntity
  8
7
100
AcDbLine
 10
5.768700787401573
 20
6.5501968503937
 30
0.0
 11
5.76771653543307
 21
6.497047244094487
 31
0.0
  0
LINE
  5
30F0
330
1E
100
AcDbEntity
  8
7
100
AcDbLine
 10
5.76771653543307
 20
6.497047244094487
 30
0.0
 11
5.76771653543307
 21
6.530511811023621
 31
0.0
  0
LINE
  5
30F1
330
1E
100
AcDbEntity
  8
7
100
AcDbLine
 10
4.64271653543307
 20
6.497047244094487
 30
0.0
 11
4.64271653543307
 21
6.530511811023621
 31
0.0
  0
LINE
  5
30F2
330
1E
100
AcDbEntity
  8
7
100
AcDbLine
 10
4.64271653543307
 20
6.530511811023621
 30
0.0
 11
4.641732283464566
 21
6.58267716535433
 31
0.0
  0
LINE
  5
30F3
330
1E
100
AcDbEntity
  8
7
100
AcDbLine
 10
5.083661417322834
 20
6.504921259842518
 30
0.0
 11
5.083661417322834
 21
6.501968503937008
 31
0.0
  0
LINE
  5
30F4
330
1E
100
AcDbEntity
  8
7
100
AcDbLine
 10
5.083661417322834
 20
6.501968503937008
 30
0.0
 11
5.082677165354329
 21
6.530511811023621
 31
0.0
  0
LINE
  5
30F5
330
1E
100
AcDbEntity
  8
7
100
AcDbLine
 10
5.718503937007874
 20
6.504921259842518
 30
0.0
 11
5.718503937007874
 21
6.501968503937008
 31
0.0
  0
LINE
  5
30F6
330
1E
100
AcDbEntity
  8
7
100
AcDbLine
 10
5.718503937007874
 20
6.501968503937008
 30
0.0
 11
5.718503937007874
 21
6.530511811023621
 31
0.0
  0
LINE
  5
30F7
330
1E
100
AcDbEntity
  8
7
100
AcDbLine
 10
5.936023622047241
 20
5.622047244094487
 30
0.0
 11
5.9251968503937
 21
5.622047244094487
 31
0.0
  0
LINE
  5
30F8
330
1E
100
AcDbEntity
  8
7
100
AcDbLine
 10
5.9251968503937
 20
5.622047244094487
 30
0.0
 11
5.893700787401573
 21
5.765748031496062
 31
0.0
  0
LINE
  5
30F9
330
1E
100
AcDbEntity
  8
7
100
AcDbLine
 10
5.909448818897637
 20
5.775590551181101
 30
0.0
 11
5.9251968503937
 21
5.706692913385825
 31
0.0
  0
LINE
  5
30FA
330
1E
100
AcDbEntity
  8
7
100
AcDbLine
 10
5.9251968503937
 20
5.706692913385825
 30
0.0
 11
5.934055118110236
 21
5.706692913385825
 31
0.0
  0
LINE
  5
30FB
330
1E
100
AcDbEntity
  8
7
100
AcDbLine
 10
4.476377952755905
 20
5.706692913385825
 30
0.0
 11
4.48523622047244
 21
5.706692913385825
 31
0.0
  0
LINE
  5
30FC
330
1E
100
AcDbEntity
  8
7
100
AcDbLine
 10
4.48523622047244
 20
5.706692913385825
 30
0.0
 11
4.5
 21
5.775590551181101
 31
0.0
  0
LINE
  5
30FD
330
1E
100
AcDbEntity
  8
7
100
AcDbLine
 10
4.516732283464566
 20
5.765748031496062
 30
0.0
 11
4.48523622047244
 21
5.622047244094487
 31
0.0
  0
LINE
  5
30FE
330
1E
100
AcDbEntity
  8
7
100
AcDbLine
 10
4.48523622047244
 20
5.622047244094487
 30
0.0
 11
4.474409448818896
 21
5.622047244094487
 31
0.0
  0
LINE
  5
30FF
330
1E
100
AcDbEntity
  8
7
100
AcDbLine
 10
5.986220472440943
 20
6.556102362204723
 30
0.0
 11
5.981299212598425
 21
6.581692913385825
 31
0.0
  0
LINE
  5
3100
330
1E
100
AcDbEntity
  8
7
100
AcDbLine
 10
5.981299212598425
 20
6.581692913385825
 30
0.0
 11
5.968503937007874
 21
6.603346456692912
 31
0.0
  0
LINE
  5
3101
330
1E
100
AcDbEntity
  8
7
100
AcDbLine
 10
5.968503937007874
 20
6.603346456692912
 30
0.0
 11
5.947834645669289
 21
6.622047244094487
 31
0.0
  0
LINE
  5
3102
330
1E
100
AcDbEntity
  8
7
100
AcDbLine
 10
5.947834645669289
 20
6.622047244094487
 30
0.0
 11
5.922244094488188
 21
6.632874015748031
 31
0.0
  0
LINE
  5
3103
330
1E
100
AcDbEntity
  8
7
100
AcDbLine
 10
5.922244094488188
 20
6.632874015748031
 30
0.0
 11
5.893700787401573
 21
6.636811023622048
 31
0.0
  0
LINE
  5
3104
330
1E
100
AcDbEntity
  8
7
100
AcDbLine
 10
5.893700787401573
 20
6.649606299212597
 30
0.0
 11
5.893700787401573
 21
6.646653543307086
 31
0.0
  0
LINE
  5
3105
330
1E
100
AcDbEntity
  8
7
100
AcDbLine
 10
5.893700787401573
 20
6.646653543307086
 30
0.0
 11
5.893700787401573
 21
6.636811023622048
 31
0.0
  0
LINE
  5
3106
330
1E
100
AcDbEntity
  8
7
100
AcDbLine
 10
4.516732283464566
 20
6.649606299212597
 30
0.0
 11
4.516732283464566
 21
6.646653543307086
 31
0.0
  0
LINE
  5
3107
330
1E
100
AcDbEntity
  8
7
100
AcDbLine
 10
4.516732283464566
 20
6.646653543307086
 30
0.0
 11
4.516732283464566
 21
6.636811023622048
 31
0.0
  0
LINE
  5
3108
330
1E
100
AcDbEntity
  8
7
100
AcDbLine
 10
4.424212598425196
 20
6.556102362204723
 30
0.0
 11
4.428149606299212
 21
6.581692913385825
 31
0.0
  0
LINE
  5
3109
330
1E
100
AcDbEntity
  8
7
100
AcDbLine
 10
4.428149606299212
 20
6.581692913385825
 30
0.0
 11
4.441929133858266
 21
6.603346456692912
 31
0.0
  0
LINE
  5
310A
330
1E
100
AcDbEntity
  8
7
100
AcDbLine
 10
4.441929133858266
 20
6.603346456692912
 30
0.0
 11
4.461614173228346
 21
6.622047244094487
 31
0.0
  0
LINE
  5
310B
330
1E
100
AcDbEntity
  8
7
100
AcDbLine
 10
4.461614173228346
 20
6.622047244094487
 30
0.0
 11
4.488188976377951
 21
6.632874015748031
 31
0.0
  0
LINE
  5
310C
330
1E
100
AcDbEntity
  8
7
100
AcDbLine
 10
4.488188976377951
 20
6.632874015748031
 30
0.0
 11
4.516732283464566
 21
6.636811023622048
 31
0.0
  0
LINE
  5
310D
330
1E
100
AcDbEntity
  8
7
100
AcDbLine
 10
5.986220472440943
 20
6.556102362204723
 30
0.0
 11
5.986220472440943
 21
6.337598425196849
 31
0.0
  0
LINE
  5
310E
330
1E
100
AcDbEntity
  8
7
100
AcDbLine
 10
5.986220472440943
 20
6.337598425196849
 30
0.0
 11
5.986220472440943
 21
6.556102362204723
 31
0.0
  0
LINE
  5
310F
330
1E
100
AcDbEntity
  8
7
100
AcDbLine
 10
5.276574803149605
 20
6.5501968503937
 30
0.0
 11
5.27755905511811
 21
6.497047244094487
 31
0.0
  0
LINE
  5
3110
330
1E
100
AcDbEntity
  8
7
100
AcDbLine
 10
5.27755905511811
 20
6.497047244094487
 30
0.0
 11
5.27755905511811
 21
6.530511811023621
 31
0.0
  0
LINE
  5
3111
330
1E
100
AcDbEntity
  8
7
100
AcDbLine
 10
5.625984251968502
 20
6.58267716535433
 30
0.0
 11
5.768700787401573
 21
6.58267716535433
 31
0.0
  0
LINE
  5
3112
330
1E
100
AcDbEntity
  8
7
100
AcDbLine
 10
5.768700787401573
 20
6.58267716535433
 30
0.0
 11
5.768700787401573
 21
6.5501968503937
 31
0.0
  0
LINE
  5
3113
330
1E
100
AcDbEntity
  8
7
100
AcDbLine
 10
5.133858267716535
 20
6.58267716535433
 30
0.0
 11
5.133858267716535
 21
6.5501968503937
 31
0.0
  0
LINE
  5
3114
330
1E
100
AcDbEntity
  8
7
100
AcDbLine
 10
5.133858267716535
 20
6.5501968503937
 30
0.0
 11
5.276574803149605
 21
6.5501968503937
 31
0.0
  0
LINE
  5
3115
330
1E
100
AcDbEntity
  8
7
100
AcDbLine
 10
5.893700787401573
 20
6.337598425196849
 30
0.0
 11
5.893700787401573
 21
6.636811023622048
 31
0.0
  0
LINE
  5
3116
330
1E
100
AcDbEntity
  8
7
100
AcDbLine
 10
5.893700787401573
 20
6.636811023622048
 30
0.0
 11
4.516732283464566
 21
6.636811023622048
 31
0.0
  0
LINE
  5
3117
330
1E
100
AcDbEntity
  8
7
100
AcDbLine
 10
4.516732283464566
 20
6.636811023622048
 30
0.0
 11
4.516732283464566
 21
6.337598425196849
 31
0.0
  0
LINE
  5
3118
330
1E
100
AcDbEntity
  8
7
100
AcDbLine
 10
5.276574803149605
 20
6.469488188976378
 30
0.0
 11
5.27755905511811
 21
6.497047244094487
 31
0.0
  0
LINE
  5
3119
330
1E
100
AcDbEntity
  8
7
100
AcDbLine
 10
5.27755905511811
 20
6.497047244094487
 30
0.0
 11
5.132874015748031
 21
6.497047244094487
 31
0.0
  0
LINE
  5
311A
330
1E
100
AcDbEntity
  8
7
100
AcDbLine
 10
5.132874015748031
 20
6.497047244094487
 30
0.0
 11
5.132874015748031
 21
6.469488188976378
 31
0.0
  0
LINE
  5
311B
330
1E
100
AcDbEntity
  8
7
100
AcDbLine
 10
5.045275590551179
 20
6.530511811023621
 30
0.0
 11
5.082677165354329
 21
6.530511811023621
 31
0.0
  0
LINE
  5
311C
330
1E
100
AcDbEntity
  8
7
100
AcDbLine
 10
5.082677165354329
 20
6.530511811023621
 30
0.0
 11
5.132874015748031
 21
6.530511811023621
 31
0.0
  0
LINE
  5
311D
330
1E
100
AcDbEntity
  8
7
100
AcDbLine
 10
4.322834645669289
 20
6.254921259842518
 30
0.0
 11
4.329724409448818
 21
6.261811023622048
 31
0.0
  0
LINE
  5
311E
330
1E
100
AcDbEntity
  8
7
100
AcDbLine
 10
4.329724409448818
 20
6.261811023622048
 30
0.0
 11
4.348425196850392
 21
6.26771653543307
 31
0.0
  0
LINE
  5
311F
330
1E
100
AcDbEntity
  8
7
100
AcDbLine
 10
4.348425196850392
 20
6.26771653543307
 30
0.0
 11
4.37303149606299
 21
6.269685039370076
 31
0.0
  0
LINE
  5
3120
330
1E
100
AcDbEntity
  8
7
100
AcDbLine
 10
4.319881889763778
 20
6.091535433070864
 30
0.0
 11
4.326771653543305
 21
6.113188976377951
 31
0.0
  0
LINE
  5
3121
330
1E
100
AcDbEntity
  8
7
100
AcDbLine
 10
4.326771653543305
 20
6.113188976377951
 30
0.0
 11
4.345472440944881
 21
6.127952755905511
 31
0.0
  0
LINE
  5
3122
330
1E
100
AcDbEntity
  8
7
100
AcDbLine
 10
4.345472440944881
 20
6.127952755905511
 30
0.0
 11
4.370078740157478
 21
6.133858267716535
 31
0.0
  0
LINE
  5
3123
330
1E
100
AcDbEntity
  8
7
100
AcDbLine
 10
4.319881889763778
 20
6.0501968503937
 30
0.0
 11
4.325787401574801
 21
6.0501968503937
 31
0.0
  0
LINE
  5
3124
330
1E
100
AcDbEntity
  8
7
100
AcDbLine
 10
4.325787401574801
 20
6.0501968503937
 30
0.0
 11
4.344488188976376
 21
6.0501968503937
 31
0.0
  0
LINE
  5
3125
330
1E
100
AcDbEntity
  8
7
100
AcDbLine
 10
4.344488188976376
 20
6.0501968503937
 30
0.0
 11
4.369094488188975
 21
6.0501968503937
 31
0.0
  0
LINE
  5
3126
330
1E
100
AcDbEntity
  8
7
100
AcDbLine
 10
4.369094488188975
 20
6.028543307086612
 30
0.0
 11
4.3503937007874
 21
6.028543307086612
 31
0.0
  0
LINE
  5
3127
330
1E
100
AcDbEntity
  8
7
100
AcDbLine
 10
4.3503937007874
 20
6.028543307086612
 30
0.0
 11
4.333661417322834
 21
6.028543307086612
 31
0.0
  0
LINE
  5
3128
330
1E
100
AcDbEntity
  8
7
100
AcDbLine
 10
4.333661417322834
 20
6.028543307086612
 30
0.0
 11
4.322834645669289
 21
6.028543307086612
 31
0.0
  0
LINE
  5
3129
330
1E
100
AcDbEntity
  8
7
100
AcDbLine
 10
4.322834645669289
 20
6.028543307086612
 30
0.0
 11
4.318897637795275
 21
6.028543307086612
 31
0.0
  0
LINE
  5
312A
330
1E
100
AcDbEntity
  8
7
100
AcDbLine
 10
6.036417322834644
 20
6.269685039370076
 30
0.0
 11
6.062007874015747
 21
6.26771653543307
 31
0.0
  0
LINE
  5
312B
330
1E
100
AcDbEntity
  8
7
100
AcDbLine
 10
6.062007874015747
 20
6.26771653543307
 30
0.0
 11
6.079724409448817
 21
6.261811023622048
 31
0.0
  0
LINE
  5
312C
330
1E
100
AcDbEntity
  8
7
100
AcDbLine
 10
6.079724409448817
 20
6.261811023622048
 30
0.0
 11
6.086614173228346
 21
6.254921259842518
 31
0.0
  0
LINE
  5
312D
330
1E
100
AcDbEntity
  8
7
100
AcDbLine
 10
6.039370078740156
 20
6.133858267716535
 30
0.0
 11
6.064960629921258
 21
6.127952755905511
 31
0.0
  0
LINE
  5
312E
330
1E
100
AcDbEntity
  8
7
100
AcDbLine
 10
6.064960629921258
 20
6.127952755905511
 30
0.0
 11
6.08267716535433
 21
6.113188976377951
 31
0.0
  0
LINE
  5
312F
330
1E
100
AcDbEntity
  8
7
100
AcDbLine
 10
6.08267716535433
 20
6.113188976377951
 30
0.0
 11
6.089566929133857
 21
6.091535433070864
 31
0.0
  0
LINE
  5
3130
330
1E
100
AcDbEntity
  8
7
100
AcDbLine
 10
6.040354330708661
 20
6.0501968503937
 30
0.0
 11
6.064960629921258
 21
6.0501968503937
 31
0.0
  0
LINE
  5
3131
330
1E
100
AcDbEntity
  8
7
100
AcDbLine
 10
6.064960629921258
 20
6.0501968503937
 30
0.0
 11
6.083661417322833
 21
6.0501968503937
 31
0.0
  0
LINE
  5
3132
330
1E
100
AcDbEntity
  8
7
100
AcDbLine
 10
6.083661417322833
 20
6.0501968503937
 30
0.0
 11
6.090551181102362
 21
6.0501968503937
 31
0.0
  0
LINE
  5
3133
330
1E
100
AcDbEntity
  8
7
100
AcDbLine
 10
6.075787401574802
 20
6.028543307086612
 30
0.0
 11
6.060039370078738
 21
6.028543307086612
 31
0.0
  0
LINE
  5
3134
330
1E
100
AcDbEntity
  8
7
100
AcDbLine
 10
6.060039370078738
 20
6.028543307086612
 30
0.0
 11
6.040354330708661
 21
6.028543307086612
 31
0.0
  0
LINE
  5
3135
330
1E
100
AcDbEntity
  8
7
100
AcDbLine
 10
6.090551181102362
 20
6.028543307086612
 30
0.0
 11
6.086614173228346
 21
6.028543307086612
 31
0.0
  0
LINE
  5
3136
330
1E
100
AcDbEntity
  8
7
100
AcDbLine
 10
6.086614173228346
 20
6.028543307086612
 30
0.0
 11
6.075787401574802
 21
6.028543307086612
 31
0.0
  0
LINE
  5
3137
330
1E
100
AcDbEntity
  8
7
100
AcDbLine
 10
6.040354330708661
 20
6.0501968503937
 30
0.0
 11
6.040354330708661
 21
6.074803149606299
 31
0.0
  0
LINE
  5
3138
330
1E
100
AcDbEntity
  8
7
100
AcDbLine
 10
6.040354330708661
 20
6.074803149606299
 30
0.0
 11
6.040354330708661
 21
6.097440944881888
 31
0.0
  0
LINE
  5
3139
330
1E
100
AcDbEntity
  8
7
100
AcDbLine
 10
6.040354330708661
 20
6.097440944881888
 30
0.0
 11
6.040354330708661
 21
6.118110236220473
 31
0.0
  0
LINE
  5
313A
330
1E
100
AcDbEntity
  8
7
100
AcDbLine
 10
6.040354330708661
 20
6.118110236220473
 30
0.0
 11
6.039370078740156
 21
6.133858267716535
 31
0.0
  0
LINE
  5
313B
330
1E
100
AcDbEntity
  8
7
100
AcDbLine
 10
4.370078740157478
 20
6.133858267716535
 30
0.0
 11
4.370078740157478
 21
6.118110236220473
 31
0.0
  0
LINE
  5
313C
330
1E
100
AcDbEntity
  8
7
100
AcDbLine
 10
4.370078740157478
 20
6.118110236220473
 30
0.0
 11
4.370078740157478
 21
6.097440944881888
 31
0.0
  0
LINE
  5
313D
330
1E
100
AcDbEntity
  8
7
100
AcDbLine
 10
4.370078740157478
 20
6.097440944881888
 30
0.0
 11
4.370078740157478
 21
6.074803149606299
 31
0.0
  0
LINE
  5
313E
330
1E
100
AcDbEntity
  8
7
100
AcDbLine
 10
4.370078740157478
 20
6.074803149606299
 30
0.0
 11
4.369094488188975
 21
6.0501968503937
 31
0.0
  0
LINE
  5
313F
330
1E
100
AcDbEntity
  8
7
100
AcDbLine
 10
5.270669291338582
 20
5.736220472440943
 30
0.0
 11
5.269685039370077
 21
5.750984251968502
 31
0.0
  0
LINE
  5
3140
330
1E
100
AcDbEntity
  8
7
100
AcDbLine
 10
5.269685039370077
 20
5.750984251968502
 30
0.0
 11
5.268700787401574
 21
5.763779527559053
 31
0.0
  0
LINE
  5
3141
330
1E
100
AcDbEntity
  8
7
100
AcDbLine
 10
5.268700787401574
 20
5.763779527559053
 30
0.0
 11
5.268700787401574
 21
5.772637795275588
 31
0.0
  0
LINE
  5
3142
330
1E
100
AcDbEntity
  8
7
100
AcDbLine
 10
5.268700787401574
 20
5.772637795275588
 30
0.0
 11
5.268700787401574
 21
5.775590551181101
 31
0.0
  0
LINE
  5
3143
330
1E
100
AcDbEntity
  8
7
100
AcDbLine
 10
5.141732283464566
 20
5.775590551181101
 30
0.0
 11
5.141732283464566
 21
5.772637795275588
 31
0.0
  0
LINE
  5
3144
330
1E
100
AcDbEntity
  8
7
100
AcDbLine
 10
5.141732283464566
 20
5.772637795275588
 30
0.0
 11
5.141732283464566
 21
5.763779527559053
 31
0.0
  0
LINE
  5
3145
330
1E
100
AcDbEntity
  8
7
100
AcDbLine
 10
5.141732283464566
 20
5.763779527559053
 30
0.0
 11
5.140748031496062
 21
5.750984251968502
 31
0.0
  0
LINE
  5
3146
330
1E
100
AcDbEntity
  8
7
100
AcDbLine
 10
5.140748031496062
 20
5.750984251968502
 30
0.0
 11
5.139763779527558
 21
5.736220472440943
 31
0.0
  0
LINE
  5
3147
330
1E
100
AcDbEntity
  8
7
100
AcDbLine
 10
6.036417322834644
 20
6.269685039370076
 30
0.0
 11
6.036417322834644
 21
6.297244094488188
 31
0.0
  0
LINE
  5
3148
330
1E
100
AcDbEntity
  8
7
100
AcDbLine
 10
6.036417322834644
 20
6.297244094488188
 30
0.0
 11
6.036417322834644
 21
6.318897637795275
 31
0.0
  0
LINE
  5
3149
330
1E
100
AcDbEntity
  8
7
100
AcDbLine
 10
6.036417322834644
 20
6.318897637795275
 30
0.0
 11
6.036417322834644
 21
6.333661417322833
 31
0.0
  0
LINE
  5
314A
330
1E
100
AcDbEntity
  8
7
100
AcDbLine
 10
6.036417322834644
 20
6.333661417322833
 30
0.0
 11
6.036417322834644
 21
6.337598425196849
 31
0.0
  0
LINE
  5
314B
330
1E
100
AcDbEntity
  8
7
100
AcDbLine
 10
4.374015748031495
 20
6.337598425196849
 30
0.0
 11
4.374015748031495
 21
6.333661417322833
 31
0.0
  0
LINE
  5
314C
330
1E
100
AcDbEntity
  8
7
100
AcDbLine
 10
4.374015748031495
 20
6.333661417322833
 30
0.0
 11
4.374015748031495
 21
6.319881889763778
 31
0.0
  0
LINE
  5
314D
330
1E
100
AcDbEntity
  8
7
100
AcDbLine
 10
4.374015748031495
 20
6.319881889763778
 30
0.0
 11
4.37303149606299
 21
6.297244094488188
 31
0.0
  0
LINE
  5
314E
330
1E
100
AcDbEntity
  8
7
100
AcDbLine
 10
4.37303149606299
 20
6.297244094488188
 30
0.0
 11
4.37303149606299
 21
6.269685039370076
 31
0.0
  0
LINE
  5
314F
330
1E
100
AcDbEntity
  8
7
100
AcDbLine
 10
6.038385826771652
 20
6.191929133858266
 30
0.0
 11
6.037401574803148
 21
6.228346456692912
 31
0.0
  0
LINE
  5
3150
330
1E
100
AcDbEntity
  8
7
100
AcDbLine
 10
6.037401574803148
 20
6.228346456692912
 30
0.0
 11
6.036417322834644
 21
6.269685039370076
 31
0.0
  0
LINE
  5
3151
330
1E
100
AcDbEntity
  8
7
100
AcDbLine
 10
6.036417322834644
 20
6.269685039370076
 30
0.0
 11
4.37303149606299
 21
6.269685039370076
 31
0.0
  0
LINE
  5
3152
330
1E
100
AcDbEntity
  8
7
100
AcDbLine
 10
4.37303149606299
 20
6.269685039370076
 30
0.0
 11
4.372047244094487
 21
6.228346456692912
 31
0.0
  0
LINE
  5
3153
330
1E
100
AcDbEntity
  8
7
100
AcDbLine
 10
4.372047244094487
 20
6.228346456692912
 30
0.0
 11
4.371062992125984
 21
6.191929133858266
 31
0.0
  0
LINE
  5
3154
330
1E
100
AcDbEntity
  8
7
100
AcDbLine
 10
4.371062992125984
 20
6.191929133858266
 30
0.0
 11
4.371062992125984
 21
6.159448818897637
 31
0.0
  0
LINE
  5
3155
330
1E
100
AcDbEntity
  8
7
100
AcDbLine
 10
4.371062992125984
 20
6.159448818897637
 30
0.0
 11
4.370078740157478
 21
6.133858267716535
 31
0.0
  0
LINE
  5
3156
330
1E
100
AcDbEntity
  8
7
100
AcDbLine
 10
4.370078740157478
 20
6.133858267716535
 30
0.0
 11
6.039370078740156
 21
6.133858267716535
 31
0.0
  0
LINE
  5
3157
330
1E
100
AcDbEntity
  8
7
100
AcDbLine
 10
6.039370078740156
 20
6.133858267716535
 30
0.0
 11
6.039370078740156
 21
6.159448818897637
 31
0.0
  0
LINE
  5
3158
330
1E
100
AcDbEntity
  8
7
100
AcDbLine
 10
6.039370078740156
 20
6.159448818897637
 30
0.0
 11
6.038385826771652
 21
6.191929133858266
 31
0.0
  0
LINE
  5
3159
330
1E
100
AcDbEntity
  8
7
100
AcDbLine
 10
5.718503937007874
 20
5.480314960629921
 30
0.0
 11
5.717519685039368
 21
5.466535433070864
 31
0.0
  0
LINE
  5
315A
330
1E
100
AcDbEntity
  8
7
100
AcDbLine
 10
5.717519685039368
 20
5.466535433070864
 30
0.0
 11
5.717519685039368
 21
5.460629921259841
 31
0.0
  0
LINE
  5
315B
330
1E
100
AcDbEntity
  8
7
100
AcDbLine
 10
5.52755905511811
 20
5.460629921259841
 30
0.0
 11
5.52755905511811
 21
5.466535433070864
 31
0.0
  0
LINE
  5
315C
330
1E
100
AcDbEntity
  8
7
100
AcDbLine
 10
5.52755905511811
 20
5.466535433070864
 30
0.0
 11
5.52755905511811
 21
5.480314960629921
 31
0.0
  0
LINE
  5
315D
330
1E
100
AcDbEntity
  8
7
100
AcDbLine
 10
5.52755905511811
 20
5.480314960629921
 30
0.0
 11
5.718503937007874
 21
5.480314960629921
 31
0.0
  0
LINE
  5
315E
330
1E
100
AcDbEntity
  8
7
100
AcDbLine
 10
5.718503937007874
 20
5.480314960629921
 30
0.0
 11
5.723425196850392
 21
5.775590551181101
 31
0.0
  0
LINE
  5
315F
330
1E
100
AcDbEntity
  8
7
100
AcDbLine
 10
6.055118110236219
 20
5.577755905511811
 30
0.0
 11
6.056102362204723
 21
5.590551181102362
 31
0.0
  0
LINE
  5
3160
330
1E
100
AcDbEntity
  8
7
100
AcDbLine
 10
6.056102362204723
 20
5.590551181102362
 30
0.0
 11
6.002952755905511
 21
5.590551181102362
 31
0.0
  0
LINE
  5
3161
330
1E
100
AcDbEntity
  8
7
100
AcDbLine
 10
5.937992125984251
 20
5.480314960629921
 30
0.0
 11
5.943897637795275
 21
5.466535433070864
 31
0.0
  0
LINE
  5
3162
330
1E
100
AcDbEntity
  8
7
100
AcDbLine
 10
5.943897637795275
 20
5.466535433070864
 30
0.0
 11
5.95767716535433
 21
5.460629921259841
 31
0.0
  0
LINE
  5
3163
330
1E
100
AcDbEntity
  8
7
100
AcDbLine
 10
5.95767716535433
 20
5.460629921259841
 30
0.0
 11
5.958661417322833
 21
5.460629921259841
 31
0.0
  0
LINE
  5
3164
330
1E
100
AcDbEntity
  8
7
100
AcDbLine
 10
5.958661417322833
 20
5.460629921259841
 30
0.0
 11
5.974409448818897
 21
5.468503937007874
 31
0.0
  0
LINE
  5
3165
330
1E
100
AcDbEntity
  8
7
100
AcDbLine
 10
5.974409448818897
 20
5.468503937007874
 30
0.0
 11
6.051181102362203
 21
5.565944881889762
 31
0.0
  0
LINE
  5
3166
330
1E
100
AcDbEntity
  8
7
100
AcDbLine
 10
6.051181102362203
 20
5.565944881889762
 30
0.0
 11
6.055118110236219
 21
5.577755905511811
 31
0.0
  0
LINE
  5
3167
330
1E
100
AcDbEntity
  8
7
100
AcDbLine
 10
4.451771653543306
 20
5.460629921259841
 30
0.0
 11
4.465551181102362
 21
5.466535433070864
 31
0.0
  0
LINE
  5
3168
330
1E
100
AcDbEntity
  8
7
100
AcDbLine
 10
4.465551181102362
 20
5.466535433070864
 30
0.0
 11
4.472440944881888
 21
5.480314960629921
 31
0.0
  0
LINE
  5
3169
330
1E
100
AcDbEntity
  8
7
100
AcDbLine
 10
4.354330708661415
 20
5.577755905511811
 30
0.0
 11
4.359251968503937
 21
5.565944881889762
 31
0.0
  0
LINE
  5
316A
330
1E
100
AcDbEntity
  8
7
100
AcDbLine
 10
4.359251968503937
 20
5.565944881889762
 30
0.0
 11
4.436023622047243
 21
5.468503937007874
 31
0.0
  0
LINE
  5
316B
330
1E
100
AcDbEntity
  8
7
100
AcDbLine
 10
4.436023622047243
 20
5.468503937007874
 30
0.0
 11
4.451771653543306
 21
5.460629921259841
 31
0.0
  0
LINE
  5
316C
330
1E
100
AcDbEntity
  8
7
100
AcDbLine
 10
4.406496062992125
 20
5.736220472440943
 30
0.0
 11
4.403543307086613
 21
5.750984251968502
 31
0.0
  0
LINE
  5
316D
330
1E
100
AcDbEntity
  8
7
100
AcDbLine
 10
4.403543307086613
 20
5.750984251968502
 30
0.0
 11
4.394685039370077
 21
5.763779527559053
 31
0.0
  0
LINE
  5
316E
330
1E
100
AcDbEntity
  8
7
100
AcDbLine
 10
4.394685039370077
 20
5.763779527559053
 30
0.0
 11
4.381889763779525
 21
5.772637795275588
 31
0.0
  0
LINE
  5
316F
330
1E
100
AcDbEntity
  8
7
100
AcDbLine
 10
4.381889763779525
 20
5.772637795275588
 30
0.0
 11
4.366141732283463
 21
5.775590551181101
 31
0.0
  0
LINE
  5
3170
330
1E
100
AcDbEntity
  8
7
100
AcDbLine
 10
4.882874015748031
 20
5.480314960629921
 30
0.0
 11
4.881889763779525
 21
5.466535433070864
 31
0.0
  0
LINE
  5
3171
330
1E
100
AcDbEntity
  8
7
100
AcDbLine
 10
4.881889763779525
 20
5.466535433070864
 30
0.0
 11
4.881889763779525
 21
5.460629921259841
 31
0.0
  0
LINE
  5
3172
330
1E
100
AcDbEntity
  8
7
100
AcDbLine
 10
4.881889763779525
 20
5.460629921259841
 30
0.0
 11
4.691929133858266
 21
5.460629921259841
 31
0.0
  0
LINE
  5
3173
330
1E
100
AcDbEntity
  8
7
100
AcDbLine
 10
4.691929133858266
 20
5.460629921259841
 30
0.0
 11
4.691929133858266
 21
5.466535433070864
 31
0.0
  0
LINE
  5
3174
330
1E
100
AcDbEntity
  8
7
100
AcDbLine
 10
4.691929133858266
 20
5.466535433070864
 30
0.0
 11
4.691929133858266
 21
5.480314960629921
 31
0.0
  0
LINE
  5
3175
330
1E
100
AcDbEntity
  8
7
100
AcDbLine
 10
5.105314960629921
 20
5.736220472440943
 30
0.0
 11
5.105314960629921
 21
5.750984251968502
 31
0.0
  0
LINE
  5
3176
330
1E
100
AcDbEntity
  8
7
100
AcDbLine
 10
5.105314960629921
 20
5.750984251968502
 30
0.0
 11
5.104330708661415
 21
5.763779527559053
 31
0.0
  0
LINE
  5
3177
330
1E
100
AcDbEntity
  8
7
100
AcDbLine
 10
5.104330708661415
 20
5.763779527559053
 30
0.0
 11
5.104330708661415
 21
5.772637795275588
 31
0.0
  0
LINE
  5
3178
330
1E
100
AcDbEntity
  8
7
100
AcDbLine
 10
5.104330708661415
 20
5.772637795275588
 30
0.0
 11
5.104330708661415
 21
5.775590551181101
 31
0.0
  0
LINE
  5
3179
330
1E
100
AcDbEntity
  8
7
100
AcDbLine
 10
5.11023622047244
 20
5.468503937007874
 30
0.0
 11
5.108267716535431
 21
5.565944881889762
 31
0.0
  0
LINE
  5
317A
330
1E
100
AcDbEntity
  8
7
100
AcDbLine
 10
5.108267716535431
 20
5.565944881889762
 30
0.0
 11
5.108267716535431
 21
5.577755905511811
 31
0.0
  0
LINE
  5
317B
330
1E
100
AcDbEntity
  8
7
100
AcDbLine
 10
5.108267716535431
 20
5.577755905511811
 30
0.0
 11
5.107283464566927
 21
5.590551181102362
 31
0.0
  0
LINE
  5
317C
330
1E
100
AcDbEntity
  8
7
100
AcDbLine
 10
5.305118110236219
 20
5.736220472440943
 30
0.0
 11
5.270669291338582
 21
5.736220472440943
 31
0.0
  0
LINE
  5
317D
330
1E
100
AcDbEntity
  8
7
100
AcDbLine
 10
5.270669291338582
 20
5.736220472440943
 30
0.0
 11
5.245078740157478
 21
6.025590551181101
 31
0.0
  0
LINE
  5
317E
330
1E
100
AcDbEntity
  8
7
100
AcDbLine
 10
5.305118110236219
 20
5.775590551181101
 30
0.0
 11
5.305118110236219
 21
5.772637795275588
 31
0.0
  0
LINE
  5
317F
330
1E
100
AcDbEntity
  8
7
100
AcDbLine
 10
5.305118110236219
 20
5.772637795275588
 30
0.0
 11
5.305118110236219
 21
5.763779527559053
 31
0.0
  0
LINE
  5
3180
330
1E
100
AcDbEntity
  8
7
100
AcDbLine
 10
5.305118110236219
 20
5.763779527559053
 30
0.0
 11
5.305118110236219
 21
5.750984251968502
 31
0.0
  0
LINE
  5
3181
330
1E
100
AcDbEntity
  8
7
100
AcDbLine
 10
5.305118110236219
 20
5.750984251968502
 30
0.0
 11
5.305118110236219
 21
5.736220472440943
 31
0.0
  0
LINE
  5
3182
330
1E
100
AcDbEntity
  8
7
100
AcDbLine
 10
5.302165354330707
 20
5.577755905511811
 30
0.0
 11
5.302165354330707
 21
5.565944881889762
 31
0.0
  0
LINE
  5
3183
330
1E
100
AcDbEntity
  8
7
100
AcDbLine
 10
5.302165354330707
 20
5.565944881889762
 30
0.0
 11
5.3001968503937
 21
5.468503937007874
 31
0.0
  0
LINE
  5
3184
330
1E
100
AcDbEntity
  8
7
100
AcDbLine
 10
5.3001968503937
 20
5.468503937007874
 30
0.0
 11
5.3001968503937
 21
5.460629921259841
 31
0.0
  0
LINE
  5
3185
330
1E
100
AcDbEntity
  8
7
100
AcDbLine
 10
6.086614173228346
 20
6.289370078740156
 30
0.0
 11
6.086614173228346
 21
6.284448818897637
 31
0.0
  0
LINE
  5
3186
330
1E
100
AcDbEntity
  8
7
100
AcDbLine
 10
6.086614173228346
 20
6.284448818897637
 30
0.0
 11
6.086614173228346
 21
6.272637795275588
 31
0.0
  0
LINE
  5
3187
330
1E
100
AcDbEntity
  8
7
100
AcDbLine
 10
6.086614173228346
 20
6.272637795275588
 30
0.0
 11
6.086614173228346
 21
6.254921259842518
 31
0.0
  0
LINE
  5
3188
330
1E
100
AcDbEntity
  8
7
100
AcDbLine
 10
6.086614173228346
 20
6.254921259842518
 30
0.0
 11
6.087598425196849
 21
6.205708661417322
 31
0.0
  0
LINE
  5
3189
330
1E
100
AcDbEntity
  8
7
100
AcDbLine
 10
6.087598425196849
 20
6.205708661417322
 30
0.0
 11
6.088582677165351
 21
6.161417322834644
 31
0.0
  0
LINE
  5
318A
330
1E
100
AcDbEntity
  8
7
100
AcDbLine
 10
6.088582677165351
 20
6.161417322834644
 30
0.0
 11
6.089566929133857
 21
6.123031496062991
 31
0.0
  0
LINE
  5
318B
330
1E
100
AcDbEntity
  8
7
100
AcDbLine
 10
6.089566929133857
 20
6.123031496062991
 30
0.0
 11
6.089566929133857
 21
6.091535433070864
 31
0.0
  0
LINE
  5
318C
330
1E
100
AcDbEntity
  8
7
100
AcDbLine
 10
6.089566929133857
 20
6.091535433070864
 30
0.0
 11
6.089566929133857
 21
6.080708661417322
 31
0.0
  0
LINE
  5
318D
330
1E
100
AcDbEntity
  8
7
100
AcDbLine
 10
6.089566929133857
 20
6.080708661417322
 30
0.0
 11
6.090551181102362
 21
6.065944881889762
 31
0.0
  0
LINE
  5
318E
330
1E
100
AcDbEntity
  8
7
100
AcDbLine
 10
6.090551181102362
 20
6.065944881889762
 30
0.0
 11
6.090551181102362
 21
6.0501968503937
 31
0.0
  0
LINE
  5
318F
330
1E
100
AcDbEntity
  8
7
100
AcDbLine
 10
6.090551181102362
 20
6.0501968503937
 30
0.0
 11
6.090551181102362
 21
6.028543307086612
 31
0.0
  0
LINE
  5
3190
330
1E
100
AcDbEntity
  8
7
100
AcDbLine
 10
4.318897637795275
 20
6.028543307086612
 30
0.0
 11
4.319881889763778
 21
6.0501968503937
 31
0.0
  0
LINE
  5
3191
330
1E
100
AcDbEntity
  8
7
100
AcDbLine
 10
4.319881889763778
 20
6.0501968503937
 30
0.0
 11
4.319881889763778
 21
6.065944881889762
 31
0.0
  0
LINE
  5
3192
330
1E
100
AcDbEntity
  8
7
100
AcDbLine
 10
4.319881889763778
 20
6.065944881889762
 30
0.0
 11
4.319881889763778
 21
6.080708661417322
 31
0.0
  0
LINE
  5
3193
330
1E
100
AcDbEntity
  8
7
100
AcDbLine
 10
4.319881889763778
 20
6.080708661417322
 30
0.0
 11
4.319881889763778
 21
6.091535433070864
 31
0.0
  0
LINE
  5
3194
330
1E
100
AcDbEntity
  8
7
100
AcDbLine
 10
4.319881889763778
 20
6.091535433070864
 30
0.0
 11
4.320866141732283
 21
6.123031496062991
 31
0.0
  0
LINE
  5
3195
330
1E
100
AcDbEntity
  8
7
100
AcDbLine
 10
4.320866141732283
 20
6.123031496062991
 30
0.0
 11
4.321850393700787
 21
6.161417322834644
 31
0.0
  0
LINE
  5
3196
330
1E
100
AcDbEntity
  8
7
100
AcDbLine
 10
4.321850393700787
 20
6.161417322834644
 30
0.0
 11
4.321850393700787
 21
6.205708661417322
 31
0.0
  0
LINE
  5
3197
330
1E
100
AcDbEntity
  8
7
100
AcDbLine
 10
4.321850393700787
 20
6.205708661417322
 30
0.0
 11
4.322834645669289
 21
6.254921259842518
 31
0.0
  0
LINE
  5
3198
330
1E
100
AcDbEntity
  8
7
100
AcDbLine
 10
4.322834645669289
 20
6.254921259842518
 30
0.0
 11
4.323818897637795
 21
6.270669291338582
 31
0.0
  0
LINE
  5
3199
330
1E
100
AcDbEntity
  8
7
100
AcDbLine
 10
4.323818897637795
 20
6.270669291338582
 30
0.0
 11
4.323818897637795
 21
6.282480314960628
 31
0.0
  0
LINE
  5
319A
330
1E
100
AcDbEntity
  8
7
100
AcDbLine
 10
4.323818897637795
 20
6.282480314960628
 30
0.0
 11
4.323818897637795
 21
6.288385826771652
 31
0.0
  0
LINE
  5
319B
330
1E
100
AcDbEntity
  8
7
100
AcDbLine
 10
5.24803149606299
 20
6.028543307086612
 30
0.0
 11
6.040354330708661
 21
6.028543307086612
 31
0.0
  0
LINE
  5
319C
330
1E
100
AcDbEntity
  8
7
100
AcDbLine
 10
6.040354330708661
 20
6.028543307086612
 30
0.0
 11
6.040354330708661
 21
6.0501968503937
 31
0.0
  0
LINE
  5
319D
330
1E
100
AcDbEntity
  8
7
100
AcDbLine
 10
6.040354330708661
 20
6.0501968503937
 30
0.0
 11
4.369094488188975
 21
6.0501968503937
 31
0.0
  0
LINE
  5
319E
330
1E
100
AcDbEntity
  8
7
100
AcDbLine
 10
4.369094488188975
 20
6.0501968503937
 30
0.0
 11
4.369094488188975
 21
6.028543307086612
 31
0.0
  0
LINE
  5
319F
330
1E
100
AcDbEntity
  8
7
100
AcDbLine
 10
4.369094488188975
 20
6.028543307086612
 30
0.0
 11
5.162401574803148
 21
6.028543307086612
 31
0.0
  0
LINE
  5
31A0
330
1E
100
AcDbEntity
  8
7
100
AcDbLine
 10
4.374015748031495
 20
5.775590551181101
 30
0.0
 11
4.354330708661415
 21
5.775590551181101
 31
0.0
  0
LINE
  5
31A1
330
1E
100
AcDbEntity
  8
7
100
AcDbLine
 10
4.354330708661415
 20
5.775590551181101
 30
0.0
 11
4.338582677165353
 21
5.775590551181101
 31
0.0
  0
LINE
  5
31A2
330
1E
100
AcDbEntity
  8
7
100
AcDbLine
 10
4.338582677165353
 20
5.775590551181101
 30
0.0
 11
4.327755905511811
 21
5.775590551181101
 31
0.0
  0
LINE
  5
31A3
330
1E
100
AcDbEntity
  8
7
100
AcDbLine
 10
4.327755905511811
 20
5.775590551181101
 30
0.0
 11
4.323818897637795
 21
5.775590551181101
 31
0.0
  0
LINE
  5
31A4
330
1E
100
AcDbEntity
  8
7
100
AcDbLine
 10
6.043307086614172
 20
5.775590551181101
 30
0.0
 11
6.028543307086612
 21
5.772637795275588
 31
0.0
  0
LINE
  5
31A5
330
1E
100
AcDbEntity
  8
7
100
AcDbLine
 10
6.028543307086612
 20
5.772637795275588
 30
0.0
 11
6.014763779527558
 21
5.763779527559053
 31
0.0
  0
LINE
  5
31A6
330
1E
100
AcDbEntity
  8
7
100
AcDbLine
 10
6.014763779527558
 20
5.763779527559053
 30
0.0
 11
6.006889763779526
 21
5.750984251968502
 31
0.0
  0
LINE
  5
31A7
330
1E
100
AcDbEntity
  8
7
100
AcDbLine
 10
6.006889763779526
 20
5.750984251968502
 30
0.0
 11
6.002952755905511
 21
5.736220472440943
 31
0.0
  0
LINE
  5
31A8
330
1E
100
AcDbEntity
  8
7
100
AcDbLine
 10
6.071850393700787
 20
5.775590551181101
 30
0.0
 11
6.055118110236219
 21
5.775590551181101
 31
0.0
  0
LINE
  5
31A9
330
1E
100
AcDbEntity
  8
7
100
AcDbLine
 10
6.055118110236219
 20
5.775590551181101
 30
0.0
 11
6.036417322834644
 21
5.775590551181101
 31
0.0
  0
LINE
  5
31AA
330
1E
100
AcDbEntity
  8
7
100
AcDbLine
 10
6.086614173228346
 20
5.775590551181101
 30
0.0
 11
6.08267716535433
 21
5.775590551181101
 31
0.0
  0
LINE
  5
31AB
330
1E
100
AcDbEntity
  8
7
100
AcDbLine
 10
6.08267716535433
 20
5.775590551181101
 30
0.0
 11
6.071850393700787
 21
5.775590551181101
 31
0.0
  0
LINE
  5
31AC
330
1E
100
AcDbEntity
  8
7
100
AcDbLine
 10
6.086614173228346
 20
6.289370078740156
 30
0.0
 11
6.08267716535433
 21
6.308070866141733
 31
0.0
  0
LINE
  5
31AD
330
1E
100
AcDbEntity
  8
7
100
AcDbLine
 10
6.08267716535433
 20
6.308070866141733
 30
0.0
 11
6.070866141732282
 21
6.323818897637795
 31
0.0
  0
LINE
  5
31AE
330
1E
100
AcDbEntity
  8
7
100
AcDbLine
 10
6.070866141732282
 20
6.323818897637795
 30
0.0
 11
6.055118110236219
 21
6.334645669291337
 31
0.0
  0
LINE
  5
31AF
330
1E
100
AcDbEntity
  8
7
100
AcDbLine
 10
6.055118110236219
 20
6.334645669291337
 30
0.0
 11
6.036417322834644
 21
6.337598425196849
 31
0.0
  0
LINE
  5
31B0
330
1E
100
AcDbEntity
  8
7
100
AcDbLine
 10
4.338582677165353
 20
6.322834645669289
 30
0.0
 11
4.327755905511811
 21
6.306102362204723
 31
0.0
  0
LINE
  5
31B1
330
1E
100
AcDbEntity
  8
7
100
AcDbLine
 10
4.327755905511811
 20
6.306102362204723
 30
0.0
 11
4.324803149606299
 21
6.297244094488188
 31
0.0
  0
LINE
  5
31B2
330
1E
100
AcDbEntity
  8
7
100
AcDbLine
 10
4.324803149606299
 20
6.297244094488188
 30
0.0
 11
4.323818897637795
 21
6.287401574803148
 31
0.0
  0
LINE
  5
31B3
330
1E
100
AcDbEntity
  8
7
100
AcDbLine
 10
4.374015748031495
 20
6.337598425196849
 30
0.0
 11
4.354330708661415
 21
6.333661417322833
 31
0.0
  0
LINE
  5
31B4
330
1E
100
AcDbEntity
  8
7
100
AcDbLine
 10
4.354330708661415
 20
6.333661417322833
 30
0.0
 11
4.338582677165353
 21
6.322834645669289
 31
0.0
  0
LINE
  5
31B5
330
1E
100
AcDbEntity
  8
7
100
AcDbLine
 10
4.516732283464566
 20
6.648622047244093
 30
0.0
 11
4.488188976377951
 21
6.643700787401573
 31
0.0
  0
LINE
  5
31B6
330
1E
100
AcDbEntity
  8
7
100
AcDbLine
 10
4.488188976377951
 20
6.643700787401573
 30
0.0
 11
4.46259842519685
 21
6.630905511811023
 31
0.0
  0
LINE
  5
31B7
330
1E
100
AcDbEntity
  8
7
100
AcDbLine
 10
4.46259842519685
 20
6.630905511811023
 30
0.0
 11
4.441929133858266
 21
6.61023622047244
 31
0.0
  0
LINE
  5
31B8
330
1E
100
AcDbEntity
  8
7
100
AcDbLine
 10
4.441929133858266
 20
6.61023622047244
 30
0.0
 11
4.429133858267714
 21
6.584645669291337
 31
0.0
  0
LINE
  5
31B9
330
1E
100
AcDbEntity
  8
7
100
AcDbLine
 10
4.429133858267714
 20
6.584645669291337
 30
0.0
 11
4.424212598425196
 21
6.556102362204723
 31
0.0
  0
LINE
  5
31BA
330
1E
100
AcDbEntity
  8
7
100
AcDbLine
 10
5.986220472440943
 20
6.556102362204723
 30
0.0
 11
5.981299212598425
 21
6.584645669291337
 31
0.0
  0
LINE
  5
31BB
330
1E
100
AcDbEntity
  8
7
100
AcDbLine
 10
5.981299212598425
 20
6.584645669291337
 30
0.0
 11
5.968503937007874
 21
6.61023622047244
 31
0.0
  0
LINE
  5
31BC
330
1E
100
AcDbEntity
  8
7
100
AcDbLine
 10
5.968503937007874
 20
6.61023622047244
 30
0.0
 11
5.947834645669289
 21
6.630905511811023
 31
0.0
  0
LINE
  5
31BD
330
1E
100
AcDbEntity
  8
7
100
AcDbLine
 10
5.947834645669289
 20
6.630905511811023
 30
0.0
 11
5.922244094488188
 21
6.643700787401573
 31
0.0
  0
LINE
  5
31BE
330
1E
100
AcDbEntity
  8
7
100
AcDbLine
 10
5.922244094488188
 20
6.643700787401573
 30
0.0
 11
5.893700787401573
 21
6.648622047244093
 31
0.0
  0
ENDSEC
  0
SECTION
  2
OBJECTS
  0
DICTIONARY
  5
C
330
0
100
AcDbDictionary
  3
ACAD_GROUP
350
D
  3
ACAD_LAYOUT
350
19
  3
ACAD_MLINESTYLE
350
16
  3
ACAD_PLOTSETTINGS
350
18
1001
ACAD
1000
TREAT_AS_HARD
1070
     0
  0
DICTIONARY
  5
31C0
330
1E
100
AcDbDictionary
  3
ACAD_LAYOUTSELFREF
350
322A
1001
ACAD
1000
TREAT_AS_HARD
1070
     1
  0
DICTIONARY
  5
31C2
330
1A
100
AcDbDictionary
  3
ACAD_LAYOUTSELFREF
350
3229
1001
ACAD
1000
TREAT_AS_HARD
1070
     1
  0
DICTIONARY
  5
D
102
{ACAD_REACTORS
330
C
102
}
330
C
100
AcDbDictionary
1001
ACAD
1000
TREAT_AS_HARD
1070
     0
  0
DICTIONARY
  5
19
102
{ACAD_REACTORS
330
C
102
}
330
C
100
AcDbDictionary
1001
ACAD
1000
TREAT_AS_HARD
1070
     0
  0
DICTIONARY
  5
16
102
{ACAD_REACTORS
330
C
102
}
330
C
100
AcDbDictionary
  3
STANDARD
350
17
1001
ACAD
1000
TREAT_AS_HARD
1070
     0
  0
DICTIONARY
  5
18
102
{ACAD_REACTORS
330
C
102
}
330
C
100
AcDbDictionary
1001
ACAD
1000
TREAT_AS_HARD
1070
     0
  0
XRECORD
  5
322A
102
{ACAD_REACTORS
330
31C0
102
}
330
31C0
100
AcDbXrecord
340
1E
  0
XRECORD
  5
3229
102
{ACAD_REACTORS
330
31C2
102
}
330
31C2
100
AcDbXrecord
340
1A
  0
MLINESTYLE
  5
17
102
{ACAD_REACTORS
330
16
102
}
330
16
100
AcDbMlineStyle
  2
STANDARD
 70
     0
  3

 62
   256
 51
90.0
 52
90.0
 71
     2
 49
0.5
 62
   256
  6
BYLAYER
 49
-0.5
 62
   256
  6
BYLAYER
  0
ENDSEC
  0
EOF
