  0
SECTION
  2
HEADER
  9
$ACADVER
  1
AC1015
  9
$ACADMAINTVER
 70
    20
  9
$DWGCODEPAGE
  3
ANSI_1252
  9
$INSBASE
 10
0.0
 20
0.0
 30
0.0
  9
$EXTMIN
 10
-0.5
 20
-0.5
 30
-0.5
  9
$EXTMAX
 10
5.0
 20
5.0
 30
5.0
  9
$LIMMIN
 10
-0.5
 20
-0.5
  9
$LIMMAX
 10
5.0
 20
5.0
  9
$ORTHOMODE
 70
     0
  9
$REGENMODE
 70
     1
  9
$FILLMODE
 70
     1
  9
$QTEXTMODE
 70
     0
  9
$MIRRTEXT
 70
     1
  9
$LTSCALE
 40
1.0
  9
$ATTMODE
 70
     1
  9
$TEXTSIZE
 40
0.0
  9
$TRACEWID
 40
0.05
  9
$TEXTSTYLE
  7
Standard
  9
$CLAYER
  8
0
  9
$CELTYPE
  6
Continuous
  9
$CECOLOR
 62
   256
  9
$CELTSCALE
 40
1.0
  9
$DISPSILH
 70
     0
  9
$DIMSCALE
 40
1.0
  9
$DIMASZ
 40
0.18
  9
$DIMEXO
 40
0.0625
  9
$DIMDLI
 40
0.38
  9
$DIMRND
 40
0.0
  9
$DIMDLE
 40
0.0
  9
$DIMEXE
 40
0.18
  9
$DIMTP
 40
0.0
  9
$DIMTM
 40
0.0
  9
$DIMTXT
 40
0.18
  9
$DIMCEN
 40
0.09
  9
$DIMTSZ
 40
0.0
  9
$DIMTOL
 70
     0
  9
$DIMLIM
 70
     0
  9
$DIMTIH
 70
     1
  9
$DIMTOH
 70
     1
  9
$DIMSE1
 70
     0
  9
$DIMSE2
 70
     0
  9
$DIMTAD
 70
     0
  9
$DIMZIN
 70
     0
  9
$DIMBLK
  1

  9
$DIMASO
 70
     1
  9
$DIMSHO
 70
     1
  9
$DIMPOST
  1

  9
$DIMAPOST
  1

  9
$DIMALT
 70
     0
  9
$DIMALTD
 70
     2
  9
$DIMALTF
 40
25.4
  9
$DIMLFAC
 40
1.0
  9
$DIMTOFL
 70
     0
  9
$DIMTVP
 40
0.0
  9
$DIMTIX
 70
     0
  9
$DIMSOXD
 70
     0
  9
$DIMSAH
 70
     0
  9
$DIMBLK1
  1

  9
$DIMBLK2
  1

  9
$DIMSTYLE
  2
Standard
  9
$DIMCLRD
 70
     0
  9
$DIMCLRE
 70
     0
  9
$DIMCLRT
 70
     0
  9
$DIMTFAC
 40
1.0
  9
$DIMGAP
 40
0.09
  9
$DIMJUST
 70
     0
  9
$DIMSD1
 70
     0
  9
$DIMSD2
 70
     0
  9
$DIMTOLJ
 70
     1
  9
$DIMTZIN
 70
     0
  9
$DIMALTZ
 70
     0
  9
$DIMALTTZ
 70
     0
  9
$DIMUPT
 70
     0
  9
$DIMDEC
 70
     4
  9
$DIMTDEC
 70
     4
  9
$DIMALTU
 70
     2
  9
$DIMALTTD
 70
     2
  9
$DIMTXSTY
  7
Standard
  9
$DIMAUNIT
 70
     0
  9
$DIMADEC
 70
     0
  9
$DIMALTRND
 40
0.0
  9
$DIMAZIN
 70
     0
  9
$DIMDSEP
 70
     0
  9
$DIMATFIT
 70
     3
  9
$DIMFRAC
 70
     0
  9
$DIMLDRBLK
  1

  9
$DIMLUNIT
 70
     2
  9
$DIMLWD
 70
     0
  9
$DIMLWE
 70
     0
  9
$DIMTMOVE
 70
     0
  9
$LUNITS
 70
     2
  9
$LUPREC
 70
     4
  9
$SKETCHINC
 40
0.1
  9
$FILLETRAD
 40
0.0
  9
$AUNITS
 70
     0
  9
$AUPREC
 70
     0
  9
$MENU
  1
acad
  9
$ELEVATION
 40
0.0
  9
$PELEVATION
 40
0.0
  9
$THICKNESS
 40
0.0
  9
$LIMCHECK
 70
     0
  9
$CHAMFERA
 40
0.0
  9
$CHAMFERB
 40
0.0
  9
$CHAMFERC
 40
0.0
  9
$CHAMFERD
 40
0.0
  9
$SKPOLY
 70
     0
  9
$TDCREATE
 40
2455723.580775070
  9
$TDUCREATE
 40
2455723.789108402
  9
$TDUPDATE
 40
2455723.581040544
  9
$TDUUPDATE
 40
2455723.789373878
  9
$TDINDWG
 40
0.0002701736
  9
$TDUSRTIMER
 40
0.0002701736
  9
$USRTIMER
 70
     1
  9
$ANGBASE
 50
0.0
  9
$ANGDIR
 70
     0
  9
$PDMODE
 70
     0
  9
$PDSIZE
 40
0.0
  9
$PLINEWID
 40
0.0
  9
$SPLFRAME
 70
     0
  9
$SPLINETYPE
 70
     6
  9
$SPLINESEGS
 70
     8
  9
$HANDSEED
  5
592
  9
$SURFTAB1
 70
     6
  9
$SURFTAB2
 70
     6
  9
$SURFTYPE
 70
     6
  9
$SURFU
 70
     6
  9
$SURFV
 70
     6
  9
$UCSBASE
  2

  9
$UCSNAME
  2

  9
$UCSORG
 10
0.0
 20
0.0
 30
0.0
  9
$UCSXDIR
 10
1.0
 20
0.0
 30
0.0
  9
$UCSYDIR
 10
0.0
 20
1.0
 30
0.0
  9
$UCSORTHOREF
  2

  9
$UCSORTHOVIEW
 70
     0
  9
$UCSORGTOP
 10
0.0
 20
0.0
 30
0.0
  9
$UCSORGBOTTOM
 10
0.0
 20
0.0
 30
0.0
  9
$UCSORGLEFT
 10
0.0
 20
0.0
 30
0.0
  9
$UCSORGRIGHT
 10
0.0
 20
0.0
 30
0.0
  9
$UCSORGFRONT
 10
0.0
 20
0.0
 30
0.0
  9
$UCSORGBACK
 10
0.0
 20
0.0
 30
0.0
  9
$PUCSBASE
  2

  9
$PUCSNAME
  2

  9
$PUCSORG
 10
0.0
 20
0.0
 30
0.0
  9
$PUCSXDIR
 10
1.0
 20
0.0
 30
0.0
  9
$PUCSYDIR
 10
0.0
 20
1.0
 30
0.0
  9
$PUCSORTHOREF
  2

  9
$PUCSORTHOVIEW
 70
     0
  9
$PUCSORGTOP
 10
0.0
 20
0.0
 30
0.0
  9
$PUCSORGBOTTOM
 10
0.0
 20
0.0
 30
0.0
  9
$PUCSORGLEFT
 10
0.0
 20
0.0
 30
0.0
  9
$PUCSORGRIGHT
 10
0.0
 20
0.0
 30
0.0
  9
$PUCSORGFRONT
 10
0.0
 20
0.0
 30
0.0
  9
$PUCSORGBACK
 10
0.0
 20
0.0
 30
0.0
  9
$USERI1
 70
     0
  9
$USERI2
 70
     0
  9
$USERI3
 70
     0
  9
$USERI4
 70
     0
  9
$USERI5
 70
     0
  9
$USERR1
 40
0.0
  9
$USERR2
 40
0.0
  9
$USERR3
 40
0.0
  9
$USERR4
 40
0.0
  9
$USERR5
 40
0.0
  9
$WORLDVIEW
 70
     1
  9
$SHADEDGE
 70
     3
  9
$SHADEDIF
 70
    70
  9
$TILEMODE
 70
     0
  9
$MAXACTVP
 70
    64
  9
$PINSBASE
 10
0.0
 20
0.0
 30
0.0
  9
$PLIMCHECK
 70
     0
  9
$PEXTMIN
 10
1.719421416078017
 20
3.530334498302934
 30
-0.0004043445228632
  9
$PEXTMAX
 10
6.099304220289109
 20
7.056945820056071
 30
0.0000152657740013
  9
$PLIMMIN
 10
1.609214699775623
 20
3.42012788958446
  9
$PLIMMAX
 10
6.458305450285741
 20
7.167152536358464
  9
$UNITMODE
 70
     0
  9
$VISRETAIN
 70
     0
  9
$PLINEGEN
 70
     1
  9
$PSLTSCALE
 70
     0
  9
$TREEDEPTH
 70
  3020
  9
$CMLSTYLE
  2
Standard
  9
$CMLJUST
 70
     0
  9
$CMLSCALE
 40
1.0
  9
$PROXYGRAPHICS
 70
     0
  9
$MEASUREMENT
 70
     0
  9
$CELWEIGHT
370
     0
  9
$ENDCAPS
280
     0
  9
$JOINSTYLE
280
     0
  9
$LWDISPLAY
290
     0
  9
$INSUNITS
 70
     0
  9
$HYPERLINKBASE
  1

  9
$STYLESHEET
  1

  9
$XEDIT
290
     1
  9
$CEPSNTYPE
380
     0
  9
$PSTYLEMODE
290
     1
  9
$FINGERPRINTGUID
  2

  9
$VERSIONGUID
  2
{051CDA63-64FA-4782-8FF8-C0341CF0450C}
  9
$EXTNAMES
290
     1
  9
$PSVPSCALE
 40
0.0
  9
$OLESTARTUP
290
     0
  0
ENDSEC
  0
SECTION
  2
CLASSES
  0
CLASS
  1
IMAGE
  2
AcDbRasterImage
  3
ISM
 90
    34943
280
     0
281
     1
  0
CLASS
  1
DICTIONARYVAR
  2
AcDbDictionaryVar
  3
ObjectDBX Classes
 90
        0
280
     0
281
     0
  0
CLASS
  1
RASTERVARIABLES
  2
AcDbRasterVariables
  3
ISM
 90
    32768
280
     0
281
     0
  0
CLASS
  1
IMAGEDEF
  2
AcDbRasterImageDef
  3
ISM
 90
    32768
280
     0
281
     0
  0
CLASS
  1
IMAGEDEF_REACTOR
  2
AcDbRasterImageDefReactor
  3
ISM
 90
    32769
280
     0
281
     0
  0
CLASS
  1
IDBUFFER
  2
AcDbIdBuffer
  3
ObjectDBX Classes
 90
    32768
280
     0
281
     0
  0
CLASS
  1
SPATIAL_FILTER
  2
AcDbSpatialFilter
  3
ObjectDBX Classes
 90
    32768
280
     0
281
     0
  0
CLASS
  1
SORTENTSTABLE
  2
AcDbSortentsTable
  3
ObjectDBX Classes
 90
    32768
280
     0
281
     0
  0
CLASS
  1
LAYER_INDEX
  2
AcDbLayerIndex
  3
ObjectDBX Classes
 90
    32768
280
     0
281
     0
  0
CLASS
  1
SPATIAL_INDEX
  2
AcDbSpatialIndex
  3
ObjectDBX Classes
 90
    32768
280
     0
281
     0
  0
CLASS
  1
OBJECT_PTR
  2
CAseDLPNTableRecord
  3
ASE-LPNTableRecord
 90
    32769
280
     0
281
     0
  0
CLASS
  1
LAYOUT
  2
AcDbLayout
  3
ObjectDBX Classes
 90
        0
280
     0
281
     0
  0
CLASS
  1
PLOTSETTINGS
  2
AcDbPlotSettings
  3
ObjectDBX Classes
 90
    32768
280
     0
281
     0
  0
CLASS
  1
ACDBDICTIONARYWDFLT
  2
AcDbDictionaryWithDefault
  3
ObjectDBX Classes
 90
        0
280
     0
281
     0
  0
CLASS
  1
ACDBPLACEHOLDER
  2
AcDbPlaceHolder
  3
ObjectDBX Classes
 90
        0
280
     0
281
     0
  0
CLASS
  1
VBA_PROJECT
  2
AcDbVbaProject
  3
acad
 90
    32768
280
     0
281
     0
  0
CLASS
  1
WIPEOUT
  2
AcDbWipeout
  3
"WipeOut|Product Desc: Object Enabler for WipeOut entity                        |Company: Autodesk, Inc.                        |WEB Address: www.autodesk.com"
 90
    34943
280
     0
281
     1
  0
CLASS
  1
WIPEOUTVARIABLES
  2
AcDbWipeoutVariables
  3
"WipeOut|Product Desc:     WipeOut Dbx Application|Company:          Autodesk, Inc.|WEB Address:      www.autodesk.com"
 90
        0
280
     0
281
     0
  0
CLASS
  1
RTEXT
  2
RText
  3
RText|AutoCAD Express Tool|expresstools@autodesk.com
 90
    35839
280
     0
281
     1
  0
CLASS
  1
ARCALIGNEDTEXT
  2
AcDbArcAlignedText
  3
ATEXT|AutoCAD Express Tool|expresstools@autodesk.com
 90
    32768
280
     0
281
     1
  0
CLASS
  1
MATERIAL
  2
AcDbMaterial
  3
ObjectDBX Classes
 90
     1024
280
     0
281
     0
  0
CLASS
  1
VISUALSTYLE
  2
AcDbVisualStyle
  3
ObjectDBX Classes
 90
     4095
280
     0
281
     0
  0
CLASS
  1
TABLESTYLE
  2
AcDbTableStyle
  3
ObjectDBX Classes
 90
     4095
280
     0
281
     0
  0
ENDSEC
  0
SECTION
  2
TABLES
  0
TABLE
  2
VPORT
  5
7
330
0
100
AcDbSymbolTable
 70
    16
  0
VPORT
  5
549
330
7
100
AcDbSymbolTableRecord
100
AcDbViewportTableRecord
  2
*ACTIVE
 70
     0
 10
0.0
 20
0.0
 11
1.0
 21
1.0
 12
0.0
 22
0.0
 13
0.0
 23
0.0
 14
1.0
 24
1.0
 15
0.0
 25
0.0
 16
0.718873
 26
-0.5850489999999999
 36
0.375419
 17
0.0
 27
0.0
 37
0.0
 40
46.267976
 41
0.6885640000000001
 42
50.0
 43
22.857141
 44
-22.857141
 50
0.0
 51
0.0
 71
    16
 72
   100
 73
     1
 74
     1
 75
     0
 76
     0
 77
     0
 78
     0
281
     0
 65
     0
110
0.0
120
0.0
130
0.0
111
1.0
121
0.0
131
0.0
112
0.0
122
1.0
132
0.0
 79
     0
146
0.0
  0
VPORT
  5
54A
330
7
100
AcDbSymbolTableRecord
100
AcDbViewportTableRecord
  2
L1
 70
     0
 10
0.0
 20
0.0
 11
1.0
 21
1.0
 12
0.0
 22
0.0
 13
0.0
 23
0.0
 14
1.0
 24
1.0
 15
0.0
 25
0.0
 16
0.718873
 26
-0.5850489999999999
 36
0.375419
 17
0.0
 27
0.0
 37
0.0
 40
46.267976
 41
0.6885640000000001
 42
50.0
 43
22.857141
 44
-22.857141
 50
0.0
 51
0.0
 71
    16
 72
   100
 73
     1
 74
     1
 75
     0
 76
     0
 77
     0
 78
     0
281
     0
 65
     0
110
0.0
120
0.0
130
0.0
111
1.0
121
0.0
131
0.0
112
0.0
122
1.0
132
0.0
 79
     0
146
0.0
  0
VPORT
  5
54B
330
7
100
AcDbSymbolTableRecord
100
AcDbViewportTableRecord
  2
L2
 70
     0
 10
0.0
 20
0.0
 11
0.5
 21
1.0
 12
0.0
 22
0.0
 13
0.0
 23
0.0
 14
1.0
 24
1.0
 15
0.0
 25
0.0
 16
0.0
 26
-1.0
 36
0.0
 17
0.0
 27
0.0
 37
0.0
 40
44.59929999999999
 41
0.6885640000000001
 42
50.0
 43
23.034414
 44
-23.034414
 50
0.0
 51
0.0
 71
    16
 72
   100
 73
     1
 74
     1
 75
     0
 76
     0
 77
     0
 78
     0
281
     0
 65
     0
110
0.0
120
0.0
130
0.0
111
1.0
121
0.0
131
0.0
112
0.0
122
1.0
132
0.0
 79
     0
146
0.0
  0
VPORT
  5
54C
330
7
100
AcDbSymbolTableRecord
100
AcDbViewportTableRecord
  2
L2
 70
     0
 10
0.5
 20
0.0
 11
1.0
 21
1.0
 12
0.0
 22
0.0
 13
0.0
 23
0.0
 14
1.0
 24
1.0
 15
0.0
 25
0.0
 16
1.0
 26
0.0
 36
0.0
 17
0.0
 27
0.0
 37
0.0
 40
44.59929999999999
 41
0.6885640000000001
 42
50.0
 43
22.544309
 44
-22.544309
 50
0.0
 51
0.0
 71
    16
 72
   100
 73
     1
 74
     1
 75
     0
 76
     0
 77
     0
 78
     0
281
     0
 65
     0
110
0.0
120
0.0
130
0.0
111
1.0
121
0.0
131
0.0
112
0.0
122
1.0
132
0.0
 79
     0
146
0.0
  0
VPORT
  5
54D
330
7
100
AcDbSymbolTableRecord
100
AcDbViewportTableRecord
  2
L3
 70
     0
 10
0.0
 20
0.5
 11
1.0
 21
1.0
 12
0.0
 22
0.0
 13
0.0
 23
0.0
 14
1.0
 24
1.0
 15
0.0
 25
0.0
 16
0.0
 26
0.0
 36
1.0
 17
0.0
 27
0.0
 37
0.0
 40
6.624633999999999
 41
0.6885640000000001
 42
50.0
 43
22.29965
 44
-22.29965
 50
0.0
 51
0.0
 71
    16
 72
   100
 73
     1
 74
     1
 75
     0
 76
     0
 77
     0
 78
     0
281
     0
 65
     0
110
0.0
120
0.0
130
0.0
111
1.0
121
0.0
131
0.0
112
0.0
122
1.0
132
0.0
 79
     0
146
0.0
  0
VPORT
  5
54E
330
7
100
AcDbSymbolTableRecord
100
AcDbViewportTableRecord
  2
L3
 70
     0
 10
0.0
 20
0.0
 11
1.0
 21
0.5
 12
0.0
 22
0.0
 13
0.0
 23
0.0
 14
1.0
 24
1.0
 15
0.0
 25
0.0
 16
0.0
 26
-1.0
 36
0.0
 17
0.0
 27
0.0
 37
0.0
 40
44.59929999999999
 41
0.6885640000000001
 42
50.0
 43
23.034414
 44
-23.034414
 50
0.0
 51
0.0
 71
    16
 72
   100
 73
     1
 74
     1
 75
     0
 76
     0
 77
     0
 78
     0
281
     0
 65
     0
110
0.0
120
0.0
130
0.0
111
1.0
121
0.0
131
0.0
112
0.0
122
1.0
132
0.0
 79
     0
146
0.0
  0
VPORT
  5
54F
330
7
100
AcDbSymbolTableRecord
100
AcDbViewportTableRecord
  2
L4
 70
     0
 10
0.0
 20
0.5
 11
0.5
 21
1.0
 12
0.0
 22
0.0
 13
0.0
 23
0.0
 14
1.0
 24
1.0
 15
0.0
 25
0.0
 16
0.0
 26
0.0
 36
1.0
 17
0.0
 27
0.0
 37
0.0
 40
6.624633999999999
 41
0.6885640000000001
 42
50.0
 43
22.29965
 44
-22.29965
 50
0.0
 51
0.0
 71
    16
 72
   100
 73
     1
 74
     1
 75
     0
 76
     0
 77
     0
 78
     0
281
     0
 65
     0
110
0.0
120
0.0
130
0.0
111
1.0
121
0.0
131
0.0
112
0.0
122
1.0
132
0.0
 79
     0
146
0.0
  0
VPORT
  5
550
330
7
100
AcDbSymbolTableRecord
100
AcDbViewportTableRecord
  2
L4
 70
     0
 10
0.0
 20
0.0
 11
0.5
 21
0.5
 12
0.0
 22
0.0
 13
0.0
 23
0.0
 14
1.0
 24
1.0
 15
0.0
 25
0.0
 16
0.0
 26
-1.0
 36
0.0
 17
0.0
 27
0.0
 37
0.0
 40
44.59929999999999
 41
0.6885640000000001
 42
50.0
 43
23.034414
 44
-23.034414
 50
0.0
 51
0.0
 71
    16
 72
   100
 73
     1
 74
     1
 75
     0
 76
     0
 77
     0
 78
     0
281
     0
 65
     0
110
0.0
120
0.0
130
0.0
111
1.0
121
0.0
131
0.0
112
0.0
122
1.0
132
0.0
 79
     0
146
0.0
  0
VPORT
  5
551
330
7
100
AcDbSymbolTableRecord
100
AcDbViewportTableRecord
  2
L4
 70
     0
 10
0.5
 20
0.0
 11
1.0
 21
0.5
 12
0.0
 22
0.0
 13
0.0
 23
0.0
 14
1.0
 24
1.0
 15
0.0
 25
0.0
 16
1.0
 26
0.0
 36
0.0
 17
0.0
 27
0.0
 37
0.0
 40
44.59929999999999
 41
0.6885640000000001
 42
50.0
 43
22.544309
 44
-22.544309
 50
0.0
 51
0.0
 71
    16
 72
   100
 73
     1
 74
     1
 75
     0
 76
     0
 77
     0
 78
     0
281
     0
 65
     0
110
0.0
120
0.0
130
0.0
111
1.0
121
0.0
131
0.0
112
0.0
122
1.0
132
0.0
 79
     0
146
0.0
  0
VPORT
  5
552
330
7
100
AcDbSymbolTableRecord
100
AcDbViewportTableRecord
  2
L4
 70
     0
 10
0.5
 20
0.5
 11
1.0
 21
1.0
 12
0.0
 22
0.0
 13
0.0
 23
0.0
 14
1.0
 24
1.0
 15
0.0
 25
0.0
 16
0.5773500000000001
 26
-0.5773500000000001
 36
0.5773500000000001
 17
0.0
 27
0.0
 37
0.0
 40
43.832054
 41
0.6885640000000001
 42
50.0
 43
22.837903
 44
-22.837903
 50
0.0
 51
0.0
 71
    16
 72
   100
 73
     1
 74
     1
 75
     0
 76
     0
 77
     0
 78
     0
281
     0
 65
     0
110
0.0
120
0.0
130
0.0
111
1.0
121
0.0
131
0.0
112
0.0
122
1.0
132
0.0
 79
     0
146
0.0
  0
VPORT
  5
553
330
7
100
AcDbSymbolTableRecord
100
AcDbViewportTableRecord
  2
L6
 70
     0
 10
0.0
 20
0.5
 11
0.333333
 21
1.0
 12
0.0
 22
0.0
 13
0.0
 23
0.0
 14
1.0
 24
1.0
 15
0.0
 25
0.0
 16
0.718873
 26
-0.5850489999999999
 36
0.375419
 17
0.0
 27
0.0
 37
0.0
 40
46.267976
 41
0.6885640000000001
 42
50.0
 43
22.857141
 44
-22.857141
 50
0.0
 51
0.0
 71
    16
 72
   100
 73
     1
 74
     1
 75
     0
 76
     0
 77
     0
 78
     0
281
     0
 65
     0
110
0.0
120
0.0
130
0.0
111
1.0
121
0.0
131
0.0
112
0.0
122
1.0
132
0.0
 79
     0
146
0.0
  0
VPORT
  5
554
330
7
100
AcDbSymbolTableRecord
100
AcDbViewportTableRecord
  2
L6
 70
     0
 10
0.0
 20
0.0
 11
0.333333
 21
0.5
 12
0.0
 22
0.0
 13
0.0
 23
0.0
 14
1.0
 24
1.0
 15
0.0
 25
0.0
 16
-1.0
 26
0.0
 36
0.0
 17
0.0
 27
0.0
 37
0.0
 40
44.59929999999999
 41
0.6885640000000001
 42
50.0
 43
22.544309
 44
-22.544309
 50
0.0
 51
0.0
 71
    16
 72
   100
 73
     1
 74
     1
 75
     0
 76
     0
 77
     0
 78
     0
281
     0
 65
     0
110
0.0
120
0.0
130
0.0
111
1.0
121
0.0
131
0.0
112
0.0
122
1.0
132
0.0
 79
     0
146
0.0
  0
VPORT
  5
555
330
7
100
AcDbSymbolTableRecord
100
AcDbViewportTableRecord
  2
L6
 70
     0
 10
0.333333
 20
0.5
 11
0.666667
 21
1.0
 12
0.0
 22
0.0
 13
0.0
 23
0.0
 14
1.0
 24
1.0
 15
0.0
 25
0.0
 16
0.0
 26
0.0
 36
1.0
 17
0.0
 27
0.0
 37
0.0
 40
6.624633999999999
 41
0.6885640000000001
 42
50.0
 43
22.29965
 44
-22.29965
 50
0.0
 51
0.0
 71
    16
 72
   100
 73
     1
 74
     1
 75
     0
 76
     0
 77
     0
 78
     0
281
     0
 65
     0
110
0.0
120
0.0
130
0.0
111
1.0
121
0.0
131
0.0
112
0.0
122
1.0
132
0.0
 79
     0
146
0.0
  0
VPORT
  5
556
330
7
100
AcDbSymbolTableRecord
100
AcDbViewportTableRecord
  2
L6
 70
     0
 10
0.333333
 20
0.0
 11
0.666667
 21
0.5
 12
0.0
 22
0.0
 13
0.0
 23
0.0
 14
1.0
 24
1.0
 15
0.0
 25
0.0
 16
0.0
 26
-1.0
 36
0.0
 17
0.0
 27
0.0
 37
0.0
 40
44.59929999999999
 41
0.6885640000000001
 42
50.0
 43
23.034414
 44
-23.034414
 50
0.0
 51
0.0
 71
    16
 72
   100
 73
     1
 74
     1
 75
     0
 76
     0
 77
     0
 78
     0
281
     0
 65
     0
110
0.0
120
0.0
130
0.0
111
1.0
121
0.0
131
0.0
112
0.0
122
1.0
132
0.0
 79
     0
146
0.0
  0
VPORT
  5
557
330
7
100
AcDbSymbolTableRecord
100
AcDbViewportTableRecord
  2
L6
 70
     0
 10
0.666667
 20
0.5
 11
1.0
 21
1.0
 12
0.0
 22
0.0
 13
0.0
 23
0.0
 14
1.0
 24
1.0
 15
0.0
 25
0.0
 16
0.5773500000000001
 26
-0.5773500000000001
 36
0.5773500000000001
 17
0.0
 27
0.0
 37
0.0
 40
43.832054
 41
0.6885640000000001
 42
50.0
 43
22.837903
 44
-22.837903
 50
0.0
 51
0.0
 71
    16
 72
   100
 73
     1
 74
     1
 75
     0
 76
     0
 77
     0
 78
     0
281
     0
 65
     0
110
0.0
120
0.0
130
0.0
111
1.0
121
0.0
131
0.0
112
0.0
122
1.0
132
0.0
 79
     0
146
0.0
  0
VPORT
  5
558
330
7
100
AcDbSymbolTableRecord
100
AcDbViewportTableRecord
  2
L6
 70
     0
 10
0.666667
 20
0.0
 11
1.0
 21
0.5
 12
0.0
 22
0.0
 13
0.0
 23
0.0
 14
1.0
 24
1.0
 15
0.0
 25
0.0
 16
1.0
 26
0.0
 36
0.0
 17
0.0
 27
0.0
 37
0.0
 40
44.59929999999999
 41
0.6885640000000001
 42
50.0
 43
22.544309
 44
-22.544309
 50
0.0
 51
0.0
 71
    16
 72
   100
 73
     1
 74
     1
 75
     0
 76
     0
 77
     0
 78
     0
281
     0
 65
     0
110
0.0
120
0.0
130
0.0
111
1.0
121
0.0
131
0.0
112
0.0
122
1.0
132
0.0
 79
     0
146
0.0
  0
ENDTAB
  0
TABLE
  2
LTYPE
  5
4
330
0
100
AcDbSymbolTable
 70
     7
  0
LTYPE
  5
11
330
4
100
AcDbSymbolTableRecord
100
AcDbLinetypeTableRecord
  2
ByBlock
 70
     0
  3

 72
    65
 73
     0
 40
0.0
  0
LTYPE
  5
12
330
4
100
AcDbSymbolTableRecord
100
AcDbLinetypeTableRecord
  2
ByLayer
 70
     0
  3

 72
    65
 73
     0
 40
0.0
  0
LTYPE
  5
13
330
4
100
AcDbSymbolTableRecord
100
AcDbLinetypeTableRecord
  2
Continuous
 70
     0
  3
Solid line
 72
    65
 73
     0
 40
0.0
  0
LTYPE
  5
24
330
4
100
AcDbSymbolTableRecord
100
AcDbLinetypeTableRecord
  2
DASHED
 70
     0
  3
__ __ __ __ __ __ __ __ __
 72
    65
 73
     2
 40
25.72
 49
12.86
 74
     0
 49
-12.86
 74
     0
  0
LTYPE
  5
25
330
4
100
AcDbSymbolTableRecord
100
AcDbLinetypeTableRecord
  2
HIDDEN
 70
     0
  3
_ _ _ _ _ _ _ _ _ _ _ _ _ _ _
 72
    65
 73
     2
 40
0.5
 49
0.25
 74
     0
 49
-0.25
 74
     0
  0
LTYPE
  5
26
330
4
100
AcDbSymbolTableRecord
100
AcDbLinetypeTableRecord
  2
PHANTOM
 70
     0
  3
____ _ _ ____ _ _ _____ _ _ ____
 72
    65
 73
     6
 40
50.5
 49
18.0
 74
     0
 49
-6.5
 74
     0
 49
6.5
 74
     0
 49
-6.5
 74
     0
 49
6.5
 74
     0
 49
-6.5
 74
     0
  0
LTYPE
  5
27
330
4
100
AcDbSymbolTableRecord
100
AcDbLinetypeTableRecord
  2
CENTER
 70
     0
  3
____ _ ____ _ ____ _ ____
 72
    65
 73
     4
 40
47.5
 49
22.0
 74
     0
 49
-8.5
 74
     0
 49
8.5
 74
     0
 49
-8.5
 74
     0
  0
LTYPE
  5
28
330
4
100
AcDbSymbolTableRecord
100
AcDbLinetypeTableRecord
  2
DOT
 70
     0
  3
.........................
 72
    65
 73
     2
 40
10.0
 49
0.0
 74
     0
 49
-10.0
 74
     0
  0
LTYPE
  5
29
330
4
100
AcDbSymbolTableRecord
100
AcDbLinetypeTableRecord
  2
DASHDOT
 70
     0
  3
_._._._._._._._._._._._._._._._.
 72
    65
 73
     4
 40
70.0
 49
31.0
 74
     0
 49
-13.0
 74
     0
 49
13.0
 74
     0
 49
-13.0
 74
     0
  0
ENDTAB
  0
TABLE
  2
LAYER
  5
2
330
0
100
AcDbSymbolTable
 70
     2
  0
LAYER
  5
14
330
2
100
AcDbSymbolTableRecord
100
AcDbLayerTableRecord
  2
0
 70
     0
 62
     7
  6
Continuous
370
    -3
390
1D
  0
LAYER
  5
34
330
2
100
AcDbSymbolTableRecord
100
AcDbLayerTableRecord
  2
1
 70
     0
 62
     7
  6
Continuous
370
    -3
390
1D
  0
ENDTAB
  0
TABLE
  2
STYLE
  5
3
330
0
100
AcDbSymbolTable
 70
     1
  0
STYLE
  5
17
330
3
100
AcDbSymbolTableRecord
100
AcDbTextStyleTableRecord
  2
Standard
 70
     0
 40
0.0
 41
1.0
 50
0.0
 71
     0
 42
0.0
  3
txt
  4

  0
ENDTAB
  0
TABLE
  2
VIEW
  5
5
330
0
100
AcDbSymbolTable
 70
     8
  0
VIEW
  5
2A
330
5
100
AcDbSymbolTableRecord
100
AcDbViewTableRecord
  2
TOP
 70
     0
 40
6.624633999999999
 10
0.0
 20
0.0
 41
11.542932
 11
0.0
 21
0.0
 31
1.0
 12
0.0
 22
0.0
 32
0.0
 42
50.0
 43
22.29965
 44
-22.29965
 50
0.0
 71
    16
281
     0
 72
     0
  0
VIEW
  5
2B
330
5
100
AcDbSymbolTableRecord
100
AcDbViewTableRecord
  2
FRONT
 70
     0
 40
44.59929999999999
 10
0.0
 20
0.0
 41
11.542932
 11
0.0
 21
-1.0
 31
0.0
 12
0.0
 22
0.0
 32
0.0
 42
50.0
 43
23.034414
 44
-23.034414
 50
0.0
 71
    16
281
     0
 72
     0
  0
VIEW
  5
2C
330
5
100
AcDbSymbolTableRecord
100
AcDbViewTableRecord
  2
RIGHT
 70
     0
 40
44.59929999999999
 10
0.0
 20
0.0
 41
6.624633999999999
 11
1.0
 21
0.0
 31
0.0
 12
0.0
 22
0.0
 32
0.0
 42
50.0
 43
22.544309
 44
-22.544309
 50
0.0
 71
    16
281
     0
 72
     0
  0
VIEW
  5
2D
330
5
100
AcDbSymbolTableRecord
100
AcDbViewTableRecord
  2
BACK
 70
     0
 40
44.59929999999999
 10
0.0
 20
0.0
 41
11.542932
 11
0.0
 21
1.0
 31
0.0
 12
0.0
 22
0.0
 32
0.0
 42
50.0
 43
23.034414
 44
-23.034414
 50
0.0
 71
    16
281
     0
 72
     0
  0
VIEW
  5
2E
330
5
100
AcDbSymbolTableRecord
100
AcDbViewTableRecord
  2
BOTTOM
 70
     0
 40
6.624633999999999
 10
0.0
 20
0.0
 41
11.542932
 11
0.0
 21
0.0
 31
-1.0
 12
0.0
 22
0.0
 32
0.0
 42
50.0
 43
22.29965
 44
-22.29965
 50
180.0
 71
    16
281
     0
 72
     0
  0
VIEW
  5
2F
330
5
100
AcDbSymbolTableRecord
100
AcDbViewTableRecord
  2
LEFT
 70
     0
 40
44.59929999999999
 10
0.0
 20
0.0
 41
6.624633999999999
 11
-1.0
 21
0.0
 31
0.0
 12
0.0
 22
0.0
 32
0.0
 42
50.0
 43
22.544309
 44
-22.544309
 50
0.0
 71
    16
281
     0
 72
     0
  0
VIEW
  5
30
330
5
100
AcDbSymbolTableRecord
100
AcDbViewTableRecord
  2
TFR-ISO
 70
     0
 40
43.832054
 10
0.0
 20
0.0
 41
12.84641
 11
0.5773500000000001
 21
-0.5773500000000001
 31
0.5773500000000001
 12
0.0
 22
0.0
 32
0.0
 42
50.0
 43
22.837903
 44
-22.837903
 50
0.0
 71
    16
281
     0
 72
     0
  0
VIEW
  5
31
330
5
100
AcDbSymbolTableRecord
100
AcDbViewTableRecord
  2
TFR-TRI
 70
     0
 40
46.267976
 10
0.0
 20
0.0
 41
12.424216
 11
0.718873
 21
-0.5850489999999999
 31
0.375419
 12
0.0
 22
0.0
 32
0.0
 42
50.0
 43
22.857141
 44
-22.857141
 50
0.0
 71
    16
281
     0
 72
     0
  0
ENDTAB
  0
TABLE
  2
UCS
  5
6
330
0
100
AcDbSymbolTable
 70
     0
  0
ENDTAB
  0
TABLE
  2
APPID
  5
8
330
0
100
AcDbSymbolTable
 70
     3
  0
APPID
  5
16
330
8
100
AcDbSymbolTableRecord
100
AcDbRegAppTableRecord
  2
ACAD
 70
     0
  0
APPID
  5
577
330
8
100
AcDbSymbolTableRecord
100
AcDbRegAppTableRecord
  2
ACAD_PSEXT
 70
     0
  0
APPID
  5
57A
330
8
100
AcDbSymbolTableRecord
100
AcDbRegAppTableRecord
  2
DCO15
 70
     0
  0
ENDTAB
  0
TABLE
  2
DIMSTYLE
  5
9
330
0
100
AcDbSymbolTable
 70
     1
100
AcDbDimStyleTable
 71
     0
  0
DIMSTYLE
105
18
330
9
100
AcDbSymbolTableRecord
100
AcDbDimStyleTableRecord
  2
Standard
 70
     0
340
17
  0
ENDTAB
  0
TABLE
  2
BLOCK_RECORD
  5
1
330
0
100
AcDbSymbolTable
 70
     0
  0
BLOCK_RECORD
  5
A
330
1
100
AcDbSymbolTableRecord
100
AcDbBlockTableRecord
  2
*MODEL_SPACE
340
20
  0
BLOCK_RECORD
  5
B
330
1
100
AcDbSymbolTableRecord
100
AcDbBlockTableRecord
  2
*PAPER_SPACE
340
21
  0
ENDTAB
  0
ENDSEC
  0
SECTION
  2
BLOCKS
  0
BLOCK
  5
D
330
A
100
AcDbEntity
  8
0
100
AcDbBlockBegin
  2
*MODEL_SPACE
 70
     0
 10
0.0
 20
0.0
 30
0.0
  3
*MODEL_SPACE
  1

  0
ENDBLK
  5
E
330
A
100
AcDbEntity
  8
0
100
AcDbBlockEnd
  0
BLOCK
  5
F
330
B
100
AcDbEntity
 67
     1
  8
0
100
AcDbBlockBegin
  2
*PAPER_SPACE
 70
     0
 10
0.0
 20
0.0
 30
0.0
  3
*PAPER_SPACE
  1

  0
ENDBLK
  5
10
330
B
100
AcDbEntity
 67
     1
  8
0
100
AcDbBlockEnd
  0
ENDSEC
  0
SECTION
  2
ENTITIES
  0
VIEWPORT
  5
32
102
{ACAD_XDICTIONARY
360
586
102
}
330
B
100
AcDbEntity
 67
     1
  8
0
100
AcDbViewport
 10
7.594715447154472
 20
4.25
 30
0.0
 40
15.18943089430894
 41
8.5
 68
     1
 69
     1
 12
7.594715447154472
 22
4.25
 13
0.0
 23
0.0
 14
0.0
 24
0.0
 15
0.0
 25
0.0
 16
0.0
 26
0.0
 36
1.0
 17
0.0
 27
0.0
 37
0.0
 42
26.277896
 43
0.0
 44
0.0
 45
8.5
 50
0.0
 51
0.0
 72
   100
 90
    32800
  1

281
     0
 71
     0
 74
     1
110
0.0
120
0.0
130
0.0
111
1.0
121
0.0
131
0.0
112
0.0
122
1.0
132
0.0
 79
     0
146
0.0
  0
LINE
  5
33
330
B
100
AcDbEntity
 67
     1
  8
1
  6
Continuous
 62
    18
100
AcDbLine
 10
2.367016999999999
 20
6.631542999999999
 30
0.0
 11
2.365587
 21
6.631542999999999
 31
0.0
  0
LINE
  5
35
330
B
100
AcDbEntity
 67
     1
  8
1
  6
Continuous
 62
    18
100
AcDbLine
 10
2.968579999999999
 20
5.539043
 30
0.0
 11
2.997450999999999
 21
5.539043
 31
0.0
  0
LINE
  5
36
330
B
100
AcDbEntity
 67
     1
  8
1
  6
Continuous
 62
    18
100
AcDbLine
 10
6.049241
 20
3.809086
 30
0.0
 11
6.074241
 21
3.809086
 31
0.0
  0
LINE
  5
37
330
B
100
AcDbEntity
 67
     1
  8
1
  6
Continuous
 62
    18
100
AcDbLine
 10
2.797245999999999
 20
4.144336
 30
0.0
 11
2.797245999999999
 21
4.136557999999999
 31
0.0
  0
LINE
  5
38
330
B
100
AcDbEntity
 67
     1
  8
1
  6
Continuous
 62
    18
100
AcDbLine
 10
2.095429999999999
 20
3.881137999999999
 30
0.0
 11
2.104089
 21
3.886137
 31
0.0
  0
LINE
  5
39
330
B
100
AcDbEntity
 67
     1
  8
1
  6
Continuous
 62
    18
100
AcDbLine
 10
2.915700999999999
 20
6.461802999999999
 30
0.0
 11
2.915700999999999
 21
6.511281999999999
 31
0.0
  0
LINE
  5
3A
330
B
100
AcDbEntity
 67
     1
  8
1
  6
Continuous
 62
    18
100
AcDbLine
 10
4.86207
 20
4.172284999999999
 30
0.0
 11
4.86207
 21
4.138800999999999
 31
0.0
  0
LINE
  5
3B
330
B
100
AcDbEntity
 67
     1
  8
1
  6
Continuous
 62
    18
100
AcDbLine
 10
2.674950999999999
 20
6.481543
 30
0.0
 11
2.704591999999999
 21
6.481543
 31
0.0
  0
LINE
  5
3C
330
B
100
AcDbEntity
 67
     1
  8
1
  6
Continuous
 62
    18
100
AcDbLine
 10
5.802112999999999
 20
4.154086
 30
0.0
 11
5.759241
 21
3.994086
 31
0.0
  0
LINE
  5
3D
330
B
100
AcDbEntity
 67
     1
  8
1
  6
Continuous
 62
    18
100
AcDbLine
 10
2.923460999999999
 20
6.661283
 30
0.0
 11
2.910960999999999
 21
6.661283
 31
0.0
  0
LINE
  5
3E
330
B
100
AcDbEntity
 67
     1
  8
1
  6
Continuous
 62
    18
100
AcDbLine
 10
3.280745999999999
 20
6.207389
 30
0.0
 11
3.249617999999999
 21
6.207389
 31
0.0
  0
LINE
  5
3F
330
B
100
AcDbEntity
 67
     1
  8
1
  6
Continuous
 62
    18
100
AcDbLine
 10
4.966635
 20
3.779085999999999
 30
0.0
 11
4.966861999999999
 21
3.771657999999999
 31
0.0
  0
LINE
  5
40
330
B
100
AcDbEntity
 67
     1
  8
1
  6
Continuous
 62
    18
100
AcDbLine
 10
2.447643999999999
 20
6.631542999999999
 30
0.0
 11
2.444591999999999
 21
6.631542999999999
 31
0.0
  0
LINE
  5
41
330
B
100
AcDbEntity
 67
     1
  8
1
  6
Continuous
 62
    18
100
AcDbLine
 10
4.581739999999999
 20
3.962922
 30
0.0
 11
4.581739999999999
 21
3.936326999999999
 31
0.0
  0
LINE
  5
42
330
B
100
AcDbEntity
 67
     1
  8
1
  6
Continuous
 62
    18
100
AcDbLine
 10
2.238002999999999
 20
6.611803999999999
 30
0.0
 11
2.197899
 21
6.611803999999999
 31
0.0
  0
LINE
  5
43
330
B
100
AcDbEntity
 67
     1
  8
1
  6
Continuous
 62
    18
100
AcDbLine
 10
3.145566999999999
 20
3.971837
 30
0.0
 11
3.145566999999999
 21
3.981834999999999
 31
0.0
  0
LINE
  5
44
330
B
100
AcDbEntity
 67
     1
  8
1
  6
Continuous
 62
    18
100
AcDbLine
 10
2.159950999999999
 20
6.800991999999999
 30
0.0
 11
2.159950999999999
 21
6.798608999999999
 31
0.0
  0
LINE
  5
45
330
B
100
AcDbEntity
 67
     1
  8
1
  6
Continuous
 62
    18
100
AcDbLine
 10
4.999398999999999
 20
3.779085999999999
 30
0.0
 11
5.000494
 21
3.770980999999999
 31
0.0
  0
LINE
  5
46
330
B
100
AcDbEntity
 67
     1
  8
1
  6
Continuous
 62
    18
100
AcDbLine
 10
2.469951
 20
6.836542999999998
 30
0.0
 11
2.489951
 21
6.836542999999998
 31
0.0
  0
LINE
  5
47
330
B
100
AcDbEntity
 67
     1
  8
1
  6
Continuous
 62
    18
100
AcDbLine
 10
1.940950999999999
 20
5.689041999999999
 30
0.0
 11
1.940950999999999
 21
5.539043
 31
0.0
  0
LINE
  5
48
330
B
100
AcDbEntity
 67
     1
  8
1
  6
Continuous
 62
    18
100
AcDbLine
 10
5.544084999999999
 20
3.809086
 30
0.0
 11
5.558667999999999
 21
3.809086
 31
0.0
  0
LINE
  5
49
330
B
100
AcDbEntity
 67
     1
  8
1
  6
Continuous
 62
    18
100
AcDbLine
 10
1.761547999999999
 20
4.176835999999999
 30
0.0
 11
1.755888999999999
 21
4.176835999999999
 31
0.0
  0
LINE
  5
4A
330
B
100
AcDbEntity
 67
     1
  8
1
  6
Continuous
 62
    18
100
AcDbLine
 10
4.907523
 20
3.770980999999999
 30
0.0
 11
4.908865
 21
3.779085999999999
 31
0.0
  0
LINE
  5
4B
330
B
100
AcDbEntity
 67
     1
  8
1
  6
Continuous
 62
    18
100
AcDbLine
 10
2.439950999999999
 20
6.846542999999999
 30
0.0
 11
2.459950999999999
 21
6.846542999999999
 31
0.0
  0
LINE
  5
4C
330
B
100
AcDbEntity
 67
     1
  8
1
  6
Continuous
 62
    18
100
AcDbLine
 10
2.153159
 20
6.465969999999999
 30
0.0
 11
2.148992999999999
 21
6.461802999999999
 31
0.0
  0
LINE
  5
4D
330
B
100
AcDbEntity
 67
     1
  8
1
  6
Continuous
 62
    18
100
AcDbLine
 10
2.920597
 20
6.316751
 30
0.0
 11
2.91643
 21
6.312583999999999
 31
0.0
  0
LINE
  5
4E
330
B
100
AcDbEntity
 67
     1
  8
1
  6
Continuous
 62
    18
100
AcDbLine
 10
2.134259999999999
 20
4.172836
 30
0.0
 11
2.134259999999999
 21
3.780835999999999
 31
0.0
  0
LINE
  5
4F
330
B
100
AcDbEntity
 67
     1
  8
1
  6
Continuous
 62
    18
100
AcDbLine
 10
2.159950999999999
 20
6.879235
 30
0.0
 11
2.159950999999999
 21
6.876183999999999
 31
0.0
  0
LINE
  5
50
330
B
100
AcDbEntity
 67
     1
  8
1
  6
Continuous
 62
    18
100
AcDbLine
 10
4.569241
 20
3.876528
 30
0.0
 11
4.73174
 21
3.876528
 31
0.0
  0
LINE
  5
51
330
B
100
AcDbEntity
 67
     1
  8
1
  6
Continuous
 62
    18
100
AcDbLine
 10
2.154795
 20
7.001802999999999
 30
0.0
 11
2.144899
 21
7.006491
 31
0.0
  0
LINE
  5
52
330
B
100
AcDbEntity
 67
     1
  8
1
  6
Continuous
 62
    18
100
AcDbLine
 10
1.928950999999999
 20
5.946543
 30
0.0
 11
3.146951
 21
5.946543
 31
0.0
  0
LINE
  5
53
330
B
100
AcDbEntity
 67
     1
  8
1
  6
Continuous
 62
    18
100
AcDbLine
 10
1.977325999999999
 20
6.511281999999999
 30
0.0
 11
1.964825999999999
 21
6.511281999999999
 31
0.0
  0
LINE
  5
54
330
B
100
AcDbEntity
 67
     1
  8
1
  6
Continuous
 62
    18
100
AcDbLine
 10
2.841429999999999
 20
6.506594999999999
 30
0.0
 11
2.841429999999999
 21
6.491491
 31
0.0
  0
LINE
  5
55
330
B
100
AcDbEntity
 67
     1
  8
1
  6
Continuous
 62
    18
100
AcDbLine
 10
3.316629
 20
3.781387
 30
0.0
 11
3.318874999999999
 21
3.781387
 31
0.0
  0
LINE
  5
56
330
B
100
AcDbEntity
 67
     1
  8
1
  6
Continuous
 62
    18
100
AcDbLine
 10
2.712104
 20
6.341542999999999
 30
0.0
 11
2.709474999999999
 21
6.341542999999999
 31
0.0
  0
LINE
  5
57
330
B
100
AcDbEntity
 67
     1
  8
1
  6
Continuous
 62
    18
100
AcDbLine
 10
2.404951
 20
6.491543
 30
0.0
 11
2.404951
 21
6.511542999999999
 31
0.0
  0
LINE
  5
58
330
B
100
AcDbEntity
 67
     1
  8
1
  6
Continuous
 62
    18
100
AcDbLine
 10
2.319950999999999
 20
6.836542999999998
 30
0.0
 11
2.339950999999999
 21
6.836542999999998
 31
0.0
  0
LINE
  5
59
330
B
100
AcDbEntity
 67
     1
  8
1
  6
Continuous
 62
    18
100
AcDbLine
 10
2.227586
 20
6.311803
 30
0.0
 11
2.207794999999999
 21
6.311803
 31
0.0
  0
LINE
  5
5A
330
B
100
AcDbEntity
 67
     1
  8
1
  6
Continuous
 62
    18
100
AcDbLine
 10
2.228107
 20
6.631594999999999
 30
0.0
 11
2.238002999999999
 21
6.636282
 31
0.0
  0
LINE
  5
5B
330
B
100
AcDbEntity
 67
     1
  8
1
  6
Continuous
 62
    18
100
AcDbLine
 10
1.720100999999999
 20
3.823218
 30
0.0
 11
1.720100999999999
 21
4.130454
 31
0.0
  0
LINE
  5
5C
330
B
100
AcDbEntity
 67
     1
  8
1
  6
Continuous
 62
    18
100
AcDbLine
 10
2.63531
 20
6.341542999999999
 30
0.0
 11
2.634459
 21
6.341542999999999
 31
0.0
  0
LINE
  5
5D
330
B
100
AcDbEntity
 67
     1
  8
1
  6
Continuous
 62
    18
100
AcDbLine
 10
2.444591999999999
 20
6.481543
 30
0.0
 11
2.414950999999999
 21
6.481543
 31
0.0
  0
LINE
  5
5E
330
B
100
AcDbEntity
 67
     1
  8
1
  6
Continuous
 62
    18
100
AcDbLine
 10
2.289950999999999
 20
6.846542999999999
 30
0.0
 11
2.309950999999999
 21
6.846542999999999
 31
0.0
  0
LINE
  5
5F
330
B
100
AcDbEntity
 67
     1
  8
1
  6
Continuous
 62
    18
100
AcDbLine
 10
2.109618
 20
6.506073999999999
 30
0.0
 11
2.099722
 21
6.511281999999999
 31
0.0
  0
LINE
  5
60
330
B
100
AcDbEntity
 67
     1
  8
1
  6
Continuous
 62
    18
100
AcDbLine
 10
2.794950999999999
 20
6.261542999999999
 30
0.0
 11
2.752079
 21
6.261542999999999
 31
0.0
  0
LINE
  5
61
330
B
100
AcDbEntity
 67
     1
  8
1
  6
Continuous
 62
    18
100
AcDbLine
 10
2.119095999999999
 20
3.913526999999999
 30
0.0
 11
2.121706999999999
 21
3.915033999999999
 31
0.0
  0
LINE
  5
62
330
B
100
AcDbEntity
 67
     1
  8
1
  6
Continuous
 62
    18
100
AcDbLine
 10
2.252634
 20
5.526543
 30
0.0
 11
2.230573
 21
5.526543
 31
0.0
  0
LINE
  5
63
330
B
100
AcDbEntity
 67
     1
  8
1
  6
Continuous
 62
    18
100
AcDbLine
 10
2.942253
 20
3.915033999999999
 30
0.0
 11
2.948288
 21
3.915033999999999
 31
0.0
  0
LINE
  5
64
330
B
100
AcDbEntity
 67
     1
  8
1
  6
Continuous
 62
    18
100
AcDbLine
 10
5.754241
 20
4.154086
 30
0.0
 11
5.304241
 21
4.154086
 31
0.0
  0
LINE
  5
65
330
B
100
AcDbEntity
 67
     1
  8
1
  6
Continuous
 62
    18
100
AcDbLine
 10
2.208515999999999
 20
4.052969
 30
0.0
 11
2.211688999999999
 21
4.053528
 31
0.0
  0
LINE
  5
66
330
B
100
AcDbEntity
 67
     1
  8
1
  6
Continuous
 62
    18
100
AcDbLine
 10
2.619950999999999
 20
6.799389999999999
 30
0.0
 11
2.619950999999999
 21
6.802019
 31
0.0
  0
LINE
  5
67
330
B
100
AcDbEntity
 67
     1
  8
1
  6
Continuous
 62
    18
100
AcDbLine
 10
2.095025999999999
 20
3.881835999999999
 30
0.0
 11
1.988874999999999
 21
3.881835999999999
 31
0.0
  0
LINE
  5
68
330
B
100
AcDbEntity
 67
     1
  8
1
  6
Continuous
 62
    18
100
AcDbLine
 10
2.375309999999999
 20
6.331542999999999
 30
0.0
 11
2.372475999999999
 21
6.331542999999999
 31
0.0
  0
LINE
  5
69
330
B
100
AcDbEntity
 67
     1
  8
1
  6
Continuous
 62
    18
100
AcDbLine
 10
2.769950999999999
 20
6.802019
 30
0.0
 11
2.769950999999999
 21
6.805206
 31
0.0
  0
LINE
  5
6A
330
B
100
AcDbEntity
 67
     1
  8
1
  6
Continuous
 62
    18
100
AcDbLine
 10
3.144760999999999
 20
3.971837
 30
0.0
 11
3.145566999999999
 21
3.971837
 31
0.0
  0
LINE
  5
6B
330
B
100
AcDbEntity
 67
     1
  8
1
  6
Continuous
 62
    18
100
AcDbLine
 10
2.619950999999999
 20
6.876183999999999
 30
0.0
 11
2.619950999999999
 21
6.877035
 31
0.0
  0
LINE
  5
6C
330
B
100
AcDbEntity
 67
     1
  8
1
  6
Continuous
 62
    18
100
AcDbLine
 10
2.451592999999999
 20
6.341542999999999
 30
0.0
 11
2.452971999999999
 21
6.341542999999999
 31
0.0
  0
LINE
  5
6D
330
B
100
AcDbEntity
 67
     1
  8
1
  6
Continuous
 62
    18
100
AcDbLine
 10
2.769950999999999
 20
6.877035
 30
0.0
 11
2.769950999999999
 21
6.880358
 31
0.0
  0
LINE
  5
6E
330
B
100
AcDbEntity
 67
     1
  8
1
  6
Continuous
 62
    18
100
AcDbLine
 10
5.41924
 20
3.881586
 30
0.0
 11
5.339241
 21
3.881586
 31
0.0
  0
LINE
  5
6F
330
B
100
AcDbEntity
 67
     1
  8
1
  6
Continuous
 62
    18
100
AcDbLine
 10
5.534187999999999
 20
3.809086
 30
0.0
 11
5.52898
 21
3.809086
 31
0.0
  0
LINE
  5
70
330
B
100
AcDbEntity
 67
     1
  8
1
  6
Continuous
 62
    18
100
AcDbLine
 10
5.55398
 20
3.809086
 30
0.0
 11
5.549292999999999
 21
3.809086
 31
0.0
  0
LINE
  5
71
330
B
100
AcDbEntity
 67
     1
  8
1
  6
Continuous
 62
    18
100
AcDbLine
 10
2.453937999999999
 20
6.331542999999999
 30
0.0
 11
2.452971999999999
 21
6.331542999999999
 31
0.0
  0
LINE
  5
72
330
B
100
AcDbEntity
 67
     1
  8
1
  6
Continuous
 62
    18
100
AcDbLine
 10
2.759951
 20
6.886263999999999
 30
0.0
 11
2.759951
 21
6.886252
 31
0.0
  0
LINE
  5
73
330
B
100
AcDbEntity
 67
     1
  8
1
  6
Continuous
 62
    18
100
AcDbLine
 10
3.111950999999999
 20
5.539043
 30
0.0
 11
3.111950999999999
 21
5.689041999999999
 31
0.0
  0
LINE
  5
74
330
B
100
AcDbEntity
 67
     1
  8
1
  6
Continuous
 62
    18
100
AcDbLine
 10
2.242898999999999
 20
3.876528
 30
0.0
 11
2.211688999999999
 21
4.053528
 31
0.0
  0
LINE
  5
75
330
B
100
AcDbEntity
 67
     1
  8
1
  6
Continuous
 62
    18
100
AcDbLine
 10
4.968205
 20
3.770980999999999
 30
0.0
 11
4.968278999999999
 21
3.761201
 31
0.0
  0
LINE
  5
76
330
B
100
AcDbEntity
 67
     1
  8
1
  6
Continuous
 62
    18
100
AcDbLine
 10
5.384189
 20
3.809086
 30
0.0
 11
5.37898
 21
3.809086
 31
0.0
  0
LINE
  5
77
330
B
100
AcDbEntity
 67
     1
  8
1
  6
Continuous
 62
    18
100
AcDbLine
 10
5.508666999999999
 20
3.809086
 30
0.0
 11
5.504501
 21
3.809086
 31
0.0
  0
LINE
  5
78
330
B
100
AcDbEntity
 67
     1
  8
1
  6
Continuous
 62
    18
100
AcDbLine
 10
2.909950999999999
 20
6.800991999999999
 30
0.0
 11
2.909950999999999
 21
6.798608999999999
 31
0.0
  0
LINE
  5
79
330
B
100
AcDbEntity
 67
     1
  8
1
  6
Continuous
 62
    18
100
AcDbLine
 10
2.704591999999999
 20
6.631542999999999
 30
0.0
 11
2.707425999999999
 21
6.631542999999999
 31
0.0
  0
LINE
  5
7A
330
B
100
AcDbEntity
 67
     1
  8
1
  6
Continuous
 62
    18
100
AcDbLine
 10
5.639241
 20
3.881586
 30
0.0
 11
5.609240999999999
 21
3.851586
 31
0.0
  0
LINE
  5
7B
330
B
100
AcDbEntity
 67
     1
  8
1
  6
Continuous
 62
    18
100
AcDbLine
 10
6.074188999999999
 20
3.809086
 30
0.0
 11
6.064292
 21
3.809086
 31
0.0
  0
LINE
  5
7C
330
B
100
AcDbEntity
 67
     1
  8
1
  6
Continuous
 62
    18
100
AcDbLine
 10
2.626929999999999
 20
6.641542999999999
 30
0.0
 11
2.625553
 21
6.641542999999999
 31
0.0
  0
LINE
  5
7D
330
B
100
AcDbEntity
 67
     1
  8
1
  6
Continuous
 62
    18
100
AcDbLine
 10
5.303439
 20
3.779085999999999
 30
0.0
 11
5.296740999999999
 21
3.779085999999999
 31
0.0
  0
LINE
  5
7E
330
B
100
AcDbEntity
 67
     1
  8
1
  6
Continuous
 62
    18
100
AcDbLine
 10
6.044501
 20
3.809086
 30
0.0
 11
6.049189
 21
3.809086
 31
0.0
  0
LINE
  5
7F
330
B
100
AcDbEntity
 67
     1
  8
1
  6
Continuous
 62
    18
100
AcDbLine
 10
5.659187999999999
 20
3.809086
 30
0.0
 11
5.669084999999999
 21
3.809086
 31
0.0
  0
LINE
  5
80
330
B
100
AcDbEntity
 67
     1
  8
1
  6
Continuous
 62
    18
100
AcDbLine
 10
2.909950999999999
 20
6.879235
 30
0.0
 11
2.909950999999999
 21
6.876183999999999
 31
0.0
  0
LINE
  5
81
330
B
100
AcDbEntity
 67
     1
  8
1
  6
Continuous
 62
    18
100
AcDbLine
 10
2.626929999999999
 20
6.631542999999999
 30
0.0
 11
2.629256999999999
 21
6.631542999999999
 31
0.0
  0
LINE
  5
82
330
B
100
AcDbEntity
 67
     1
  8
1
  6
Continuous
 62
    18
100
AcDbLine
 10
5.041739999999999
 20
3.809086
 30
0.0
 11
5.060042
 21
3.809086
 31
0.0
  0
LINE
  5
83
330
B
100
AcDbEntity
 67
     1
  8
1
  6
Continuous
 62
    18
100
AcDbLine
 10
2.325107
 20
7.001802999999999
 30
0.0
 11
2.335002999999999
 21
7.006491
 31
0.0
  0
LINE
  5
84
330
B
100
AcDbEntity
 67
     1
  8
1
  6
Continuous
 62
    18
100
AcDbLine
 10
4.919398999999999
 20
3.657184999999999
 30
0.0
 11
4.919398999999999
 21
3.752113999999999
 31
0.0
  0
LINE
  5
85
330
B
100
AcDbEntity
 67
     1
  8
1
  6
Continuous
 62
    18
100
AcDbLine
 10
2.089950999999999
 20
6.996542999999999
 30
0.0
 11
2.089950999999999
 21
6.966542999999999
 31
0.0
  0
LINE
  5
86
330
B
100
AcDbEntity
 67
     1
  8
1
  6
Continuous
 62
    18
100
AcDbLine
 10
2.365587
 20
6.631542999999999
 30
0.0
 11
2.365229999999999
 21
6.631542999999999
 31
0.0
  0
LINE
  5
87
330
B
100
AcDbEntity
 67
     1
  8
1
  6
Continuous
 62
    18
100
AcDbLine
 10
6.049189
 20
3.809086
 30
0.0
 11
6.044501
 21
3.809086
 31
0.0
  0
LINE
  5
88
330
B
100
AcDbEntity
 67
     1
  8
1
  6
Continuous
 62
    18
100
AcDbLine
 10
3.039450999999999
 20
5.539043
 30
0.0
 11
3.039450999999999
 21
5.579043
 31
0.0
  0
LINE
  5
89
330
B
100
AcDbEntity
 67
     1
  8
1
  6
Continuous
 62
    18
100
AcDbLine
 10
6.074241
 20
3.809086
 30
0.0
 11
6.092541999999999
 21
3.809086
 31
0.0
  0
LINE
  5
8A
330
B
100
AcDbEntity
 67
     1
  8
1
  6
Continuous
 62
    18
100
AcDbLine
 10
2.797245999999999
 20
4.136557999999999
 30
0.0
 11
2.797245999999999
 21
4.133335999999999
 31
0.0
  0
LINE
  5
8B
330
B
100
AcDbEntity
 67
     1
  8
1
  6
Continuous
 62
    18
100
AcDbLine
 10
2.921377999999999
 20
6.615969999999999
 30
0.0
 11
2.917210999999999
 21
6.611803999999999
 31
0.0
  0
LINE
  5
8C
330
B
100
AcDbEntity
 67
     1
  8
1
  6
Continuous
 62
    18
100
AcDbLine
 10
4.86207
 20
4.200556999999999
 30
0.0
 11
4.919398999999999
 21
4.201558
 31
0.0
  0
LINE
  5
8D
330
B
100
AcDbEntity
 67
     1
  8
1
  6
Continuous
 62
    18
100
AcDbLine
 10
2.104089
 20
4.067534999999999
 30
0.0
 11
2.119499
 21
4.040842999999999
 31
0.0
  0
LINE
  5
8E
330
B
100
AcDbEntity
 67
     1
  8
1
  6
Continuous
 62
    18
100
AcDbLine
 10
2.704591999999999
 20
6.481543
 30
0.0
 11
2.707425999999999
 21
6.481543
 31
0.0
  0
LINE
  5
8F
330
B
100
AcDbEntity
 67
     1
  8
1
  6
Continuous
 62
    18
100
AcDbLine
 10
2.404951
 20
6.611542999999999
 30
0.0
 11
2.404951
 21
6.631542999999999
 31
0.0
  0
LINE
  5
90
330
B
100
AcDbEntity
 67
     1
  8
1
  6
Continuous
 62
    18
100
AcDbLine
 10
6.009241
 20
3.994086
 30
0.0
 11
6.03924
 21
3.994086
 31
0.0
  0
LINE
  5
91
330
B
100
AcDbEntity
 67
     1
  8
1
  6
Continuous
 62
    18
100
AcDbLine
 10
1.757527
 20
5.876701
 30
0.0
 11
3.318375
 21
5.876701
 31
0.0
  0
LINE
  5
92
330
B
100
AcDbEntity
 67
     1
  8
1
  6
Continuous
 62
    18
100
AcDbLine
 10
2.469951
 20
6.836542999999998
 30
0.0
 11
2.469951
 21
6.806902
 31
0.0
  0
LINE
  5
93
330
B
100
AcDbEntity
 67
     1
  8
1
  6
Continuous
 62
    18
100
AcDbLine
 10
4.581739999999999
 20
3.936326999999999
 30
0.0
 11
4.581739999999999
 21
3.913320999999999
 31
0.0
  0
LINE
  5
94
330
B
100
AcDbEntity
 67
     1
  8
1
  6
Continuous
 62
    18
100
AcDbLine
 10
2.065243
 20
6.511281999999999
 30
0.0
 11
2.065243
 21
6.501387
 31
0.0
  0
LINE
  5
95
330
B
100
AcDbEntity
 67
     1
  8
1
  6
Continuous
 62
    18
100
AcDbLine
 10
3.145566999999999
 20
3.971837
 30
0.0
 11
3.096089
 21
3.886137
 31
0.0
  0
LINE
  5
96
330
B
100
AcDbEntity
 67
     1
  8
1
  6
Continuous
 62
    18
100
AcDbLine
 10
2.327822999999999
 20
6.261542999999999
 30
0.0
 11
2.284950999999999
 21
6.261542999999999
 31
0.0
  0
LINE
  5
97
330
B
100
AcDbEntity
 67
     1
  8
1
  6
Continuous
 62
    18
100
AcDbLine
 10
3.087429999999999
 20
4.072533999999999
 30
0.0
 11
3.087026999999999
 21
4.071836
 31
0.0
  0
LINE
  5
98
330
B
100
AcDbEntity
 67
     1
  8
1
  6
Continuous
 62
    18
100
AcDbLine
 10
2.159950999999999
 20
6.798608999999999
 30
0.0
 11
2.159950999999999
 21
6.797178999999998
 31
0.0
  0
LINE
  5
99
330
B
100
AcDbEntity
 67
     1
  8
1
  6
Continuous
 62
    18
100
AcDbLine
 10
2.127950999999999
 20
5.539043
 30
0.0
 11
2.127950999999999
 21
5.689041999999999
 31
0.0
  0
LINE
  5
9A
330
B
100
AcDbEntity
 67
     1
  8
1
  6
Continuous
 62
    18
100
AcDbLine
 10
1.761547999999999
 20
3.776835999999999
 30
0.0
 11
1.761547999999999
 21
4.176835999999999
 31
0.0
  0
LINE
  5
9B
330
B
100
AcDbEntity
 67
     1
  8
1
  6
Continuous
 62
    18
100
AcDbLine
 10
2.122109999999999
 20
4.039336
 30
0.0
 11
2.132950999999999
 21
4.039336
 31
0.0
  0
LINE
  5
9C
330
B
100
AcDbEntity
 67
     1
  8
1
  6
Continuous
 62
    18
100
AcDbLine
 10
2.139950999999999
 20
6.836542999999998
 30
0.0
 11
2.159950999999999
 21
6.836542999999998
 31
0.0
  0
LINE
  5
9D
330
B
100
AcDbEntity
 67
     1
  8
1
  6
Continuous
 62
    18
100
AcDbLine
 10
4.922616999999999
 20
3.734086
 30
0.0
 11
4.919398999999999
 21
3.734086
 31
0.0
  0
LINE
  5
9E
330
B
100
AcDbEntity
 67
     1
  8
1
  6
Continuous
 62
    18
100
AcDbLine
 10
2.459950999999999
 20
6.876183999999999
 30
0.0
 11
2.459950999999999
 21
6.846542999999999
 31
0.0
  0
LINE
  5
9F
330
B
100
AcDbEntity
 67
     1
  8
1
  6
Continuous
 62
    18
100
AcDbLine
 10
2.775106999999999
 20
7.001802999999999
 30
0.0
 11
2.754795
 21
7.001802999999999
 31
0.0
  0
LINE
  5
A0
330
B
100
AcDbEntity
 67
     1
  8
1
  6
Continuous
 62
    18
100
AcDbLine
 10
5.504501
 20
3.809086
 30
0.0
 11
5.55398
 21
3.809086
 31
0.0
  0
LINE
  5
A1
330
B
100
AcDbEntity
 67
     1
  8
1
  6
Continuous
 62
    18
100
AcDbLine
 10
2.132950999999999
 20
4.172836
 30
0.0
 11
2.134259999999999
 21
4.172836
 31
0.0
  0
LINE
  5
A2
330
B
100
AcDbEntity
 67
     1
  8
1
  6
Continuous
 62
    18
100
AcDbLine
 10
3.098951
 20
6.254043
 30
0.0
 11
2.998950999999999
 21
6.254043
 31
0.0
  0
LINE
  5
A3
330
B
100
AcDbEntity
 67
     1
  8
1
  6
Continuous
 62
    18
100
AcDbLine
 10
5.889241
 20
3.819086
 30
0.0
 11
5.889241
 21
3.809086
 31
0.0
  0
LINE
  5
A4
330
B
100
AcDbEntity
 67
     1
  8
1
  6
Continuous
 62
    18
100
AcDbLine
 10
2.404951
 20
6.491543
 30
0.0
 11
2.375309999999999
 21
6.491543
 31
0.0
  0
LINE
  5
A5
330
B
100
AcDbEntity
 67
     1
  8
1
  6
Continuous
 62
    18
100
AcDbLine
 10
4.569241
 20
4.133335999999999
 30
0.0
 11
4.73174
 21
4.133335999999999
 31
0.0
  0
LINE
  5
A6
330
B
100
AcDbEntity
 67
     1
  8
1
  6
Continuous
 62
    18
100
AcDbLine
 10
2.319950999999999
 20
6.836542999999998
 30
0.0
 11
2.319950999999999
 21
6.806902
 31
0.0
  0
LINE
  5
A7
330
B
100
AcDbEntity
 67
     1
  8
1
  6
Continuous
 62
    18
100
AcDbLine
 10
2.183002999999999
 20
6.361282
 30
0.0
 11
2.183002999999999
 21
6.311803
 31
0.0
  0
LINE
  5
A8
330
B
100
AcDbEntity
 67
     1
  8
1
  6
Continuous
 62
    18
100
AcDbLine
 10
2.238002999999999
 20
6.316491
 30
0.0
 11
2.227586
 21
6.311803
 31
0.0
  0
LINE
  5
A9
330
B
100
AcDbEntity
 67
     1
  8
1
  6
Continuous
 62
    18
100
AcDbLine
 10
3.316629
 20
4.172284999999999
 30
0.0
 11
3.318874999999999
 21
4.172284999999999
 31
0.0
  0
LINE
  5
AA
330
B
100
AcDbEntity
 67
     1
  8
1
  6
Continuous
 62
    18
100
AcDbLine
 10
2.709474999999999
 20
6.341542999999999
 30
0.0
 11
2.706288
 21
6.341542999999999
 31
0.0
  0
LINE
  5
AB
330
B
100
AcDbEntity
 67
     1
  8
1
  6
Continuous
 62
    18
100
AcDbLine
 10
2.414950999999999
 20
6.511542999999999
 30
0.0
 11
2.404951
 21
6.511542999999999
 31
0.0
  0
LINE
  5
AC
330
B
100
AcDbEntity
 67
     1
  8
1
  6
Continuous
 62
    18
100
AcDbLine
 10
2.784482
 20
7.041386999999999
 30
0.0
 11
2.784482
 21
7.011699
 31
0.0
  0
LINE
  5
AD
330
B
100
AcDbEntity
 67
     1
  8
1
  6
Continuous
 62
    18
100
AcDbLine
 10
2.178783999999999
 20
6.515969999999999
 30
0.0
 11
2.188679999999999
 21
6.521177999999999
 31
0.0
  0
LINE
  5
AE
330
B
100
AcDbEntity
 67
     1
  8
1
  6
Continuous
 62
    18
100
AcDbLine
 10
2.404951
 20
6.461542999999999
 30
0.0
 11
2.404951
 21
6.481543
 31
0.0
  0
LINE
  5
AF
330
B
100
AcDbEntity
 67
     1
  8
1
  6
Continuous
 62
    18
100
AcDbLine
 10
3.355801
 20
3.823218
 30
0.0
 11
3.355801
 21
4.130454
 31
0.0
  0
LINE
  5
B0
330
B
100
AcDbEntity
 67
     1
  8
1
  6
Continuous
 62
    18
100
AcDbLine
 10
2.634459
 20
6.341542999999999
 30
0.0
 11
2.631136
 21
6.341542999999999
 31
0.0
  0
LINE
  5
B1
330
B
100
AcDbEntity
 67
     1
  8
1
  6
Continuous
 62
    18
100
AcDbLine
 10
5.299241
 20
3.851586
 30
0.0
 11
5.309239999999999
 21
3.851586
 31
0.0
  0
LINE
  5
B2
330
B
100
AcDbEntity
 67
     1
  8
1
  6
Continuous
 62
    18
100
AcDbLine
 10
2.414950999999999
 20
6.461542999999999
 30
0.0
 11
2.414950999999999
 21
6.481543
 31
0.0
  0
LINE
  5
B3
330
B
100
AcDbEntity
 67
     1
  8
1
  6
Continuous
 62
    18
100
AcDbLine
 10
2.309950999999999
 20
6.876183999999999
 30
0.0
 11
2.309950999999999
 21
6.846542999999999
 31
0.0
  0
LINE
  5
B4
330
B
100
AcDbEntity
 67
     1
  8
1
  6
Continuous
 62
    18
100
AcDbLine
 10
2.197899
 20
6.341491
 30
0.0
 11
2.207794999999999
 21
6.336281999999999
 31
0.0
  0
LINE
  5
B5
330
B
100
AcDbEntity
 67
     1
  8
1
  6
Continuous
 62
    18
100
AcDbLine
 10
2.794950999999999
 20
6.711542999999998
 30
0.0
 11
2.794950999999999
 21
6.261542999999999
 31
0.0
  0
LINE
  5
B6
330
B
100
AcDbEntity
 67
     1
  8
1
  6
Continuous
 62
    18
100
AcDbLine
 10
2.121706999999999
 20
3.915033999999999
 30
0.0
 11
2.133649
 21
3.915033999999999
 31
0.0
  0
LINE
  5
B7
330
B
100
AcDbEntity
 67
     1
  8
1
  6
Continuous
 62
    18
100
AcDbLine
 10
2.625229999999999
 20
6.331542999999999
 30
0.0
 11
2.625241999999999
 21
6.331542999999999
 31
0.0
  0
LINE
  5
B8
330
B
100
AcDbEntity
 67
     1
  8
1
  6
Continuous
 62
    18
100
AcDbLine
 10
2.230573
 20
5.526543
 30
0.0
 11
2.215831999999999
 21
5.526543
 31
0.0
  0
LINE
  5
B9
330
B
100
AcDbEntity
 67
     1
  8
1
  6
Continuous
 62
    18
100
AcDbLine
 10
2.964235
 20
3.900658999999999
 30
0.0
 11
2.972215999999999
 21
3.886834999999999
 31
0.0
  0
LINE
  5
BA
330
B
100
AcDbEntity
 67
     1
  8
1
  6
Continuous
 62
    18
100
AcDbLine
 10
2.867385
 20
4.052969
 30
0.0
 11
2.875045999999999
 21
4.051618
 31
0.0
  0
LINE
  5
BB
330
B
100
AcDbEntity
 67
     1
  8
1
  6
Continuous
 62
    18
100
AcDbLine
 10
5.754241
 20
3.994086
 30
0.0
 11
5.304241
 21
3.994086
 31
0.0
  0
LINE
  5
BC
330
B
100
AcDbEntity
 67
     1
  8
1
  6
Continuous
 62
    18
100
AcDbLine
 10
2.309865999999999
 20
3.820336
 30
0.0
 11
2.309865999999999
 21
3.817114
 31
0.0
  0
LINE
  5
BD
330
B
100
AcDbEntity
 67
     1
  8
1
  6
Continuous
 62
    18
100
AcDbLine
 10
2.619950999999999
 20
6.802019
 30
0.0
 11
2.619950999999999
 21
6.805206
 31
0.0
  0
LINE
  5
BE
330
B
100
AcDbEntity
 67
     1
  8
1
  6
Continuous
 62
    18
100
AcDbLine
 10
2.095025999999999
 20
3.881835999999999
 30
0.0
 11
2.103686
 21
3.886834999999999
 31
0.0
  0
LINE
  5
BF
330
B
100
AcDbEntity
 67
     1
  8
1
  6
Continuous
 62
    18
100
AcDbLine
 10
2.372475999999999
 20
6.331542999999999
 30
0.0
 11
2.369399
 21
6.331542999999999
 31
0.0
  0
LINE
  5
C0
330
B
100
AcDbEntity
 67
     1
  8
1
  6
Continuous
 62
    18
100
AcDbLine
 10
5.52898
 20
3.809086
 30
0.0
 11
5.524291999999999
 21
3.809086
 31
0.0
  0
LINE
  5
C1
330
B
100
AcDbEntity
 67
     1
  8
1
  6
Continuous
 62
    18
100
AcDbLine
 10
3.096089
 20
3.886137
 30
0.0
 11
3.095685
 21
3.886834999999999
 31
0.0
  0
LINE
  5
C2
330
B
100
AcDbEntity
 67
     1
  8
1
  6
Continuous
 62
    18
100
AcDbLine
 10
2.619950999999999
 20
6.877035
 30
0.0
 11
2.619950999999999
 21
6.880358
 31
0.0
  0
LINE
  5
C3
330
B
100
AcDbEntity
 67
     1
  8
1
  6
Continuous
 62
    18
100
AcDbLine
 10
2.452971999999999
 20
6.341542999999999
 30
0.0
 11
2.454349
 21
6.341542999999999
 31
0.0
  0
LINE
  5
C4
330
B
100
AcDbEntity
 67
     1
  8
1
  6
Continuous
 62
    18
100
AcDbLine
 10
2.769950999999999
 20
6.880358
 30
0.0
 11
2.769950999999999
 21
6.883185
 31
0.0
  0
LINE
  5
C5
330
B
100
AcDbEntity
 67
     1
  8
1
  6
Continuous
 62
    18
100
AcDbLine
 10
5.339241
 20
3.881586
 30
0.0
 11
5.339241
 21
3.931586
 31
0.0
  0
LINE
  5
C6
330
B
100
AcDbEntity
 67
     1
  8
1
  6
Continuous
 62
    18
100
AcDbLine
 10
6.09398
 20
3.809086
 30
0.0
 11
6.089292999999999
 21
3.809086
 31
0.0
  0
LINE
  5
C7
330
B
100
AcDbEntity
 67
     1
  8
1
  6
Continuous
 62
    18
100
AcDbLine
 10
2.452971999999999
 20
6.331542999999999
 30
0.0
 11
2.450645
 21
6.331542999999999
 31
0.0
  0
LINE
  5
C8
330
B
100
AcDbEntity
 67
     1
  8
1
  6
Continuous
 62
    18
100
AcDbLine
 10
2.759951
 20
6.886252
 30
0.0
 11
2.759951
 21
6.88553
 31
0.0
  0
LINE
  5
C9
330
B
100
AcDbEntity
 67
     1
  8
1
  6
Continuous
 62
    18
100
AcDbLine
 10
5.509189
 20
3.809086
 30
0.0
 11
5.524291999999999
 21
3.809086
 31
0.0
  0
LINE
  5
CA
330
B
100
AcDbEntity
 67
     1
  8
1
  6
Continuous
 62
    18
100
AcDbLine
 10
2.842941
 20
6.616491
 30
0.0
 11
2.842941
 21
6.626386999999999
 31
0.0
  0
LINE
  5
CB
330
B
100
AcDbEntity
 67
     1
  8
1
  6
Continuous
 62
    18
100
AcDbLine
 10
6.044501
 20
3.809086
 30
0.0
 11
6.049189
 21
3.809086
 31
0.0
  0
LINE
  5
CC
330
B
100
AcDbEntity
 67
     1
  8
1
  6
Continuous
 62
    18
100
AcDbLine
 10
5.699292999999999
 20
3.809086
 30
0.0
 11
5.70398
 21
3.809086
 31
0.0
  0
LINE
  5
CD
330
B
100
AcDbEntity
 67
     1
  8
1
  6
Continuous
 62
    18
100
AcDbLine
 10
2.909950999999999
 20
6.798608999999999
 30
0.0
 11
2.909950999999999
 21
6.797178999999998
 31
0.0
  0
LINE
  5
CE
330
B
100
AcDbEntity
 67
     1
  8
1
  6
Continuous
 62
    18
100
AcDbLine
 10
2.707425999999999
 20
6.631542999999999
 30
0.0
 11
2.710502999999999
 21
6.631542999999999
 31
0.0
  0
LINE
  5
CF
330
B
100
AcDbEntity
 67
     1
  8
1
  6
Continuous
 62
    18
100
AcDbLine
 10
5.609240999999999
 20
3.961586
 30
0.0
 11
5.639241
 21
3.931586
 31
0.0
  0
LINE
  5
D0
330
B
100
AcDbEntity
 67
     1
  8
1
  6
Continuous
 62
    18
100
AcDbLine
 10
2.889950999999999
 20
6.836542999999998
 30
0.0
 11
2.909950999999999
 21
6.836542999999998
 31
0.0
  0
LINE
  5
D1
330
B
100
AcDbEntity
 67
     1
  8
1
  6
Continuous
 62
    18
100
AcDbLine
 10
2.625553
 20
6.641542999999999
 30
0.0
 11
2.625229999999999
 21
6.641542999999999
 31
0.0
  0
LINE
  5
D2
330
B
100
AcDbEntity
 67
     1
  8
1
  6
Continuous
 62
    18
100
AcDbLine
 10
6.054396999999999
 20
3.809086
 30
0.0
 11
6.044501
 21
3.809086
 31
0.0
  0
LINE
  5
D3
330
B
100
AcDbEntity
 67
     1
  8
1
  6
Continuous
 62
    18
100
AcDbLine
 10
5.296740999999999
 20
3.779085999999999
 30
0.0
 11
5.290041999999999
 21
3.779085999999999
 31
0.0
  0
LINE
  5
D4
330
B
100
AcDbEntity
 67
     1
  8
1
  6
Continuous
 62
    18
100
AcDbLine
 10
5.699292999999999
 20
3.809086
 30
0.0
 11
5.679501
 21
3.809086
 31
0.0
  0
LINE
  5
D5
330
B
100
AcDbEntity
 67
     1
  8
1
  6
Continuous
 62
    18
100
AcDbLine
 10
2.629256999999999
 20
6.631542999999999
 30
0.0
 11
2.632258
 21
6.631542999999999
 31
0.0
  0
LINE
  5
D6
330
B
100
AcDbEntity
 67
     1
  8
1
  6
Continuous
 62
    18
100
AcDbLine
 10
1.984579
 20
5.539043
 30
0.0
 11
2.013450999999999
 21
5.539043
 31
0.0
  0
LINE
  5
D7
330
B
100
AcDbEntity
 67
     1
  8
1
  6
Continuous
 62
    18
100
AcDbLine
 10
5.060042
 20
3.809086
 30
0.0
 11
5.066741
 21
3.809086
 31
0.0
  0
LINE
  5
D8
330
B
100
AcDbEntity
 67
     1
  8
1
  6
Continuous
 62
    18
100
AcDbLine
 10
2.634459
 20
6.491543
 30
0.0
 11
2.631136
 21
6.491543
 31
0.0
  0
LINE
  5
D9
330
B
100
AcDbEntity
 67
     1
  8
1
  6
Continuous
 62
    18
100
AcDbLine
 10
2.197899
 20
6.656594999999999
 30
0.0
 11
2.197899
 21
6.636802999999999
 31
0.0
  0
LINE
  5
DA
330
B
100
AcDbEntity
 67
     1
  8
1
  6
Continuous
 62
    18
100
AcDbLine
 10
4.919398999999999
 20
3.532473999999999
 30
0.0
 11
4.919398999999999
 21
3.657184999999999
 31
0.0
  0
LINE
  5
DB
330
B
100
AcDbEntity
 67
     1
  8
1
  6
Continuous
 62
    18
100
AcDbLine
 10
2.989950999999999
 20
6.996542999999999
 30
0.0
 11
2.089950999999999
 21
6.996542999999999
 31
0.0
  0
LINE
  5
DC
330
B
100
AcDbEntity
 67
     1
  8
1
  6
Continuous
 62
    18
100
AcDbLine
 10
2.404951
 20
6.631542999999999
 30
0.0
 11
2.375309999999999
 21
6.631542999999999
 31
0.0
  0
LINE
  5
DD
330
B
100
AcDbEntity
 67
     1
  8
1
  6
Continuous
 62
    18
100
AcDbLine
 10
2.997450999999999
 20
5.579043
 30
0.0
 11
2.997450999999999
 21
5.539043
 31
0.0
  0
LINE
  5
DE
330
B
100
AcDbEntity
 67
     1
  8
1
  6
Continuous
 62
    18
100
AcDbLine
 10
6.092541999999999
 20
3.809086
 30
0.0
 11
6.099241
 21
3.809086
 31
0.0
  0
LINE
  5
DF
330
B
100
AcDbEntity
 67
     1
  8
1
  6
Continuous
 62
    18
100
AcDbLine
 10
2.864212999999999
 20
4.053528
 30
0.0
 11
2.867385
 21
4.052969
 31
0.0
  0
LINE
  5
E0
330
B
100
AcDbEntity
 67
     1
  8
1
  6
Continuous
 62
    18
100
AcDbLine
 10
2.631136
 20
6.641542999999999
 30
0.0
 11
2.628309
 21
6.641542999999999
 31
0.0
  0
LINE
  5
E1
330
B
100
AcDbEntity
 67
     1
  8
1
  6
Continuous
 62
    18
100
AcDbLine
 10
1.755888999999999
 20
5.689042999999999
 30
0.0
 11
3.320012999999999
 21
5.689042999999999
 31
0.0
  0
LINE
  5
E2
330
B
100
AcDbEntity
 67
     1
  8
1
  6
Continuous
 62
    18
100
AcDbLine
 10
5.101086
 20
4.130454
 30
0.0
 11
4.86207
 21
4.138800999999999
 31
0.0
  0
LINE
  5
E3
330
B
100
AcDbEntity
 67
     1
  8
1
  6
Continuous
 62
    18
100
AcDbLine
 10
5.55398
 20
3.809086
 30
0.0
 11
5.548772
 21
3.809086
 31
0.0
  0
LINE
  5
E4
330
B
100
AcDbEntity
 67
     1
  8
1
  6
Continuous
 62
    18
100
AcDbLine
 10
2.707425999999999
 20
6.481543
 30
0.0
 11
2.710502999999999
 21
6.481543
 31
0.0
  0
LINE
  5
E5
330
B
100
AcDbEntity
 67
     1
  8
1
  6
Continuous
 62
    18
100
AcDbLine
 10
6.009241
 20
3.994086
 30
0.0
 11
5.966369
 21
4.154086
 31
0.0
  0
LINE
  5
E6
330
B
100
AcDbEntity
 67
     1
  8
1
  6
Continuous
 62
    18
100
AcDbLine
 10
2.114304999999999
 20
6.491491
 30
0.0
 11
2.109618
 21
6.506073999999999
 31
0.0
  0
LINE
  5
E7
330
B
100
AcDbEntity
 67
     1
  8
1
  6
Continuous
 62
    18
100
AcDbLine
 10
3.320012999999999
 20
5.689042999999999
 30
0.0
 11
3.318375
 21
5.876701
 31
0.0
  0
LINE
  5
E8
330
B
100
AcDbEntity
 67
     1
  8
1
  6
Continuous
 62
    18
100
AcDbLine
 10
2.469951
 20
6.796821999999999
 30
0.0
 11
2.469951
 21
6.796839999999999
 31
0.0
  0
LINE
  5
E9
330
B
100
AcDbEntity
 67
     1
  8
1
  6
Continuous
 62
    18
100
AcDbLine
 10
4.581739999999999
 20
3.913320999999999
 30
0.0
 11
4.581739999999999
 21
3.895939999999999
 31
0.0
  0
LINE
  5
EA
330
B
100
AcDbEntity
 67
     1
  8
1
  6
Continuous
 62
    18
100
AcDbLine
 10
2.185003
 20
7.031490999999999
 30
0.0
 11
2.185003
 21
7.046074
 31
0.0
  0
LINE
  5
EB
330
B
100
AcDbEntity
 67
     1
  8
1
  6
Continuous
 62
    18
100
AcDbLine
 10
3.087429999999999
 20
3.881137999999999
 30
0.0
 11
3.096089
 21
3.886137
 31
0.0
  0
LINE
  5
EC
330
B
100
AcDbEntity
 67
     1
  8
1
  6
Continuous
 62
    18
100
AcDbLine
 10
2.327822999999999
 20
6.711542999999998
 30
0.0
 11
2.327822999999999
 21
6.261542999999999
 31
0.0
  0
LINE
  5
ED
330
B
100
AcDbEntity
 67
     1
  8
1
  6
Continuous
 62
    18
100
AcDbLine
 10
2.159950999999999
 20
6.797178999999998
 30
0.0
 11
2.159950999999999
 21
6.796821999999999
 31
0.0
  0
LINE
  5
EE
330
B
100
AcDbEntity
 67
     1
  8
1
  6
Continuous
 62
    18
100
AcDbLine
 10
2.469951
 20
6.876183999999999
 30
0.0
 11
2.469951
 21
6.846542999999999
 31
0.0
  0
LINE
  5
EF
330
B
100
AcDbEntity
 67
     1
  8
1
  6
Continuous
 62
    18
100
AcDbLine
 10
2.031804999999999
 20
6.511281999999999
 30
0.0
 11
2.019305
 21
6.511281999999999
 31
0.0
  0
LINE
  5
F0
330
B
100
AcDbEntity
 67
     1
  8
1
  6
Continuous
 62
    18
100
AcDbLine
 10
1.755888999999999
 20
3.776835999999999
 30
0.0
 11
1.761547999999999
 21
3.776835999999999
 31
0.0
  0
LINE
  5
F1
330
B
100
AcDbEntity
 67
     1
  8
1
  6
Continuous
 62
    18
100
AcDbLine
 10
2.843835999999999
 20
3.874617999999999
 30
0.0
 11
2.875045999999999
 21
4.051618
 31
0.0
  0
LINE
  5
F2
330
B
100
AcDbEntity
 67
     1
  8
1
  6
Continuous
 62
    18
100
AcDbLine
 10
2.139950999999999
 20
6.846542999999999
 30
0.0
 11
2.139950999999999
 21
6.836542999999998
 31
0.0
  0
LINE
  5
F3
330
B
100
AcDbEntity
 67
     1
  8
1
  6
Continuous
 62
    18
100
AcDbLine
 10
4.73174
 20
3.820336
 30
0.0
 11
4.569241
 21
3.820336
 31
0.0
  0
LINE
  5
F4
330
B
100
AcDbEntity
 67
     1
  8
1
  6
Continuous
 62
    18
100
AcDbLine
 10
2.714653999999999
 20
6.341542999999999
 30
0.0
 11
2.713894999999999
 21
6.341542999999999
 31
0.0
  0
LINE
  5
F5
330
B
100
AcDbEntity
 67
     1
  8
1
  6
Continuous
 62
    18
100
AcDbLine
 10
2.744899
 20
7.031490999999999
 30
0.0
 11
2.744899
 21
7.041386999999999
 31
0.0
  0
LINE
  5
F6
330
B
100
AcDbEntity
 67
     1
  8
1
  6
Continuous
 62
    18
100
AcDbLine
 10
6.09398
 20
3.809086
 30
0.0
 11
6.044501
 21
3.809086
 31
0.0
  0
LINE
  5
F7
330
B
100
AcDbEntity
 67
     1
  8
1
  6
Continuous
 62
    18
100
AcDbLine
 10
2.132950999999999
 20
4.039336
 30
0.0
 11
2.133649
 21
4.038637999999999
 31
0.0
  0
LINE
  5
F8
330
B
100
AcDbEntity
 67
     1
  8
1
  6
Continuous
 62
    18
100
AcDbLine
 10
2.365229999999999
 20
6.491543
 30
0.0
 11
2.365247999999999
 21
6.491543
 31
0.0
  0
LINE
  5
F9
330
B
100
AcDbEntity
 67
     1
  8
1
  6
Continuous
 62
    18
100
AcDbLine
 10
2.319950999999999
 20
6.796821999999999
 30
0.0
 11
2.319950999999999
 21
6.796839999999999
 31
0.0
  0
LINE
  5
FA
330
B
100
AcDbEntity
 67
     1
  8
1
  6
Continuous
 62
    18
100
AcDbLine
 10
2.089825999999999
 20
6.511281999999999
 30
0.0
 11
2.07993
 21
6.506073999999999
 31
0.0
  0
LINE
  5
FB
330
B
100
AcDbEntity
 67
     1
  8
1
  6
Continuous
 62
    18
100
AcDbLine
 10
2.917210999999999
 20
6.611803999999999
 30
0.0
 11
2.917210999999999
 21
6.661283
 31
0.0
  0
LINE
  5
FC
330
B
100
AcDbEntity
 67
     1
  8
1
  6
Continuous
 62
    18
100
AcDbLine
 10
2.971813
 20
4.067534999999999
 30
0.0
 11
2.972215999999999
 21
4.066836
 31
0.0
  0
LINE
  5
FD
330
B
100
AcDbEntity
 67
     1
  8
1
  6
Continuous
 62
    18
100
AcDbLine
 10
2.919118
 20
7.005969999999999
 30
0.0
 11
2.914950999999999
 21
7.001802999999999
 31
0.0
  0
LINE
  5
FE
330
B
100
AcDbEntity
 67
     1
  8
1
  6
Continuous
 62
    18
100
AcDbLine
 10
3.316629
 20
4.172284999999999
 30
0.0
 11
3.316629
 21
4.138800999999999
 31
0.0
  0
LINE
  5
FF
330
B
100
AcDbEntity
 67
     1
  8
1
  6
Continuous
 62
    18
100
AcDbLine
 10
2.706288
 20
6.341542999999999
 30
0.0
 11
2.704591999999999
 21
6.341542999999999
 31
0.0
  0
LINE
  5
100
330
B
100
AcDbEntity
 67
     1
  8
1
  6
Continuous
 62
    18
100
AcDbLine
 10
2.414950999999999
 20
6.491543
 30
0.0
 11
2.414950999999999
 21
6.511542999999999
 31
0.0
  0
LINE
  5
101
330
B
100
AcDbEntity
 67
     1
  8
1
  6
Continuous
 62
    18
100
AcDbLine
 10
2.319950999999999
 20
6.876183999999999
 30
0.0
 11
2.319950999999999
 21
6.846542999999999
 31
0.0
  0
LINE
  5
102
330
B
100
AcDbEntity
 67
     1
  8
1
  6
Continuous
 62
    18
100
AcDbLine
 10
2.184482
 20
7.021594999999999
 30
0.0
 11
2.184482
 21
7.006491
 31
0.0
  0
LINE
  5
103
330
B
100
AcDbEntity
 67
     1
  8
1
  6
Continuous
 62
    18
100
AcDbLine
 10
2.055347
 20
6.511281999999999
 30
0.0
 11
2.065243
 21
6.511281999999999
 31
0.0
  0
LINE
  5
104
330
B
100
AcDbEntity
 67
     1
  8
1
  6
Continuous
 62
    18
100
AcDbLine
 10
3.320801
 20
3.823218
 30
0.0
 11
3.320801
 21
4.130454
 31
0.0
  0
LINE
  5
105
330
B
100
AcDbEntity
 67
     1
  8
1
  6
Continuous
 62
    18
100
AcDbLine
 10
2.631136
 20
6.341542999999999
 30
0.0
 11
2.628309
 21
6.341542999999999
 31
0.0
  0
LINE
  5
106
330
B
100
AcDbEntity
 67
     1
  8
1
  6
Continuous
 62
    18
100
AcDbLine
 10
2.414950999999999
 20
6.461542999999999
 30
0.0
 11
2.404951
 21
6.461542999999999
 31
0.0
  0
LINE
  5
107
330
B
100
AcDbEntity
 67
     1
  8
1
  6
Continuous
 62
    18
100
AcDbLine
 10
2.794950999999999
 20
6.711542999999998
 30
0.0
 11
2.752079
 21
6.711542999999998
 31
0.0
  0
LINE
  5
108
330
B
100
AcDbEntity
 67
     1
  8
1
  6
Continuous
 62
    18
100
AcDbLine
 10
2.121706999999999
 20
4.038637999999999
 30
0.0
 11
2.133649
 21
4.038637999999999
 31
0.0
  0
LINE
  5
109
330
B
100
AcDbEntity
 67
     1
  8
1
  6
Continuous
 62
    18
100
AcDbLine
 10
2.625241999999999
 20
6.331542999999999
 30
0.0
 11
2.625963
 21
6.331542999999999
 31
0.0
  0
LINE
  5
10A
330
B
100
AcDbEntity
 67
     1
  8
1
  6
Continuous
 62
    18
100
AcDbLine
 10
2.215831999999999
 20
5.526543
 30
0.0
 11
2.210656
 21
5.526543
 31
0.0
  0
LINE
  5
10B
330
B
100
AcDbEntity
 67
     1
  8
1
  6
Continuous
 62
    18
100
AcDbLine
 10
5.369241
 20
3.779085999999999
 30
0.0
 11
5.369241
 21
3.719085999999999
 31
0.0
  0
LINE
  5
10C
330
B
100
AcDbEntity
 67
     1
  8
1
  6
Continuous
 62
    18
100
AcDbLine
 10
2.980875
 20
3.881835999999999
 30
0.0
 11
2.972215999999999
 21
3.886834999999999
 31
0.0
  0
LINE
  5
10D
330
B
100
AcDbEntity
 67
     1
  8
1
  6
Continuous
 62
    18
100
AcDbLine
 10
5.304241
 20
3.809086
 30
0.0
 11
5.304241
 21
3.994086
 31
0.0
  0
LINE
  5
10E
330
B
100
AcDbEntity
 67
     1
  8
1
  6
Continuous
 62
    18
100
AcDbLine
 10
2.309865999999999
 20
3.817114
 30
0.0
 11
2.309865999999999
 21
3.809336
 31
0.0
  0
LINE
  5
10F
330
B
100
AcDbEntity
 67
     1
  8
1
  6
Continuous
 62
    18
100
AcDbLine
 10
2.619950999999999
 20
6.805206
 30
0.0
 11
2.619950999999999
 21
6.806902
 31
0.0
  0
LINE
  5
110
330
B
100
AcDbEntity
 67
     1
  8
1
  6
Continuous
 62
    18
100
AcDbLine
 10
1.930334
 20
3.981834999999999
 30
0.0
 11
1.931141
 21
3.981834999999999
 31
0.0
  0
LINE
  5
111
330
B
100
AcDbEntity
 67
     1
  8
1
  6
Continuous
 62
    18
100
AcDbLine
 10
2.369399
 20
6.331542999999999
 30
0.0
 11
2.367016999999999
 21
6.331542999999999
 31
0.0
  0
LINE
  5
112
330
B
100
AcDbEntity
 67
     1
  8
1
  6
Continuous
 62
    18
100
AcDbLine
 10
2.759951
 20
6.836542999999998
 30
0.0
 11
2.759951
 21
6.806902
 31
0.0
  0
LINE
  5
113
330
B
100
AcDbEntity
 67
     1
  8
1
  6
Continuous
 62
    18
100
AcDbLine
 10
2.227586
 20
6.336281999999999
 30
0.0
 11
2.238002999999999
 21
6.331595
 31
0.0
  0
LINE
  5
114
330
B
100
AcDbEntity
 67
     1
  8
1
  6
Continuous
 62
    18
100
AcDbLine
 10
2.121706999999999
 20
3.915033999999999
 30
0.0
 11
2.122109999999999
 21
3.914336
 31
0.0
  0
LINE
  5
115
330
B
100
AcDbEntity
 67
     1
  8
1
  6
Continuous
 62
    18
100
AcDbLine
 10
2.619950999999999
 20
6.880358
 30
0.0
 11
2.619950999999999
 21
6.883185
 31
0.0
  0
LINE
  5
116
330
B
100
AcDbEntity
 67
     1
  8
1
  6
Continuous
 62
    18
100
AcDbLine
 10
2.454349
 20
6.341542999999999
 30
0.0
 11
2.454671999999999
 21
6.341542999999999
 31
0.0
  0
LINE
  5
117
330
B
100
AcDbEntity
 67
     1
  8
1
  6
Continuous
 62
    18
100
AcDbLine
 10
2.769950999999999
 20
6.883185
 30
0.0
 11
2.769950999999999
 21
6.884564
 31
0.0
  0
LINE
  5
118
330
B
100
AcDbEntity
 67
     1
  8
1
  6
Continuous
 62
    18
100
AcDbLine
 10
6.064292
 20
3.809086
 30
0.0
 11
6.049189
 21
3.809086
 31
0.0
  0
LINE
  5
119
330
B
100
AcDbEntity
 67
     1
  8
1
  6
Continuous
 62
    18
100
AcDbLine
 10
6.089292999999999
 20
3.809086
 30
0.0
 11
6.074188999999999
 21
3.809086
 31
0.0
  0
LINE
  5
11A
330
B
100
AcDbEntity
 67
     1
  8
1
  6
Continuous
 62
    18
100
AcDbLine
 10
5.534187999999999
 20
3.809086
 30
0.0
 11
5.524291999999999
 21
3.809086
 31
0.0
  0
LINE
  5
11B
330
B
100
AcDbEntity
 67
     1
  8
1
  6
Continuous
 62
    18
100
AcDbLine
 10
2.450645
 20
6.331542999999999
 30
0.0
 11
2.447643999999999
 21
6.331542999999999
 31
0.0
  0
LINE
  5
11C
330
B
100
AcDbEntity
 67
     1
  8
1
  6
Continuous
 62
    18
100
AcDbLine
 10
2.759951
 20
6.88553
 30
0.0
 11
2.759951
 21
6.884564
 31
0.0
  0
LINE
  5
11D
330
B
100
AcDbEntity
 67
     1
  8
1
  6
Continuous
 62
    18
100
AcDbLine
 10
6.044501
 20
3.809086
 30
0.0
 11
6.054396999999999
 21
3.809086
 31
0.0
  0
LINE
  5
11E
330
B
100
AcDbEntity
 67
     1
  8
1
  6
Continuous
 62
    18
100
AcDbLine
 10
6.044501
 20
3.809086
 30
0.0
 11
6.09398
 21
3.809086
 31
0.0
  0
LINE
  5
11F
330
B
100
AcDbEntity
 67
     1
  8
1
  6
Continuous
 62
    18
100
AcDbLine
 10
2.909950999999999
 20
6.797178999999998
 30
0.0
 11
2.909950999999999
 21
6.796821999999999
 31
0.0
  0
LINE
  5
120
330
B
100
AcDbEntity
 67
     1
  8
1
  6
Continuous
 62
    18
100
AcDbLine
 10
2.710502999999999
 20
6.631542999999999
 30
0.0
 11
2.712884999999999
 21
6.631542999999999
 31
0.0
  0
LINE
  5
121
330
B
100
AcDbEntity
 67
     1
  8
1
  6
Continuous
 62
    18
100
AcDbLine
 10
5.599241
 20
3.851586
 30
0.0
 11
5.569241
 21
3.881586
 31
0.0
  0
LINE
  5
122
330
B
100
AcDbEntity
 67
     1
  8
1
  6
Continuous
 62
    18
100
AcDbLine
 10
5.504501
 20
3.809086
 30
0.0
 11
5.509189
 21
3.809086
 31
0.0
  0
LINE
  5
123
330
B
100
AcDbEntity
 67
     1
  8
1
  6
Continuous
 62
    18
100
AcDbLine
 10
2.889950999999999
 20
6.846542999999999
 30
0.0
 11
2.889950999999999
 21
6.836542999999998
 31
0.0
  0
LINE
  5
124
330
B
100
AcDbEntity
 67
     1
  8
1
  6
Continuous
 62
    18
100
AcDbLine
 10
5.290041999999999
 20
3.779085999999999
 30
0.0
 11
5.27174
 21
3.779085999999999
 31
0.0
  0
LINE
  5
125
330
B
100
AcDbEntity
 67
     1
  8
1
  6
Continuous
 62
    18
100
AcDbLine
 10
2.632258
 20
6.631542999999999
 30
0.0
 11
2.63531
 21
6.631542999999999
 31
0.0
  0
LINE
  5
126
330
B
100
AcDbEntity
 67
     1
  8
1
  6
Continuous
 62
    18
100
AcDbLine
 10
5.066741
 20
3.809086
 30
0.0
 11
5.073438999999999
 21
3.809086
 31
0.0
  0
LINE
  5
127
330
B
100
AcDbEntity
 67
     1
  8
1
  6
Continuous
 62
    18
100
AcDbLine
 10
5.534187999999999
 20
3.809086
 30
0.0
 11
5.504501
 21
3.809086
 31
0.0
  0
LINE
  5
128
330
B
100
AcDbEntity
 67
     1
  8
1
  6
Continuous
 62
    18
100
AcDbLine
 10
2.631136
 20
6.491543
 30
0.0
 11
2.628309
 21
6.491543
 31
0.0
  0
LINE
  5
129
330
B
100
AcDbEntity
 67
     1
  8
1
  6
Continuous
 62
    18
100
AcDbLine
 10
2.175107
 20
7.051282
 30
0.0
 11
2.154795
 21
7.051282
 31
0.0
  0
LINE
  5
12A
330
B
100
AcDbEntity
 67
     1
  8
1
  6
Continuous
 62
    18
100
AcDbLine
 10
4.73174
 20
3.530835999999999
 30
0.0
 11
4.818182
 21
3.53159
 31
0.0
  0
LINE
  5
12B
330
B
100
AcDbEntity
 67
     1
  8
1
  6
Continuous
 62
    18
100
AcDbLine
 10
2.989950999999999
 20
6.759414999999999
 30
0.0
 11
2.989950999999999
 21
6.716542999999999
 31
0.0
  0
LINE
  5
12C
330
B
100
AcDbEntity
 67
     1
  8
1
  6
Continuous
 62
    18
100
AcDbLine
 10
2.404951
 20
6.641542999999999
 30
0.0
 11
2.404951
 21
6.661542999999999
 31
0.0
  0
LINE
  5
12D
330
B
100
AcDbEntity
 67
     1
  8
1
  6
Continuous
 62
    18
100
AcDbLine
 10
5.346741
 20
3.809086
 30
0.0
 11
5.346741
 21
3.779085999999999
 31
0.0
  0
LINE
  5
12E
330
B
100
AcDbEntity
 67
     1
  8
1
  6
Continuous
 62
    18
100
AcDbLine
 10
1.832056
 20
5.876701
 30
0.0
 11
1.826284
 21
6.207389
 31
0.0
  0
LINE
  5
12F
330
B
100
AcDbEntity
 67
     1
  8
1
  6
Continuous
 62
    18
100
AcDbLine
 10
2.710502999999999
 20
6.481543
 30
0.0
 11
2.712884999999999
 21
6.481543
 31
0.0
  0
LINE
  5
130
330
B
100
AcDbEntity
 67
     1
  8
1
  6
Continuous
 62
    18
100
AcDbLine
 10
2.444591999999999
 20
6.631542999999999
 30
0.0
 11
2.414950999999999
 21
6.631542999999999
 31
0.0
  0
LINE
  5
131
330
B
100
AcDbEntity
 67
     1
  8
1
  6
Continuous
 62
    18
100
AcDbLine
 10
5.674292999999999
 20
3.809086
 30
0.0
 11
5.67898
 21
3.809086
 31
0.0
  0
LINE
  5
132
330
B
100
AcDbEntity
 67
     1
  8
1
  6
Continuous
 62
    18
100
AcDbLine
 10
5.819241
 20
3.819086
 30
0.0
 11
5.819241
 21
3.809086
 31
0.0
  0
LINE
  5
133
330
B
100
AcDbEntity
 67
     1
  8
1
  6
Continuous
 62
    18
100
AcDbLine
 10
2.595159
 20
7.016386999999999
 30
0.0
 11
2.635263
 21
7.041386999999999
 31
0.0
  0
LINE
  5
134
330
B
100
AcDbEntity
 67
     1
  8
1
  6
Continuous
 62
    18
100
AcDbLine
 10
1.757527
 20
5.876701
 30
0.0
 11
1.755888999999999
 21
5.689042999999999
 31
0.0
  0
LINE
  5
135
330
B
100
AcDbEntity
 67
     1
  8
1
  6
Continuous
 62
    18
100
AcDbLine
 10
4.966567999999999
 20
3.752320999999999
 30
0.0
 11
4.965416
 21
3.734086
 31
0.0
  0
LINE
  5
136
330
B
100
AcDbEntity
 67
     1
  8
1
  6
Continuous
 62
    18
100
AcDbLine
 10
2.469951
 20
6.796839999999999
 30
0.0
 11
2.469951
 21
6.797599
 31
0.0
  0
LINE
  5
137
330
B
100
AcDbEntity
 67
     1
  8
1
  6
Continuous
 62
    18
100
AcDbLine
 10
4.581739999999999
 20
3.895939999999999
 30
0.0
 11
4.581739999999999
 21
3.885724999999999
 31
0.0
  0
LINE
  5
138
330
B
100
AcDbEntity
 67
     1
  8
1
  6
Continuous
 62
    18
100
AcDbLine
 10
3.039450999999999
 20
3.917969
 30
0.0
 11
3.039450999999999
 21
3.885724999999999
 31
0.0
  0
LINE
  5
139
330
B
100
AcDbEntity
 67
     1
  8
1
  6
Continuous
 62
    18
100
AcDbLine
 10
3.087429999999999
 20
3.881137999999999
 30
0.0
 11
2.980472
 21
3.881137999999999
 31
0.0
  0
LINE
  5
13A
330
B
100
AcDbEntity
 67
     1
  8
1
  6
Continuous
 62
    18
100
AcDbLine
 10
2.284950999999999
 20
6.711542999999998
 30
0.0
 11
2.327822999999999
 21
6.711542999999998
 31
0.0
  0
LINE
  5
13B
330
B
100
AcDbEntity
 67
     1
  8
1
  6
Continuous
 62
    18
100
AcDbLine
 10
2.169950999999999
 20
6.836542999999998
 30
0.0
 11
2.189950999999999
 21
6.836542999999998
 31
0.0
  0
LINE
  5
13C
330
B
100
AcDbEntity
 67
     1
  8
1
  6
Continuous
 62
    18
100
AcDbLine
 10
2.469951
 20
6.846542999999999
 30
0.0
 11
2.489951
 21
6.846542999999999
 31
0.0
  0
LINE
  5
13D
330
B
100
AcDbEntity
 67
     1
  8
1
  6
Continuous
 62
    18
100
AcDbLine
 10
2.119499
 20
4.040842999999999
 30
0.0
 11
2.122109999999999
 21
4.039336
 31
0.0
  0
LINE
  5
13E
330
B
100
AcDbEntity
 67
     1
  8
1
  6
Continuous
 62
    18
100
AcDbLine
 10
2.775106999999999
 20
7.021594999999999
 30
0.0
 11
2.754795
 21
7.021594999999999
 31
0.0
  0
LINE
  5
13F
330
B
100
AcDbEntity
 67
     1
  8
1
  6
Continuous
 62
    18
100
AcDbLine
 10
2.942950999999999
 20
3.914336
 30
0.0
 11
2.942253
 21
3.915033999999999
 31
0.0
  0
LINE
  5
140
330
B
100
AcDbEntity
 67
     1
  8
1
  6
Continuous
 62
    18
100
AcDbLine
 10
2.139950999999999
 20
6.846542999999999
 30
0.0
 11
2.159950999999999
 21
6.846542999999999
 31
0.0
  0
LINE
  5
141
330
B
100
AcDbEntity
 67
     1
  8
1
  6
Continuous
 62
    18
100
AcDbLine
 10
4.569241
 20
3.820336
 30
0.0
 11
4.569241
 21
3.824436999999999
 31
0.0
  0
LINE
  5
142
330
B
100
AcDbEntity
 67
     1
  8
1
  6
Continuous
 62
    18
100
AcDbLine
 10
2.914950999999999
 20
7.001802999999999
 30
0.0
 11
2.914950999999999
 21
7.051282
 31
0.0
  0
LINE
  5
143
330
B
100
AcDbEntity
 67
     1
  8
1
  6
Continuous
 62
    18
100
AcDbLine
 10
2.207794999999999
 20
6.311803
 30
0.0
 11
2.197899
 21
6.316491
 31
0.0
  0
LINE
  5
144
330
B
100
AcDbEntity
 67
     1
  8
1
  6
Continuous
 62
    18
100
AcDbLine
 10
2.365247999999999
 20
6.491543
 30
0.0
 11
2.366006999999999
 21
6.491543
 31
0.0
  0
LINE
  5
145
330
B
100
AcDbEntity
 67
     1
  8
1
  6
Continuous
 62
    18
100
AcDbLine
 10
4.88374
 20
4.174085999999999
 30
0.0
 11
4.88374
 21
4.188069
 31
0.0
  0
LINE
  5
146
330
B
100
AcDbEntity
 67
     1
  8
1
  6
Continuous
 62
    18
100
AcDbLine
 10
2.851325999999999
 20
6.486282
 30
0.0
 11
2.841429999999999
 21
6.481594999999999
 31
0.0
  0
LINE
  5
147
330
B
100
AcDbEntity
 67
     1
  8
1
  6
Continuous
 62
    18
100
AcDbLine
 10
2.109618
 20
6.466491
 30
0.0
 11
2.114825999999999
 21
6.481594999999999
 31
0.0
  0
LINE
  5
148
330
B
100
AcDbEntity
 67
     1
  8
1
  6
Continuous
 62
    18
100
AcDbLine
 10
1.759272999999999
 20
4.172284999999999
 30
0.0
 11
1.759272999999999
 21
4.138800999999999
 31
0.0
  0
LINE
  5
149
330
B
100
AcDbEntity
 67
     1
  8
1
  6
Continuous
 62
    18
100
AcDbLine
 10
2.444591999999999
 20
6.491543
 30
0.0
 11
2.414950999999999
 21
6.491543
 31
0.0
  0
LINE
  5
14A
330
B
100
AcDbEntity
 67
     1
  8
1
  6
Continuous
 62
    18
100
AcDbLine
 10
2.319950999999999
 20
6.846542999999999
 30
0.0
 11
2.339950999999999
 21
6.846542999999999
 31
0.0
  0
LINE
  5
14B
330
B
100
AcDbEntity
 67
     1
  8
1
  6
Continuous
 62
    18
100
AcDbLine
 10
2.07993
 20
6.466491
 30
0.0
 11
2.089825999999999
 21
6.461802999999999
 31
0.0
  0
LINE
  5
14C
330
B
100
AcDbEntity
 67
     1
  8
1
  6
Continuous
 62
    18
100
AcDbLine
 10
2.207794999999999
 20
6.336281999999999
 30
0.0
 11
2.227586
 21
6.336281999999999
 31
0.0
  0
LINE
  5
14D
330
B
100
AcDbEntity
 67
     1
  8
1
  6
Continuous
 62
    18
100
AcDbLine
 10
3.316629
 20
4.172284999999999
 30
0.0
 11
3.314354
 21
4.176835999999999
 31
0.0
  0
LINE
  5
14E
330
B
100
AcDbEntity
 67
     1
  8
1
  6
Continuous
 62
    18
100
AcDbLine
 10
2.628309
 20
6.341542999999999
 30
0.0
 11
2.626929999999999
 21
6.341542999999999
 31
0.0
  0
LINE
  5
14F
330
B
100
AcDbEntity
 67
     1
  8
1
  6
Continuous
 62
    18
100
AcDbLine
 10
5.889241
 20
3.779085999999999
 30
0.0
 11
5.889241
 21
3.719085999999999
 31
0.0
  0
LINE
  5
150
330
B
100
AcDbEntity
 67
     1
  8
1
  6
Continuous
 62
    18
100
AcDbLine
 10
2.752079
 20
6.711542999999998
 30
0.0
 11
2.752079
 21
6.261542999999999
 31
0.0
  0
LINE
  5
151
330
B
100
AcDbEntity
 67
     1
  8
1
  6
Continuous
 62
    18
100
AcDbLine
 10
2.121706999999999
 20
4.038637999999999
 30
0.0
 11
2.119095999999999
 21
4.040144999999999
 31
0.0
  0
LINE
  5
152
330
B
100
AcDbEntity
 67
     1
  8
1
  6
Continuous
 62
    18
100
AcDbLine
 10
2.625963
 20
6.331542999999999
 30
0.0
 11
2.626929999999999
 21
6.331542999999999
 31
0.0
  0
LINE
  5
153
330
B
100
AcDbEntity
 67
     1
  8
1
  6
Continuous
 62
    18
100
AcDbLine
 10
2.865245999999999
 20
5.526543
 30
0.0
 11
2.860069999999999
 21
5.526543
 31
0.0
  0
LINE
  5
154
330
B
100
AcDbEntity
 67
     1
  8
1
  6
Continuous
 62
    18
100
AcDbLine
 10
2.980875
 20
3.881835999999999
 30
0.0
 11
3.087026999999999
 21
3.881835999999999
 31
0.0
  0
LINE
  5
155
330
B
100
AcDbEntity
 67
     1
  8
1
  6
Continuous
 62
    18
100
AcDbLine
 10
5.754241
 20
3.809086
 30
0.0
 11
5.754241
 21
3.994086
 31
0.0
  0
LINE
  5
156
330
B
100
AcDbEntity
 67
     1
  8
1
  6
Continuous
 62
    18
100
AcDbLine
 10
2.232066
 20
3.874617999999999
 30
0.0
 11
2.239725999999999
 21
3.875967999999999
 31
0.0
  0
LINE
  5
157
330
B
100
AcDbEntity
 67
     1
  8
1
  6
Continuous
 62
    18
100
AcDbLine
 10
2.609950999999999
 20
6.836542999999998
 30
0.0
 11
2.609950999999999
 21
6.806902
 31
0.0
  0
LINE
  5
158
330
B
100
AcDbEntity
 67
     1
  8
1
  6
Continuous
 62
    18
100
AcDbLine
 10
1.980216
 20
4.066836
 30
0.0
 11
1.979813
 21
4.067534999999999
 31
0.0
  0
LINE
  5
159
330
B
100
AcDbEntity
 67
     1
  8
1
  6
Continuous
 62
    18
100
AcDbLine
 10
2.367016999999999
 20
6.331542999999999
 30
0.0
 11
2.365587
 21
6.331542999999999
 31
0.0
  0
LINE
  5
15A
330
B
100
AcDbEntity
 67
     1
  8
1
  6
Continuous
 62
    18
100
AcDbLine
 10
2.759951
 20
6.806902
 30
0.0
 11
2.759951
 21
6.804067999999999
 31
0.0
  0
LINE
  5
15B
330
B
100
AcDbEntity
 67
     1
  8
1
  6
Continuous
 62
    18
100
AcDbLine
 10
5.669084999999999
 20
3.809086
 30
0.0
 11
5.694083999999999
 21
3.809086
 31
0.0
  0
LINE
  5
15C
330
B
100
AcDbEntity
 67
     1
  8
1
  6
Continuous
 62
    18
100
AcDbLine
 10
2.587822999999999
 20
6.261542999999999
 30
0.0
 11
2.544950999999999
 21
6.261542999999999
 31
0.0
  0
LINE
  5
15D
330
B
100
AcDbEntity
 67
     1
  8
1
  6
Continuous
 62
    18
100
AcDbLine
 10
2.122109999999999
 20
4.039336
 30
0.0
 11
2.121706999999999
 21
4.038637999999999
 31
0.0
  0
LINE
  5
15E
330
B
100
AcDbEntity
 67
     1
  8
1
  6
Continuous
 62
    18
100
AcDbLine
 10
2.619950999999999
 20
6.883185
 30
0.0
 11
2.619950999999999
 21
6.884564
 31
0.0
  0
LINE
  5
15F
330
B
100
AcDbEntity
 67
     1
  8
1
  6
Continuous
 62
    18
100
AcDbLine
 10
2.769950999999999
 20
6.884564
 30
0.0
 11
2.769950999999999
 21
6.885941
 31
0.0
  0
LINE
  5
160
330
B
100
AcDbEntity
 67
     1
  8
1
  6
Continuous
 62
    18
100
AcDbLine
 10
2.609950999999999
 20
6.882236999999999
 30
0.0
 11
2.609950999999999
 21
6.879235
 31
0.0
  0
LINE
  5
161
330
B
100
AcDbEntity
 67
     1
  8
1
  6
Continuous
 62
    18
100
AcDbLine
 10
5.524291999999999
 20
3.809086
 30
0.0
 11
5.509189
 21
3.809086
 31
0.0
  0
LINE
  5
162
330
B
100
AcDbEntity
 67
     1
  8
1
  6
Continuous
 62
    18
100
AcDbLine
 10
2.447643999999999
 20
6.331542999999999
 30
0.0
 11
2.444591999999999
 21
6.331542999999999
 31
0.0
  0
LINE
  5
163
330
B
100
AcDbEntity
 67
     1
  8
1
  6
Continuous
 62
    18
100
AcDbLine
 10
2.759951
 20
6.884564
 30
0.0
 11
2.759951
 21
6.882236999999999
 31
0.0
  0
LINE
  5
164
330
B
100
AcDbEntity
 67
     1
  8
1
  6
Continuous
 62
    18
100
AcDbLine
 10
5.339241
 20
3.931586
 30
0.0
 11
5.41924
 21
3.931586
 31
0.0
  0
LINE
  5
165
330
B
100
AcDbEntity
 67
     1
  8
1
  6
Continuous
 62
    18
100
AcDbLine
 10
5.504501
 20
3.809086
 30
0.0
 11
5.55398
 21
3.809086
 31
0.0
  0
LINE
  5
166
330
B
100
AcDbEntity
 67
     1
  8
1
  6
Continuous
 62
    18
100
AcDbLine
 10
6.084084999999999
 20
3.809086
 30
0.0
 11
6.09398
 21
3.809086
 31
0.0
  0
LINE
  5
167
330
B
100
AcDbEntity
 67
     1
  8
1
  6
Continuous
 62
    18
100
AcDbLine
 10
2.919950999999999
 20
6.836542999999998
 30
0.0
 11
2.939950999999999
 21
6.836542999999998
 31
0.0
  0
LINE
  5
168
330
B
100
AcDbEntity
 67
     1
  8
1
  6
Continuous
 62
    18
100
AcDbLine
 10
2.712884999999999
 20
6.631542999999999
 30
0.0
 11
2.714315
 21
6.631542999999999
 31
0.0
  0
LINE
  5
169
330
B
100
AcDbEntity
 67
     1
  8
1
  6
Continuous
 62
    18
100
AcDbLine
 10
5.569241
 20
3.931586
 30
0.0
 11
5.599241
 21
3.961586
 31
0.0
  0
LINE
  5
16A
330
B
100
AcDbEntity
 67
     1
  8
1
  6
Continuous
 62
    18
100
AcDbLine
 10
2.754795
 20
7.001802999999999
 30
0.0
 11
2.744899
 21
7.011699
 31
0.0
  0
LINE
  5
16B
330
B
100
AcDbEntity
 67
     1
  8
1
  6
Continuous
 62
    18
100
AcDbLine
 10
3.095685
 20
4.066836
 30
0.0
 11
3.096089
 21
4.067534999999999
 31
0.0
  0
LINE
  5
16C
330
B
100
AcDbEntity
 67
     1
  8
1
  6
Continuous
 62
    18
100
AcDbLine
 10
2.278656
 20
5.526543
 30
0.0
 11
2.797245999999999
 21
5.526543
 31
0.0
  0
LINE
  5
16D
330
B
100
AcDbEntity
 67
     1
  8
1
  6
Continuous
 62
    18
100
AcDbLine
 10
2.889950999999999
 20
6.846542999999999
 30
0.0
 11
2.909950999999999
 21
6.846542999999999
 31
0.0
  0
LINE
  5
16E
330
B
100
AcDbEntity
 67
     1
  8
1
  6
Continuous
 62
    18
100
AcDbLine
 10
2.674950999999999
 20
6.611542999999999
 30
0.0
 11
2.674950999999999
 21
6.631542999999999
 31
0.0
  0
LINE
  5
16F
330
B
100
AcDbEntity
 67
     1
  8
1
  6
Continuous
 62
    18
100
AcDbLine
 10
2.609950999999999
 20
6.886252
 30
0.0
 11
2.609950999999999
 21
6.88553
 31
0.0
  0
LINE
  5
170
330
B
100
AcDbEntity
 67
     1
  8
1
  6
Continuous
 62
    18
100
AcDbLine
 10
5.27174
 20
3.779085999999999
 30
0.0
 11
5.246739999999999
 21
3.779085999999999
 31
0.0
  0
LINE
  5
171
330
B
100
AcDbEntity
 67
     1
  8
1
  6
Continuous
 62
    18
100
AcDbLine
 10
5.40398
 20
3.809086
 30
0.0
 11
5.398772
 21
3.809086
 31
0.0
  0
LINE
  5
172
330
B
100
AcDbEntity
 67
     1
  8
1
  6
Continuous
 62
    18
100
AcDbLine
 10
2.404951
 20
6.641542999999999
 30
0.0
 11
2.375309999999999
 21
6.641542999999999
 31
0.0
  0
LINE
  5
173
330
B
100
AcDbEntity
 67
     1
  8
1
  6
Continuous
 62
    18
100
AcDbLine
 10
5.073438999999999
 20
3.809086
 30
0.0
 11
5.091741
 21
3.809086
 31
0.0
  0
LINE
  5
174
330
B
100
AcDbEntity
 67
     1
  8
1
  6
Continuous
 62
    18
100
AcDbLine
 10
2.628309
 20
6.491543
 30
0.0
 11
2.626929999999999
 21
6.491543
 31
0.0
  0
LINE
  5
175
330
B
100
AcDbEntity
 67
     1
  8
1
  6
Continuous
 62
    18
100
AcDbLine
 10
2.971813
 20
3.886137
 30
0.0
 11
2.962848
 21
3.901666
 31
0.0
  0
LINE
  5
176
330
B
100
AcDbEntity
 67
     1
  8
1
  6
Continuous
 62
    18
100
AcDbLine
 10
2.634741999999999
 20
7.051282
 30
0.0
 11
2.595159
 21
7.051282
 31
0.0
  0
LINE
  5
177
330
B
100
AcDbEntity
 67
     1
  8
1
  6
Continuous
 62
    18
100
AcDbLine
 10
4.818182
 20
3.53159
 30
0.0
 11
4.818182
 21
3.656301999999999
 31
0.0
  0
LINE
  5
178
330
B
100
AcDbEntity
 67
     1
  8
1
  6
Continuous
 62
    18
100
AcDbLine
 10
2.989950999999999
 20
6.966542999999999
 30
0.0
 11
2.089950999999999
 21
6.966542999999999
 31
0.0
  0
LINE
  5
179
330
B
100
AcDbEntity
 67
     1
  8
1
  6
Continuous
 62
    18
100
AcDbLine
 10
2.414950999999999
 20
6.661542999999999
 30
0.0
 11
2.404951
 21
6.661542999999999
 31
0.0
  0
LINE
  5
17A
330
B
100
AcDbEntity
 67
     1
  8
1
  6
Continuous
 62
    18
100
AcDbLine
 10
5.398772
 20
3.809086
 30
0.0
 11
5.384189
 21
3.809086
 31
0.0
  0
LINE
  5
17B
330
B
100
AcDbEntity
 67
     1
  8
1
  6
Continuous
 62
    18
100
AcDbLine
 10
3.018450999999999
 20
5.579043
 30
0.0
 11
2.997450999999999
 21
5.579043
 31
0.0
  0
LINE
  5
17C
330
B
100
AcDbEntity
 67
     1
  8
1
  6
Continuous
 62
    18
100
AcDbLine
 10
6.049241
 20
3.779085999999999
 30
0.0
 11
6.049241
 21
3.809086
 31
0.0
  0
LINE
  5
17D
330
B
100
AcDbEntity
 67
     1
  8
1
  6
Continuous
 62
    18
100
AcDbLine
 10
2.833002999999999
 20
3.876528
 30
0.0
 11
2.836174999999999
 21
3.875967999999999
 31
0.0
  0
LINE
  5
17E
330
B
100
AcDbEntity
 67
     1
  8
1
  6
Continuous
 62
    18
100
AcDbLine
 10
2.159950999999999
 20
6.886263999999999
 30
0.0
 11
2.159950999999999
 21
6.886252
 31
0.0
  0
LINE
  5
17F
330
B
100
AcDbEntity
 67
     1
  8
1
  6
Continuous
 62
    18
100
AcDbLine
 10
3.243846
 20
5.876701
 30
0.0
 11
3.249617999999999
 21
6.207389
 31
0.0
  0
LINE
  5
180
330
B
100
AcDbEntity
 67
     1
  8
1
  6
Continuous
 62
    18
100
AcDbLine
 10
2.712884999999999
 20
6.481543
 30
0.0
 11
2.714315
 21
6.481543
 31
0.0
  0
LINE
  5
181
330
B
100
AcDbEntity
 67
     1
  8
1
  6
Continuous
 62
    18
100
AcDbLine
 10
2.414950999999999
 20
6.611542999999999
 30
0.0
 11
2.414950999999999
 21
6.631542999999999
 31
0.0
  0
LINE
  5
182
330
B
100
AcDbEntity
 67
     1
  8
1
  6
Continuous
 62
    18
100
AcDbLine
 10
5.979239999999999
 20
3.819086
 30
0.0
 11
5.819241
 21
3.819086
 31
0.0
  0
LINE
  5
183
330
B
100
AcDbEntity
 67
     1
  8
1
  6
Continuous
 62
    18
100
AcDbLine
 10
2.942950999999999
 20
4.172836
 30
0.0
 11
2.942950999999999
 21
4.039336
 31
0.0
  0
LINE
  5
184
330
B
100
AcDbEntity
 67
     1
  8
1
  6
Continuous
 62
    18
100
AcDbLine
 10
2.169950999999999
 20
6.836542999999998
 30
0.0
 11
2.169950999999999
 21
6.806902
 31
0.0
  0
LINE
  5
185
330
B
100
AcDbEntity
 67
     1
  8
1
  6
Continuous
 62
    18
100
AcDbLine
 10
4.966801999999999
 20
3.734086
 30
0.0
 11
4.965416
 21
3.734086
 31
0.0
  0
LINE
  5
186
330
B
100
AcDbEntity
 67
     1
  8
1
  6
Continuous
 62
    18
100
AcDbLine
 10
5.558667999999999
 20
3.809086
 30
0.0
 11
5.563876
 21
3.809086
 31
0.0
  0
LINE
  5
187
330
B
100
AcDbEntity
 67
     1
  8
1
  6
Continuous
 62
    18
100
AcDbLine
 10
2.469951
 20
6.797599
 30
0.0
 11
2.469951
 21
6.799389999999999
 31
0.0
  0
LINE
  5
188
330
B
100
AcDbEntity
 67
     1
  8
1
  6
Continuous
 62
    18
100
AcDbLine
 10
4.581739999999999
 20
4.067947
 30
0.0
 11
4.621739999999999
 21
4.067947
 31
0.0
  0
LINE
  5
189
330
B
100
AcDbEntity
 67
     1
  8
1
  6
Continuous
 62
    18
100
AcDbLine
 10
2.971813
 20
3.886137
 30
0.0
 11
2.980472
 21
3.881137999999999
 31
0.0
  0
LINE
  5
18A
330
B
100
AcDbEntity
 67
     1
  8
1
  6
Continuous
 62
    18
100
AcDbLine
 10
2.284950999999999
 20
6.711542999999998
 30
0.0
 11
2.284950999999999
 21
6.261542999999999
 31
0.0
  0
LINE
  5
18B
330
B
100
AcDbEntity
 67
     1
  8
1
  6
Continuous
 62
    18
100
AcDbLine
 10
5.000821
 20
3.761201
 30
0.0
 11
4.999198
 21
3.751644
 31
0.0
  0
LINE
  5
18C
330
B
100
AcDbEntity
 67
     1
  8
1
  6
Continuous
 62
    18
100
AcDbLine
 10
2.489951
 20
6.846542999999999
 30
0.0
 11
2.489951
 21
6.836542999999998
 31
0.0
  0
LINE
  5
18D
330
B
100
AcDbEntity
 67
     1
  8
1
  6
Continuous
 62
    18
100
AcDbLine
 10
2.921200999999999
 20
7.051282
 30
0.0
 11
2.908700999999999
 21
7.051282
 31
0.0
  0
LINE
  5
18E
330
B
100
AcDbEntity
 67
     1
  8
1
  6
Continuous
 62
    18
100
AcDbLine
 10
5.909241
 20
3.719085999999999
 30
0.0
 11
5.909241
 21
3.779085999999999
 31
0.0
  0
LINE
  5
18F
330
B
100
AcDbEntity
 67
     1
  8
1
  6
Continuous
 62
    18
100
AcDbLine
 10
2.942253
 20
3.915033999999999
 30
0.0
 11
2.942253
 21
3.922651
 31
0.0
  0
LINE
  5
190
330
B
100
AcDbEntity
 67
     1
  8
1
  6
Continuous
 62
    18
100
AcDbLine
 10
2.130951
 20
6.074042999999999
 30
0.0
 11
2.130951
 21
6.204043
 31
0.0
  0
LINE
  5
191
330
B
100
AcDbEntity
 67
     1
  8
1
  6
Continuous
 62
    18
100
AcDbLine
 10
2.159950999999999
 20
6.876183999999999
 30
0.0
 11
2.159950999999999
 21
6.846542999999999
 31
0.0
  0
LINE
  5
192
330
B
100
AcDbEntity
 67
     1
  8
1
  6
Continuous
 62
    18
100
AcDbLine
 10
4.569241
 20
3.824436999999999
 30
0.0
 11
4.569241
 21
3.836244999999999
 31
0.0
  0
LINE
  5
193
330
B
100
AcDbEntity
 67
     1
  8
1
  6
Continuous
 62
    18
100
AcDbLine
 10
2.065243
 20
6.501387
 30
0.0
 11
2.055347
 21
6.501387
 31
0.0
  0
LINE
  5
194
330
B
100
AcDbEntity
 67
     1
  8
1
  6
Continuous
 62
    18
100
AcDbLine
 10
6.06898
 20
3.809086
 30
0.0
 11
6.064292
 21
3.809086
 31
0.0
  0
LINE
  5
195
330
B
100
AcDbEntity
 67
     1
  8
1
  6
Continuous
 62
    18
100
AcDbLine
 10
2.912950999999999
 20
4.201526999999999
 30
0.0
 11
2.162950999999999
 21
4.201526999999999
 31
0.0
  0
LINE
  5
196
330
B
100
AcDbEntity
 67
     1
  8
1
  6
Continuous
 62
    18
100
AcDbLine
 10
2.366006999999999
 20
6.491543
 30
0.0
 11
2.367798
 21
6.491543
 31
0.0
  0
LINE
  5
197
330
B
100
AcDbEntity
 67
     1
  8
1
  6
Continuous
 62
    18
100
AcDbLine
 10
4.88374
 20
4.188069
 30
0.0
 11
4.88374
 21
4.200936
 31
0.0
  0
LINE
  5
198
330
B
100
AcDbEntity
 67
     1
  8
1
  6
Continuous
 62
    18
100
AcDbLine
 10
2.319950999999999
 20
6.797599
 30
0.0
 11
2.319950999999999
 21
6.799389999999999
 31
0.0
  0
LINE
  5
199
330
B
100
AcDbEntity
 67
     1
  8
1
  6
Continuous
 62
    18
100
AcDbLine
 10
2.144899
 20
7.031490999999999
 30
0.0
 11
2.154795
 21
7.026282000000001
 31
0.0
  0
LINE
  5
19A
330
B
100
AcDbEntity
 67
     1
  8
1
  6
Continuous
 62
    18
100
AcDbLine
 10
2.07993
 20
6.506073999999999
 30
0.0
 11
2.074721999999999
 21
6.491491
 31
0.0
  0
LINE
  5
19B
330
B
100
AcDbEntity
 67
     1
  8
1
  6
Continuous
 62
    18
100
AcDbLine
 10
2.154795
 20
7.026282000000001
 30
0.0
 11
2.175107
 21
7.026282000000001
 31
0.0
  0
LINE
  5
19C
330
B
100
AcDbEntity
 67
     1
  8
1
  6
Continuous
 62
    18
100
AcDbLine
 10
1.759272999999999
 20
4.172284999999999
 30
0.0
 11
1.757027
 21
4.172284999999999
 31
0.0
  0
LINE
  5
19D
330
B
100
AcDbEntity
 67
     1
  8
1
  6
Continuous
 62
    18
100
AcDbLine
 10
2.339950999999999
 20
6.846542999999999
 30
0.0
 11
2.339950999999999
 21
6.836542999999998
 31
0.0
  0
LINE
  5
19E
330
B
100
AcDbEntity
 67
     1
  8
1
  6
Continuous
 62
    18
100
AcDbLine
 10
2.842159
 20
6.342272
 30
0.0
 11
2.881743
 21
6.342272
 31
0.0
  0
LINE
  5
19F
330
B
100
AcDbEntity
 67
     1
  8
1
  6
Continuous
 62
    18
100
AcDbLine
 10
2.841429999999999
 20
6.466491
 30
0.0
 11
2.851325999999999
 21
6.461802999999999
 31
0.0
  0
LINE
  5
1A0
330
B
100
AcDbEntity
 67
     1
  8
1
  6
Continuous
 62
    18
100
AcDbLine
 10
4.905663999999999
 20
3.779085999999999
 30
0.0
 11
4.904234999999999
 21
3.770980999999999
 31
0.0
  0
LINE
  5
1A1
330
B
100
AcDbEntity
 67
     1
  8
1
  6
Continuous
 62
    18
100
AcDbLine
 10
3.316629
 20
3.781387
 30
0.0
 11
3.314354
 21
3.776835999999999
 31
0.0
  0
LINE
  5
1A2
330
B
100
AcDbEntity
 67
     1
  8
1
  6
Continuous
 62
    18
100
AcDbLine
 10
2.626929999999999
 20
6.341542999999999
 30
0.0
 11
2.625553
 21
6.341542999999999
 31
0.0
  0
LINE
  5
1A3
330
B
100
AcDbEntity
 67
     1
  8
1
  6
Continuous
 62
    18
100
AcDbLine
 10
2.148992999999999
 20
6.461802999999999
 30
0.0
 11
2.148992999999999
 21
6.511281999999999
 31
0.0
  0
LINE
  5
1A4
330
B
100
AcDbEntity
 67
     1
  8
1
  6
Continuous
 62
    18
100
AcDbLine
 10
5.74924
 20
3.961586
 30
0.0
 11
5.609240999999999
 21
3.961586
 31
0.0
  0
LINE
  5
1A5
330
B
100
AcDbEntity
 67
     1
  8
1
  6
Continuous
 62
    18
100
AcDbLine
 10
2.794950999999999
 20
6.261542999999999
 30
0.0
 11
2.824951
 21
6.261542999999999
 31
0.0
  0
LINE
  5
1A6
330
B
100
AcDbEntity
 67
     1
  8
1
  6
Continuous
 62
    18
100
AcDbLine
 10
2.625229999999999
 20
6.481543
 30
0.0
 11
2.625241999999999
 21
6.481543
 31
0.0
  0
LINE
  5
1A7
330
B
100
AcDbEntity
 67
     1
  8
1
  6
Continuous
 62
    18
100
AcDbLine
 10
2.103686
 20
4.066836
 30
0.0
 11
2.119095999999999
 21
4.040144999999999
 31
0.0
  0
LINE
  5
1A8
330
B
100
AcDbEntity
 67
     1
  8
1
  6
Continuous
 62
    18
100
AcDbLine
 10
2.626929999999999
 20
6.331542999999999
 30
0.0
 11
2.629256999999999
 21
6.331542999999999
 31
0.0
  0
LINE
  5
1A9
330
B
100
AcDbEntity
 67
     1
  8
1
  6
Continuous
 62
    18
100
AcDbLine
 10
2.860069999999999
 20
5.526543
 30
0.0
 11
2.845328999999999
 21
5.526543
 31
0.0
  0
LINE
  5
1AA
330
B
100
AcDbEntity
 67
     1
  8
1
  6
Continuous
 62
    18
100
AcDbLine
 10
3.095685
 20
3.886834999999999
 30
0.0
 11
3.087026999999999
 21
3.881835999999999
 31
0.0
  0
LINE
  5
1AB
330
B
100
AcDbEntity
 67
     1
  8
1
  6
Continuous
 62
    18
100
AcDbLine
 10
5.309239999999999
 20
3.961586
 30
0.0
 11
5.309239999999999
 21
3.851586
 31
0.0
  0
LINE
  5
1AC
330
B
100
AcDbEntity
 67
     1
  8
1
  6
Continuous
 62
    18
100
AcDbLine
 10
2.239725999999999
 20
3.875967999999999
 30
0.0
 11
2.242898999999999
 21
3.876528
 31
0.0
  0
LINE
  5
1AD
330
B
100
AcDbEntity
 67
     1
  8
1
  6
Continuous
 62
    18
100
AcDbLine
 10
2.609950999999999
 20
6.806902
 30
0.0
 11
2.609950999999999
 21
6.804067999999999
 31
0.0
  0
LINE
  5
1AE
330
B
100
AcDbEntity
 67
     1
  8
1
  6
Continuous
 62
    18
100
AcDbLine
 10
1.988471999999999
 20
4.072533999999999
 30
0.0
 11
1.988874999999999
 21
4.071836
 31
0.0
  0
LINE
  5
1AF
330
B
100
AcDbEntity
 67
     1
  8
1
  6
Continuous
 62
    18
100
AcDbLine
 10
2.365587
 20
6.331542999999999
 30
0.0
 11
2.365229999999999
 21
6.331542999999999
 31
0.0
  0
LINE
  5
1B0
330
B
100
AcDbEntity
 67
     1
  8
1
  6
Continuous
 62
    18
100
AcDbLine
 10
2.759951
 20
6.804067999999999
 30
0.0
 11
2.759951
 21
6.800991999999999
 31
0.0
  0
LINE
  5
1B1
330
B
100
AcDbEntity
 67
     1
  8
1
  6
Continuous
 62
    18
100
AcDbLine
 10
2.754795
 20
7.051282
 30
0.0
 11
2.775106999999999
 21
7.051282
 31
0.0
  0
LINE
  5
1B2
330
B
100
AcDbEntity
 67
     1
  8
1
  6
Continuous
 62
    18
100
AcDbLine
 10
2.200855999999999
 20
4.051618
 30
0.0
 11
2.232066
 21
3.874617999999999
 31
0.0
  0
LINE
  5
1B3
330
B
100
AcDbEntity
 67
     1
  8
1
  6
Continuous
 62
    18
100
AcDbLine
 10
2.404951
 20
6.311543
 30
0.0
 11
2.404951
 21
6.331542999999999
 31
0.0
  0
LINE
  5
1B4
330
B
100
AcDbEntity
 67
     1
  8
1
  6
Continuous
 62
    18
100
AcDbLine
 10
2.769950999999999
 20
6.885941
 30
0.0
 11
2.769950999999999
 21
6.886263999999999
 31
0.0
  0
LINE
  5
1B5
330
B
100
AcDbEntity
 67
     1
  8
1
  6
Continuous
 62
    18
100
AcDbLine
 10
2.178783999999999
 20
6.501387
 30
0.0
 11
2.178783999999999
 21
6.515969999999999
 31
0.0
  0
LINE
  5
1B6
330
B
100
AcDbEntity
 67
     1
  8
1
  6
Continuous
 62
    18
100
AcDbLine
 10
6.049189
 20
3.809086
 30
0.0
 11
6.044501
 21
3.809086
 31
0.0
  0
LINE
  5
1B7
330
B
100
AcDbEntity
 67
     1
  8
1
  6
Continuous
 62
    18
100
AcDbLine
 10
2.919950999999999
 20
6.836542999999998
 30
0.0
 11
2.919950999999999
 21
6.806902
 31
0.0
  0
LINE
  5
1B8
330
B
100
AcDbEntity
 67
     1
  8
1
  6
Continuous
 62
    18
100
AcDbLine
 10
2.759951
 20
6.882236999999999
 30
0.0
 11
2.759951
 21
6.879235
 31
0.0
  0
LINE
  5
1B9
330
B
100
AcDbEntity
 67
     1
  8
1
  6
Continuous
 62
    18
100
AcDbLine
 10
5.519239999999999
 20
3.719085999999999
 30
0.0
 11
5.524239999999999
 21
3.719085999999999
 31
0.0
  0
LINE
  5
1BA
330
B
100
AcDbEntity
 67
     1
  8
1
  6
Continuous
 62
    18
100
AcDbLine
 10
5.38497
 20
3.809086
 30
0.0
 11
5.355281999999999
 21
3.809086
 31
0.0
  0
LINE
  5
1BB
330
B
100
AcDbEntity
 67
     1
  8
1
  6
Continuous
 62
    18
100
AcDbLine
 10
2.714315
 20
6.631542999999999
 30
0.0
 11
2.714672
 21
6.631542999999999
 31
0.0
  0
LINE
  5
1BC
330
B
100
AcDbEntity
 67
     1
  8
1
  6
Continuous
 62
    18
100
AcDbLine
 10
2.454671999999999
 20
6.481543
 30
0.0
 11
2.45466
 21
6.481543
 31
0.0
  0
LINE
  5
1BD
330
B
100
AcDbEntity
 67
     1
  8
1
  6
Continuous
 62
    18
100
AcDbLine
 10
5.449241
 20
3.851586
 30
0.0
 11
5.41924
 21
3.881586
 31
0.0
  0
LINE
  5
1BE
330
B
100
AcDbEntity
 67
     1
  8
1
  6
Continuous
 62
    18
100
AcDbLine
 10
3.145566999999999
 20
3.981834999999999
 30
0.0
 11
3.144760999999999
 21
3.981834999999999
 31
0.0
  0
LINE
  5
1BF
330
B
100
AcDbEntity
 67
     1
  8
1
  6
Continuous
 62
    18
100
AcDbLine
 10
2.909950999999999
 20
6.876183999999999
 30
0.0
 11
2.909950999999999
 21
6.846542999999999
 31
0.0
  0
LINE
  5
1C0
330
B
100
AcDbEntity
 67
     1
  8
1
  6
Continuous
 62
    18
100
AcDbLine
 10
2.664950999999999
 20
6.611542999999999
 30
0.0
 11
2.674950999999999
 21
6.611542999999999
 31
0.0
  0
LINE
  5
1C1
330
B
100
AcDbEntity
 67
     1
  8
1
  6
Continuous
 62
    18
100
AcDbLine
 10
5.246739999999999
 20
3.779085999999999
 30
0.0
 11
5.116741
 21
3.779085999999999
 31
0.0
  0
LINE
  5
1C2
330
B
100
AcDbEntity
 67
     1
  8
1
  6
Continuous
 62
    18
100
AcDbLine
 10
5.40398
 20
3.809086
 30
0.0
 11
5.354500999999999
 21
3.809086
 31
0.0
  0
LINE
  5
1C3
330
B
100
AcDbEntity
 67
     1
  8
1
  6
Continuous
 62
    18
100
AcDbLine
 10
1.946181
 20
5.539043
 30
0.0
 11
1.961288
 21
5.539043
 31
0.0
  0
LINE
  5
1C4
330
B
100
AcDbEntity
 67
     1
  8
1
  6
Continuous
 62
    18
100
AcDbLine
 10
2.089950999999999
 20
6.759414999999999
 30
0.0
 11
2.989950999999999
 21
6.759414999999999
 31
0.0
  0
LINE
  5
1C5
330
B
100
AcDbEntity
 67
     1
  8
1
  6
Continuous
 62
    18
100
AcDbLine
 10
2.365229999999999
 20
6.641542999999999
 30
0.0
 11
2.365247999999999
 21
6.641542999999999
 31
0.0
  0
LINE
  5
1C6
330
B
100
AcDbEntity
 67
     1
  8
1
  6
Continuous
 62
    18
100
AcDbLine
 10
2.055450999999999
 20
5.579043
 30
0.0
 11
2.034450999999999
 21
5.579043
 31
0.0
  0
LINE
  5
1C7
330
B
100
AcDbEntity
 67
     1
  8
1
  6
Continuous
 62
    18
100
AcDbLine
 10
5.091741
 20
3.809086
 30
0.0
 11
5.116741
 21
3.809086
 31
0.0
  0
LINE
  5
1C8
330
B
100
AcDbEntity
 67
     1
  8
1
  6
Continuous
 62
    18
100
AcDbLine
 10
2.626929999999999
 20
6.491543
 30
0.0
 11
2.625553
 21
6.491543
 31
0.0
  0
LINE
  5
1C9
330
B
100
AcDbEntity
 67
     1
  8
1
  6
Continuous
 62
    18
100
AcDbLine
 10
2.942950999999999
 20
3.914336
 30
0.0
 11
2.948909999999999
 21
3.914336
 31
0.0
  0
LINE
  5
1CA
330
B
100
AcDbEntity
 67
     1
  8
1
  6
Continuous
 62
    18
100
AcDbLine
 10
2.228107
 20
6.661283
 30
0.0
 11
2.207794999999999
 21
6.661283
 31
0.0
  0
LINE
  5
1CB
330
B
100
AcDbEntity
 67
     1
  8
1
  6
Continuous
 62
    18
100
AcDbLine
 10
4.919398999999999
 20
3.657184999999999
 30
0.0
 11
4.818182
 21
3.656301999999999
 31
0.0
  0
LINE
  5
1CC
330
B
100
AcDbEntity
 67
     1
  8
1
  6
Continuous
 62
    18
100
AcDbLine
 10
2.766036
 20
3.820336
 30
0.0
 11
2.766036
 21
3.817114
 31
0.0
  0
LINE
  5
1CD
330
B
100
AcDbEntity
 67
     1
  8
1
  6
Continuous
 62
    18
100
AcDbLine
 10
2.989950999999999
 20
6.966542999999999
 30
0.0
 11
2.989950999999999
 21
6.996542999999999
 31
0.0
  0
LINE
  5
1CE
330
B
100
AcDbEntity
 67
     1
  8
1
  6
Continuous
 62
    18
100
AcDbLine
 10
2.414950999999999
 20
6.641542999999999
 30
0.0
 11
2.414950999999999
 21
6.661542999999999
 31
0.0
  0
LINE
  5
1CF
330
B
100
AcDbEntity
 67
     1
  8
1
  6
Continuous
 62
    18
100
AcDbLine
 10
5.016741
 20
3.779085999999999
 30
0.0
 11
5.016741
 21
3.809086
 31
0.0
  0
LINE
  5
1D0
330
B
100
AcDbEntity
 67
     1
  8
1
  6
Continuous
 62
    18
100
AcDbLine
 10
2.836174999999999
 20
3.875967999999999
 30
0.0
 11
2.843835999999999
 21
3.874617999999999
 31
0.0
  0
LINE
  5
1D1
330
B
100
AcDbEntity
 67
     1
  8
1
  6
Continuous
 62
    18
100
AcDbLine
 10
1.795156
 20
6.207389
 30
0.0
 11
1.826284
 21
6.207389
 31
0.0
  0
LINE
  5
1D2
330
B
100
AcDbEntity
 67
     1
  8
1
  6
Continuous
 62
    18
100
AcDbLine
 10
2.714315
 20
6.481543
 30
0.0
 11
2.714672
 21
6.481543
 31
0.0
  0
LINE
  5
1D3
330
B
100
AcDbEntity
 67
     1
  8
1
  6
Continuous
 62
    18
100
AcDbLine
 10
2.414950999999999
 20
6.611542999999999
 30
0.0
 11
2.404951
 21
6.611542999999999
 31
0.0
  0
LINE
  5
1D4
330
B
100
AcDbEntity
 67
     1
  8
1
  6
Continuous
 62
    18
100
AcDbLine
 10
5.979239999999999
 20
3.809086
 30
0.0
 11
5.979239999999999
 21
3.819086
 31
0.0
  0
LINE
  5
1D5
330
B
100
AcDbEntity
 67
     1
  8
1
  6
Continuous
 62
    18
100
AcDbLine
 10
2.942950999999999
 20
4.039336
 30
0.0
 11
2.948909999999999
 21
4.039336
 31
0.0
  0
LINE
  5
1D6
330
B
100
AcDbEntity
 67
     1
  8
1
  6
Continuous
 62
    18
100
AcDbLine
 10
2.169950999999999
 20
6.796821999999999
 30
0.0
 11
2.169950999999999
 21
6.796839999999999
 31
0.0
  0
LINE
  5
1D7
330
B
100
AcDbEntity
 67
     1
  8
1
  6
Continuous
 62
    18
100
AcDbLine
 10
2.469951
 20
6.799389999999999
 30
0.0
 11
2.469951
 21
6.802019
 31
0.0
  0
LINE
  5
1D8
330
B
100
AcDbEntity
 67
     1
  8
1
  6
Continuous
 62
    18
100
AcDbLine
 10
1.930950999999999
 20
5.946541999999999
 30
0.0
 11
1.930950999999999
 21
5.974042999999999
 31
0.0
  0
LINE
  5
1D9
330
B
100
AcDbEntity
 67
     1
  8
1
  6
Continuous
 62
    18
100
AcDbLine
 10
4.621739999999999
 20
3.885724999999999
 30
0.0
 11
4.581739999999999
 21
3.885724999999999
 31
0.0
  0
LINE
  5
1DA
330
B
100
AcDbEntity
 67
     1
  8
1
  6
Continuous
 62
    18
100
AcDbLine
 10
3.039450999999999
 20
4.067947
 30
0.0
 11
3.039450999999999
 21
4.035701999999999
 31
0.0
  0
LINE
  5
1DB
330
B
100
AcDbEntity
 67
     1
  8
1
  6
Continuous
 62
    18
100
AcDbLine
 10
1.755888999999999
 20
3.530835999999999
 30
0.0
 11
1.755888999999999
 21
3.776835999999999
 31
0.0
  0
LINE
  5
1DC
330
B
100
AcDbEntity
 67
     1
  8
1
  6
Continuous
 62
    18
100
AcDbLine
 10
5.609240999999999
 20
3.851586
 30
0.0
 11
5.74924
 21
3.851586
 31
0.0
  0
LINE
  5
1DD
330
B
100
AcDbEntity
 67
     1
  8
1
  6
Continuous
 62
    18
100
AcDbLine
 10
2.254950999999999
 20
6.711542999999998
 30
0.0
 11
2.254950999999999
 21
6.261542999999999
 31
0.0
  0
LINE
  5
1DE
330
B
100
AcDbEntity
 67
     1
  8
1
  6
Continuous
 62
    18
100
AcDbLine
 10
2.945288
 20
5.539043
 30
0.0
 11
2.968579999999999
 21
5.539043
 31
0.0
  0
LINE
  5
1DF
330
B
100
AcDbEntity
 67
     1
  8
1
  6
Continuous
 62
    18
100
AcDbLine
 10
2.169950999999999
 20
6.876183999999999
 30
0.0
 11
2.169950999999999
 21
6.846542999999999
 31
0.0
  0
LINE
  5
1E0
330
B
100
AcDbEntity
 67
     1
  8
1
  6
Continuous
 62
    18
100
AcDbLine
 10
4.916380999999999
 20
3.752320999999999
 30
0.0
 11
4.91439
 21
3.761877999999999
 31
0.0
  0
LINE
  5
1E1
330
B
100
AcDbEntity
 67
     1
  8
1
  6
Continuous
 62
    18
100
AcDbLine
 10
2.469951
 20
6.876183999999999
 30
0.0
 11
2.469951
 21
6.877035
 31
0.0
  0
LINE
  5
1E2
330
B
100
AcDbEntity
 67
     1
  8
1
  6
Continuous
 62
    18
100
AcDbLine
 10
2.155243
 20
6.511281999999999
 30
0.0
 11
2.142742999999999
 21
6.511281999999999
 31
0.0
  0
LINE
  5
1E3
330
B
100
AcDbEntity
 67
     1
  8
1
  6
Continuous
 62
    18
100
AcDbLine
 10
2.942253
 20
4.031020999999999
 30
0.0
 11
2.942253
 21
4.038637999999999
 31
0.0
  0
LINE
  5
1E4
330
B
100
AcDbEntity
 67
     1
  8
1
  6
Continuous
 62
    18
100
AcDbLine
 10
4.569241
 20
3.836244999999999
 30
0.0
 11
4.569241
 21
3.854335999999999
 31
0.0
  0
LINE
  5
1E5
330
B
100
AcDbEntity
 67
     1
  8
1
  6
Continuous
 62
    18
100
AcDbLine
 10
2.634741999999999
 20
7.006491
 30
0.0
 11
2.625367999999999
 21
7.001802999999999
 31
0.0
  0
LINE
  5
1E6
330
B
100
AcDbEntity
 67
     1
  8
1
  6
Continuous
 62
    18
100
AcDbLine
 10
6.049189
 20
3.809086
 30
0.0
 11
6.064292
 21
3.809086
 31
0.0
  0
LINE
  5
1E7
330
B
100
AcDbEntity
 67
     1
  8
1
  6
Continuous
 62
    18
100
AcDbLine
 10
1.980950999999999
 20
7.056542999999999
 30
0.0
 11
3.098951
 21
7.056542999999999
 31
0.0
  0
LINE
  5
1E8
330
B
100
AcDbEntity
 67
     1
  8
1
  6
Continuous
 62
    18
100
AcDbLine
 10
2.367798
 20
6.491543
 30
0.0
 11
2.370426999999999
 21
6.491543
 31
0.0
  0
LINE
  5
1E9
330
B
100
AcDbEntity
 67
     1
  8
1
  6
Continuous
 62
    18
100
AcDbLine
 10
4.989241
 20
4.149086
 30
0.0
 11
4.989241
 21
4.134358999999999
 31
0.0
  0
LINE
  5
1EA
330
B
100
AcDbEntity
 67
     1
  8
1
  6
Continuous
 62
    18
100
AcDbLine
 10
2.319950999999999
 20
6.799389999999999
 30
0.0
 11
2.319950999999999
 21
6.802019
 31
0.0
  0
LINE
  5
1EB
330
B
100
AcDbEntity
 67
     1
  8
1
  6
Continuous
 62
    18
100
AcDbLine
 10
2.238002999999999
 20
6.331595
 30
0.0
 11
2.238002999999999
 21
6.316491
 31
0.0
  0
LINE
  5
1EC
330
B
100
AcDbEntity
 67
     1
  8
1
  6
Continuous
 62
    18
100
AcDbLine
 10
2.238002999999999
 20
6.356594999999999
 30
0.0
 11
2.228107
 21
6.361282
 31
0.0
  0
LINE
  5
1ED
330
B
100
AcDbEntity
 67
     1
  8
1
  6
Continuous
 62
    18
100
AcDbLine
 10
1.755100999999999
 20
3.823218
 30
0.0
 11
1.759272999999999
 21
3.814871
 31
0.0
  0
LINE
  5
1EE
330
B
100
AcDbEntity
 67
     1
  8
1
  6
Continuous
 62
    18
100
AcDbLine
 10
2.707425999999999
 20
6.331542999999999
 30
0.0
 11
2.710502999999999
 21
6.331542999999999
 31
0.0
  0
LINE
  5
1EF
330
B
100
AcDbEntity
 67
     1
  8
1
  6
Continuous
 62
    18
100
AcDbLine
 10
2.444591999999999
 20
6.491543
 30
0.0
 11
2.445443
 21
6.491543
 31
0.0
  0
LINE
  5
1F0
330
B
100
AcDbEntity
 67
     1
  8
1
  6
Continuous
 62
    18
100
AcDbLine
 10
5.74924
 20
3.851586
 30
0.0
 11
5.74924
 21
3.961586
 31
0.0
  0
LINE
  5
1F1
330
B
100
AcDbEntity
 67
     1
  8
1
  6
Continuous
 62
    18
100
AcDbLine
 10
1.930950999999999
 20
6.304043
 30
0.0
 11
1.930950999999999
 21
7.006542999999999
 31
0.0
  0
LINE
  5
1F2
330
B
100
AcDbEntity
 67
     1
  8
1
  6
Continuous
 62
    18
100
AcDbLine
 10
3.355801
 20
6.077389
 30
0.0
 11
3.280745999999999
 21
6.207389
 31
0.0
  0
LINE
  5
1F3
330
B
100
AcDbEntity
 67
     1
  8
1
  6
Continuous
 62
    18
100
AcDbLine
 10
2.319950999999999
 20
6.876183999999999
 30
0.0
 11
2.319950999999999
 21
6.877035
 31
0.0
  0
LINE
  5
1F4
330
B
100
AcDbEntity
 67
     1
  8
1
  6
Continuous
 62
    18
100
AcDbLine
 10
2.754795
 20
7.021594999999999
 30
0.0
 11
2.744899
 21
7.031490999999999
 31
0.0
  0
LINE
  5
1F5
330
B
100
AcDbEntity
 67
     1
  8
1
  6
Continuous
 62
    18
100
AcDbLine
 10
2.175107
 20
7.001802999999999
 30
0.0
 11
2.154795
 21
7.001802999999999
 31
0.0
  0
LINE
  5
1F6
330
B
100
AcDbEntity
 67
     1
  8
1
  6
Continuous
 62
    18
100
AcDbLine
 10
1.759272999999999
 20
3.781387
 30
0.0
 11
1.761547999999999
 21
3.776835999999999
 31
0.0
  0
LINE
  5
1F7
330
B
100
AcDbEntity
 67
     1
  8
1
  6
Continuous
 62
    18
100
AcDbLine
 10
6.089292999999999
 20
3.809086
 30
0.0
 11
6.074188999999999
 21
3.809086
 31
0.0
  0
LINE
  5
1F8
330
B
100
AcDbEntity
 67
     1
  8
1
  6
Continuous
 62
    18
100
AcDbLine
 10
2.824951
 20
6.711542999999998
 30
0.0
 11
2.824951
 21
6.261542999999999
 31
0.0
  0
LINE
  5
1F9
330
B
100
AcDbEntity
 67
     1
  8
1
  6
Continuous
 62
    18
100
AcDbLine
 10
2.103686
 20
4.066836
 30
0.0
 11
2.095025999999999
 21
4.071836
 31
0.0
  0
LINE
  5
1FA
330
B
100
AcDbEntity
 67
     1
  8
1
  6
Continuous
 62
    18
100
AcDbLine
 10
2.629256999999999
 20
6.331542999999999
 30
0.0
 11
2.632258
 21
6.331542999999999
 31
0.0
  0
LINE
  5
1FB
330
B
100
AcDbEntity
 67
     1
  8
1
  6
Continuous
 62
    18
100
AcDbLine
 10
2.845328999999999
 20
5.526543
 30
0.0
 11
2.823268
 21
5.526543
 31
0.0
  0
LINE
  5
1FC
330
B
100
AcDbEntity
 67
     1
  8
1
  6
Continuous
 62
    18
100
AcDbLine
 10
3.095685
 20
3.886834999999999
 30
0.0
 11
3.144760999999999
 21
3.971837
 31
0.0
  0
LINE
  5
1FD
330
B
100
AcDbEntity
 67
     1
  8
1
  6
Continuous
 62
    18
100
AcDbLine
 10
5.449241
 20
3.961586
 30
0.0
 11
5.309239999999999
 21
3.961586
 31
0.0
  0
LINE
  5
1FE
330
B
100
AcDbEntity
 67
     1
  8
1
  6
Continuous
 62
    18
100
AcDbLine
 10
2.768374999999999
 20
3.842335999999999
 30
0.0
 11
2.311526999999999
 21
3.842335999999999
 31
0.0
  0
LINE
  5
1FF
330
B
100
AcDbEntity
 67
     1
  8
1
  6
Continuous
 62
    18
100
AcDbLine
 10
2.609950999999999
 20
6.804067999999999
 30
0.0
 11
2.609950999999999
 21
6.800991999999999
 31
0.0
  0
LINE
  5
200
330
B
100
AcDbEntity
 67
     1
  8
1
  6
Continuous
 62
    18
100
AcDbLine
 10
2.095025999999999
 20
4.071836
 30
0.0
 11
2.095429999999999
 21
4.072533999999999
 31
0.0
  0
LINE
  5
201
330
B
100
AcDbEntity
 67
     1
  8
1
  6
Continuous
 62
    18
100
AcDbLine
 10
2.404951
 20
6.331542999999999
 30
0.0
 11
2.375309999999999
 21
6.331542999999999
 31
0.0
  0
LINE
  5
202
330
B
100
AcDbEntity
 67
     1
  8
1
  6
Continuous
 62
    18
100
AcDbLine
 10
5.558667999999999
 20
3.809086
 30
0.0
 11
5.563876
 21
3.809086
 31
0.0
  0
LINE
  5
203
330
B
100
AcDbEntity
 67
     1
  8
1
  6
Continuous
 62
    18
100
AcDbLine
 10
2.759951
 20
6.800991999999999
 30
0.0
 11
2.759951
 21
6.798608999999999
 31
0.0
  0
LINE
  5
204
330
B
100
AcDbEntity
 67
     1
  8
1
  6
Continuous
 62
    18
100
AcDbLine
 10
2.710502999999999
 20
6.331542999999999
 30
0.0
 11
2.712884999999999
 21
6.331542999999999
 31
0.0
  0
LINE
  5
205
330
B
100
AcDbEntity
 67
     1
  8
1
  6
Continuous
 62
    18
100
AcDbLine
 10
5.504501
 20
3.809086
 30
0.0
 11
5.509189
 21
3.809086
 31
0.0
  0
LINE
  5
206
330
B
100
AcDbEntity
 67
     1
  8
1
  6
Continuous
 62
    18
100
AcDbLine
 10
2.919950999999999
 20
6.796821999999999
 30
0.0
 11
2.919950999999999
 21
6.796839999999999
 31
0.0
  0
LINE
  5
207
330
B
100
AcDbEntity
 67
     1
  8
1
  6
Continuous
 62
    18
100
AcDbLine
 10
2.759951
 20
6.879235
 30
0.0
 11
2.759951
 21
6.876183999999999
 31
0.0
  0
LINE
  5
208
330
B
100
AcDbEntity
 67
     1
  8
1
  6
Continuous
 62
    18
100
AcDbLine
 10
5.524239999999999
 20
3.719085999999999
 30
0.0
 11
5.534241
 21
3.719085999999999
 31
0.0
  0
LINE
  5
209
330
B
100
AcDbEntity
 67
     1
  8
1
  6
Continuous
 62
    18
100
AcDbLine
 10
5.120085999999999
 20
4.129789999999999
 30
0.0
 11
5.101086
 21
4.130454
 31
0.0
  0
LINE
  5
20A
330
B
100
AcDbEntity
 67
     1
  8
1
  6
Continuous
 62
    18
100
AcDbLine
 10
2.664950999999999
 20
6.311543
 30
0.0
 11
2.664950999999999
 21
6.331542999999999
 31
0.0
  0
LINE
  5
20B
330
B
100
AcDbEntity
 67
     1
  8
1
  6
Continuous
 62
    18
100
AcDbLine
 10
5.508666999999999
 20
3.809086
 30
0.0
 11
5.504501
 21
3.809086
 31
0.0
  0
LINE
  5
20C
330
B
100
AcDbEntity
 67
     1
  8
1
  6
Continuous
 62
    18
100
AcDbLine
 10
2.919950999999999
 20
6.876183999999999
 30
0.0
 11
2.919950999999999
 21
6.846542999999999
 31
0.0
  0
LINE
  5
20D
330
B
100
AcDbEntity
 67
     1
  8
1
  6
Continuous
 62
    18
100
AcDbLine
 10
2.674950999999999
 20
6.641542999999999
 30
0.0
 11
2.674950999999999
 21
6.661542999999999
 31
0.0
  0
LINE
  5
20E
330
B
100
AcDbEntity
 67
     1
  8
1
  6
Continuous
 62
    18
100
AcDbLine
 10
5.41924
 20
3.931586
 30
0.0
 11
5.449241
 21
3.961586
 31
0.0
  0
LINE
  5
20F
330
B
100
AcDbEntity
 67
     1
  8
1
  6
Continuous
 62
    18
100
AcDbLine
 10
2.055450999999999
 20
3.917969
 30
0.0
 11
2.055450999999999
 21
3.885724999999999
 31
0.0
  0
LINE
  5
210
330
B
100
AcDbEntity
 67
     1
  8
1
  6
Continuous
 62
    18
100
AcDbLine
 10
2.664950999999999
 20
6.611542999999999
 30
0.0
 11
2.664950999999999
 21
6.631542999999999
 31
0.0
  0
LINE
  5
211
330
B
100
AcDbEntity
 67
     1
  8
1
  6
Continuous
 62
    18
100
AcDbLine
 10
2.609950999999999
 20
6.884564
 30
0.0
 11
2.609950999999999
 21
6.882236999999999
 31
0.0
  0
LINE
  5
212
330
B
100
AcDbEntity
 67
     1
  8
1
  6
Continuous
 62
    18
100
AcDbLine
 10
5.116741
 20
3.779085999999999
 30
0.0
 11
5.091741
 21
3.779085999999999
 31
0.0
  0
LINE
  5
213
330
B
100
AcDbEntity
 67
     1
  8
1
  6
Continuous
 62
    18
100
AcDbLine
 10
6.084084999999999
 20
3.809086
 30
0.0
 11
6.09398
 21
3.809086
 31
0.0
  0
LINE
  5
214
330
B
100
AcDbEntity
 67
     1
  8
1
  6
Continuous
 62
    18
100
AcDbLine
 10
2.625553
 20
6.341542999999999
 30
0.0
 11
2.625229999999999
 21
6.341542999999999
 31
0.0
  0
LINE
  5
215
330
B
100
AcDbEntity
 67
     1
  8
1
  6
Continuous
 62
    18
100
AcDbLine
 10
2.989950999999999
 20
6.923671
 30
0.0
 11
2.989950999999999
 21
6.759414999999999
 31
0.0
  0
LINE
  5
216
330
B
100
AcDbEntity
 67
     1
  8
1
  6
Continuous
 62
    18
100
AcDbLine
 10
2.365247999999999
 20
6.641542999999999
 30
0.0
 11
2.366006999999999
 21
6.641542999999999
 31
0.0
  0
LINE
  5
217
330
B
100
AcDbEntity
 67
     1
  8
1
  6
Continuous
 62
    18
100
AcDbLine
 10
2.034450999999999
 20
5.579043
 30
0.0
 11
2.013450999999999
 21
5.579043
 31
0.0
  0
LINE
  5
218
330
B
100
AcDbEntity
 67
     1
  8
1
  6
Continuous
 62
    18
100
AcDbLine
 10
2.055450999999999
 20
5.539043
 30
0.0
 11
2.055450999999999
 21
5.579043
 31
0.0
  0
LINE
  5
219
330
B
100
AcDbEntity
 67
     1
  8
1
  6
Continuous
 62
    18
100
AcDbLine
 10
5.246739999999999
 20
3.809086
 30
0.0
 11
5.116741
 21
3.809086
 31
0.0
  0
LINE
  5
21A
330
B
100
AcDbEntity
 67
     1
  8
1
  6
Continuous
 62
    18
100
AcDbLine
 10
2.625553
 20
6.491543
 30
0.0
 11
2.625229999999999
 21
6.491543
 31
0.0
  0
LINE
  5
21B
330
B
100
AcDbEntity
 67
     1
  8
1
  6
Continuous
 62
    18
100
AcDbLine
 10
2.942950999999999
 20
3.914336
 30
0.0
 11
2.942950999999999
 21
3.780835999999999
 31
0.0
  0
LINE
  5
21C
330
B
100
AcDbEntity
 67
     1
  8
1
  6
Continuous
 62
    18
100
AcDbLine
 10
4.86207
 20
3.753114
 30
0.0
 11
4.919398999999999
 21
3.752113999999999
 31
0.0
  0
LINE
  5
21D
330
B
100
AcDbEntity
 67
     1
  8
1
  6
Continuous
 62
    18
100
AcDbLine
 10
4.967912
 20
3.751644
 30
0.0
 11
4.966801999999999
 21
3.734086
 31
0.0
  0
LINE
  5
21E
330
B
100
AcDbEntity
 67
     1
  8
1
  6
Continuous
 62
    18
100
AcDbLine
 10
2.989950999999999
 20
6.966542999999999
 30
0.0
 11
2.989950999999999
 21
6.923671
 31
0.0
  0
LINE
  5
21F
330
B
100
AcDbEntity
 67
     1
  8
1
  6
Continuous
 62
    18
100
AcDbLine
 10
5.549292999999999
 20
3.809086
 30
0.0
 11
5.534187999999999
 21
3.809086
 31
0.0
  0
LINE
  5
220
330
B
100
AcDbEntity
 67
     1
  8
1
  6
Continuous
 62
    18
100
AcDbLine
 10
6.099241
 20
3.809086
 30
0.0
 11
6.099241
 21
3.779085999999999
 31
0.0
  0
LINE
  5
221
330
B
100
AcDbEntity
 67
     1
  8
1
  6
Continuous
 62
    18
100
AcDbLine
 10
2.278656
 20
4.144336
 30
0.0
 11
2.278656
 21
4.136557999999999
 31
0.0
  0
LINE
  5
222
330
B
100
AcDbEntity
 67
     1
  8
1
  6
Continuous
 62
    18
100
AcDbLine
 10
4.966936
 20
3.761877999999999
 30
0.0
 11
4.966567999999999
 21
3.752320999999999
 31
0.0
  0
LINE
  5
223
330
B
100
AcDbEntity
 67
     1
  8
1
  6
Continuous
 62
    18
100
AcDbLine
 10
1.930334
 20
3.981834999999999
 30
0.0
 11
1.947972999999999
 21
4.012386
 31
0.0
  0
LINE
  5
224
330
B
100
AcDbEntity
 67
     1
  8
1
  6
Continuous
 62
    18
100
AcDbLine
 10
1.720100999999999
 20
6.077389
 30
0.0
 11
1.795156
 21
6.207389
 31
0.0
  0
LINE
  5
225
330
B
100
AcDbEntity
 67
     1
  8
1
  6
Continuous
 62
    18
100
AcDbLine
 10
5.120085999999999
 20
3.823880999999999
 30
0.0
 11
5.120085999999999
 21
4.129789999999999
 31
0.0
  0
LINE
  5
226
330
B
100
AcDbEntity
 67
     1
  8
1
  6
Continuous
 62
    18
100
AcDbLine
 10
2.674950999999999
 20
6.491543
 30
0.0
 11
2.674950999999999
 21
6.511542999999999
 31
0.0
  0
LINE
  5
227
330
B
100
AcDbEntity
 67
     1
  8
1
  6
Continuous
 62
    18
100
AcDbLine
 10
5.909241
 20
3.719085999999999
 30
0.0
 11
5.904241
 21
3.719085999999999
 31
0.0
  0
LINE
  5
228
330
B
100
AcDbEntity
 67
     1
  8
1
  6
Continuous
 62
    18
100
AcDbLine
 10
2.962848
 20
4.052005999999999
 30
0.0
 11
2.971813
 21
4.067534999999999
 31
0.0
  0
LINE
  5
229
330
B
100
AcDbEntity
 67
     1
  8
1
  6
Continuous
 62
    18
100
AcDbLine
 10
2.169950999999999
 20
6.796839999999999
 30
0.0
 11
2.169950999999999
 21
6.797599
 31
0.0
  0
LINE
  5
22A
330
B
100
AcDbEntity
 67
     1
  8
1
  6
Continuous
 62
    18
100
AcDbLine
 10
3.039450999999999
 20
5.539043
 30
0.0
 11
3.068322
 21
5.539043
 31
0.0
  0
LINE
  5
22B
330
B
100
AcDbEntity
 67
     1
  8
1
  6
Continuous
 62
    18
100
AcDbLine
 10
2.469951
 20
6.802019
 30
0.0
 11
2.469951
 21
6.805206
 31
0.0
  0
LINE
  5
22C
330
B
100
AcDbEntity
 67
     1
  8
1
  6
Continuous
 62
    18
100
AcDbLine
 10
4.621739999999999
 20
3.883335999999999
 30
0.0
 11
4.621739999999999
 21
3.883934999999999
 31
0.0
  0
LINE
  5
22D
330
B
100
AcDbEntity
 67
     1
  8
1
  6
Continuous
 62
    18
100
AcDbLine
 10
1.755888999999999
 20
3.530835999999999
 30
0.0
 11
3.320012999999999
 21
3.530835999999999
 31
0.0
  0
LINE
  5
22E
330
B
100
AcDbEntity
 67
     1
  8
1
  6
Continuous
 62
    18
100
AcDbLine
 10
2.254950999999999
 20
6.261542999999999
 30
0.0
 11
2.284950999999999
 21
6.261542999999999
 31
0.0
  0
LINE
  5
22F
330
B
100
AcDbEntity
 67
     1
  8
1
  6
Continuous
 62
    18
100
AcDbLine
 10
2.169950999999999
 20
6.846542999999999
 30
0.0
 11
2.189950999999999
 21
6.846542999999999
 31
0.0
  0
LINE
  5
230
330
B
100
AcDbEntity
 67
     1
  8
1
  6
Continuous
 62
    18
100
AcDbLine
 10
4.91439
 20
3.761877999999999
 30
0.0
 11
4.914791
 21
3.771657999999999
 31
0.0
  0
LINE
  5
231
330
B
100
AcDbEntity
 67
     1
  8
1
  6
Continuous
 62
    18
100
AcDbLine
 10
5.55398
 20
3.809086
 30
0.0
 11
5.544084999999999
 21
3.809086
 31
0.0
  0
LINE
  5
232
330
B
100
AcDbEntity
 67
     1
  8
1
  6
Continuous
 62
    18
100
AcDbLine
 10
2.469951
 20
6.877035
 30
0.0
 11
2.469951
 21
6.880358
 31
0.0
  0
LINE
  5
233
330
B
100
AcDbEntity
 67
     1
  8
1
  6
Continuous
 62
    18
100
AcDbLine
 10
1.971075999999999
 20
6.461802999999999
 30
0.0
 11
1.971075999999999
 21
6.511281999999999
 31
0.0
  0
LINE
  5
234
330
B
100
AcDbEntity
 67
     1
  8
1
  6
Continuous
 62
    18
100
AcDbLine
 10
2.942253
 20
4.038637999999999
 30
0.0
 11
2.942950999999999
 21
4.039336
 31
0.0
  0
LINE
  5
235
330
B
100
AcDbEntity
 67
     1
  8
1
  6
Continuous
 62
    18
100
AcDbLine
 10
1.980950999999999
 20
6.024042999999999
 30
0.0
 11
2.080950999999999
 21
6.024042999999999
 31
0.0
  0
LINE
  5
236
330
B
100
AcDbEntity
 67
     1
  8
1
  6
Continuous
 62
    18
100
AcDbLine
 10
4.569241
 20
3.854335999999999
 30
0.0
 11
4.569241
 21
3.876528
 31
0.0
  0
LINE
  5
237
330
B
100
AcDbEntity
 67
     1
  8
1
  6
Continuous
 62
    18
100
AcDbLine
 10
2.459950999999999
 20
6.886263999999999
 30
0.0
 11
2.459950999999999
 21
6.886252
 31
0.0
  0
LINE
  5
238
330
B
100
AcDbEntity
 67
     1
  8
1
  6
Continuous
 62
    18
100
AcDbLine
 10
4.968205
 20
3.770980999999999
 30
0.0
 11
4.985992999999999
 21
3.770980999999999
 31
0.0
  0
LINE
  5
239
330
B
100
AcDbEntity
 67
     1
  8
1
  6
Continuous
 62
    18
100
AcDbLine
 10
2.128524
 20
6.361282
 30
0.0
 11
2.088941
 21
6.361282
 31
0.0
  0
LINE
  5
23A
330
B
100
AcDbEntity
 67
     1
  8
1
  6
Continuous
 62
    18
100
AcDbLine
 10
2.972215999999999
 20
3.886834999999999
 30
0.0
 11
2.971813
 21
3.886137
 31
0.0
  0
LINE
  5
23B
330
B
100
AcDbEntity
 67
     1
  8
1
  6
Continuous
 62
    18
100
AcDbLine
 10
2.370426999999999
 20
6.491543
 30
0.0
 11
2.373613999999999
 21
6.491543
 31
0.0
  0
LINE
  5
23C
330
B
100
AcDbEntity
 67
     1
  8
1
  6
Continuous
 62
    18
100
AcDbLine
 10
1.960425
 20
4.033952999999999
 30
0.0
 11
1.979813
 21
4.067534999999999
 31
0.0
  0
LINE
  5
23D
330
B
100
AcDbEntity
 67
     1
  8
1
  6
Continuous
 62
    18
100
AcDbLine
 10
2.319950999999999
 20
6.802019
 30
0.0
 11
2.319950999999999
 21
6.805206
 31
0.0
  0
LINE
  5
23E
330
B
100
AcDbEntity
 67
     1
  8
1
  6
Continuous
 62
    18
100
AcDbLine
 10
2.784482
 20
7.031490999999999
 30
0.0
 11
2.775106999999999
 21
7.021594999999999
 31
0.0
  0
LINE
  5
23F
330
B
100
AcDbEntity
 67
     1
  8
1
  6
Continuous
 62
    18
100
AcDbLine
 10
2.841429999999999
 20
6.491491
 30
0.0
 11
2.851325999999999
 21
6.486282
 31
0.0
  0
LINE
  5
240
330
B
100
AcDbEntity
 67
     1
  8
1
  6
Continuous
 62
    18
100
AcDbLine
 10
1.755100999999999
 20
3.823218
 30
0.0
 11
1.720100999999999
 21
3.823218
 31
0.0
  0
LINE
  5
241
330
B
100
AcDbEntity
 67
     1
  8
1
  6
Continuous
 62
    18
100
AcDbLine
 10
5.519239999999999
 20
3.779085999999999
 30
0.0
 11
5.519239999999999
 21
3.719085999999999
 31
0.0
  0
LINE
  5
242
330
B
100
AcDbEntity
 67
     1
  8
1
  6
Continuous
 62
    18
100
AcDbLine
 10
2.445443
 20
6.491543
 30
0.0
 11
2.448765999999999
 21
6.491543
 31
0.0
  0
LINE
  5
243
330
B
100
AcDbEntity
 67
     1
  8
1
  6
Continuous
 62
    18
100
AcDbLine
 10
2.319950999999999
 20
6.877035
 30
0.0
 11
2.319950999999999
 21
6.880358
 31
0.0
  0
LINE
  5
244
330
B
100
AcDbEntity
 67
     1
  8
1
  6
Continuous
 62
    18
100
AcDbLine
 10
2.922679999999999
 20
6.362064
 30
0.0
 11
2.91018
 21
6.362064
 31
0.0
  0
LINE
  5
245
330
B
100
AcDbEntity
 67
     1
  8
1
  6
Continuous
 62
    18
100
AcDbLine
 10
2.207794999999999
 20
6.661283
 30
0.0
 11
2.197899
 21
6.656594999999999
 31
0.0
  0
LINE
  5
246
330
B
100
AcDbEntity
 67
     1
  8
1
  6
Continuous
 62
    18
100
AcDbLine
 10
1.759272999999999
 20
4.172284999999999
 30
0.0
 11
1.761547999999999
 21
4.176835999999999
 31
0.0
  0
LINE
  5
247
330
B
100
AcDbEntity
 67
     1
  8
1
  6
Continuous
 62
    18
100
AcDbLine
 10
2.942253
 20
4.038637999999999
 30
0.0
 11
2.948288
 21
4.038637999999999
 31
0.0
  0
LINE
  5
248
330
B
100
AcDbEntity
 67
     1
  8
1
  6
Continuous
 62
    18
100
AcDbLine
 10
2.851325999999999
 20
6.511281999999999
 30
0.0
 11
2.841429999999999
 21
6.506594999999999
 31
0.0
  0
LINE
  5
249
330
B
100
AcDbEntity
 67
     1
  8
1
  6
Continuous
 62
    18
100
AcDbLine
 10
2.794950999999999
 20
6.711542999999998
 30
0.0
 11
2.824951
 21
6.711542999999998
 31
0.0
  0
LINE
  5
24A
330
B
100
AcDbEntity
 67
     1
  8
1
  6
Continuous
 62
    18
100
AcDbLine
 10
1.988874999999999
 20
4.071836
 30
0.0
 11
2.095025999999999
 21
4.071836
 31
0.0
  0
LINE
  5
24B
330
B
100
AcDbEntity
 67
     1
  8
1
  6
Continuous
 62
    18
100
AcDbLine
 10
2.632258
 20
6.331542999999999
 30
0.0
 11
2.63531
 21
6.331542999999999
 31
0.0
  0
LINE
  5
24C
330
B
100
AcDbEntity
 67
     1
  8
1
  6
Continuous
 62
    18
100
AcDbLine
 10
2.823268
 20
5.526543
 30
0.0
 11
2.797245999999999
 21
5.526543
 31
0.0
  0
LINE
  5
24D
330
B
100
AcDbEntity
 67
     1
  8
1
  6
Continuous
 62
    18
100
AcDbLine
 10
3.144760999999999
 20
3.981834999999999
 30
0.0
 11
3.144760999999999
 21
3.971837
 31
0.0
  0
LINE
  5
24E
330
B
100
AcDbEntity
 67
     1
  8
1
  6
Continuous
 62
    18
100
AcDbLine
 10
2.619950999999999
 20
6.884564
 30
0.0
 11
2.619950999999999
 21
6.885941
 31
0.0
  0
LINE
  5
24F
330
B
100
AcDbEntity
 67
     1
  8
1
  6
Continuous
 62
    18
100
AcDbLine
 10
5.449241
 20
3.851586
 30
0.0
 11
5.449241
 21
3.961586
 31
0.0
  0
LINE
  5
250
330
B
100
AcDbEntity
 67
     1
  8
1
  6
Continuous
 62
    18
100
AcDbLine
 10
2.266225999999999
 20
3.880348
 30
0.0
 11
2.235015999999999
 21
4.057348
 31
0.0
  0
LINE
  5
251
330
B
100
AcDbEntity
 67
     1
  8
1
  6
Continuous
 62
    18
100
AcDbLine
 10
2.609950999999999
 20
6.800991999999999
 30
0.0
 11
2.609950999999999
 21
6.798608999999999
 31
0.0
  0
LINE
  5
252
330
B
100
AcDbEntity
 67
     1
  8
1
  6
Continuous
 62
    18
100
AcDbLine
 10
2.404951
 20
6.341542999999999
 30
0.0
 11
2.404951
 21
6.361543
 31
0.0
  0
LINE
  5
253
330
B
100
AcDbEntity
 67
     1
  8
1
  6
Continuous
 62
    18
100
AcDbLine
 10
2.759951
 20
6.798608999999999
 30
0.0
 11
2.759951
 21
6.797178999999998
 31
0.0
  0
LINE
  5
254
330
B
100
AcDbEntity
 67
     1
  8
1
  6
Continuous
 62
    18
100
AcDbLine
 10
4.73174
 20
4.070336
 30
0.0
 11
4.621739999999999
 21
4.070336
 31
0.0
  0
LINE
  5
255
330
B
100
AcDbEntity
 67
     1
  8
1
  6
Continuous
 62
    18
100
AcDbLine
 10
4.966861999999999
 20
3.771657999999999
 30
0.0
 11
4.966936
 21
3.761877999999999
 31
0.0
  0
LINE
  5
256
330
B
100
AcDbEntity
 67
     1
  8
1
  6
Continuous
 62
    18
100
AcDbLine
 10
2.797245999999999
 20
4.144336
 30
0.0
 11
2.278656
 21
4.144336
 31
0.0
  0
LINE
  5
257
330
B
100
AcDbEntity
 67
     1
  8
1
  6
Continuous
 62
    18
100
AcDbLine
 10
2.444591999999999
 20
6.331542999999999
 30
0.0
 11
2.414950999999999
 21
6.331542999999999
 31
0.0
  0
LINE
  5
258
330
B
100
AcDbEntity
 67
     1
  8
1
  6
Continuous
 62
    18
100
AcDbLine
 10
2.739951
 20
6.836542999999998
 30
0.0
 11
2.759951
 21
6.836542999999998
 31
0.0
  0
LINE
  5
259
330
B
100
AcDbEntity
 67
     1
  8
1
  6
Continuous
 62
    18
100
AcDbLine
 10
2.625229999999999
 20
6.631542999999999
 30
0.0
 11
2.625241999999999
 21
6.631542999999999
 31
0.0
  0
LINE
  5
25A
330
B
100
AcDbEntity
 67
     1
  8
1
  6
Continuous
 62
    18
100
AcDbLine
 10
6.049189
 20
3.809086
 30
0.0
 11
6.059083999999999
 21
3.809086
 31
0.0
  0
LINE
  5
25B
330
B
100
AcDbEntity
 67
     1
  8
1
  6
Continuous
 62
    18
100
AcDbLine
 10
2.919950999999999
 20
6.796839999999999
 30
0.0
 11
2.919950999999999
 21
6.797599
 31
0.0
  0
LINE
  5
25C
330
B
100
AcDbEntity
 67
     1
  8
1
  6
Continuous
 62
    18
100
AcDbLine
 10
2.674950999999999
 20
6.641542999999999
 30
0.0
 11
2.704591999999999
 21
6.641542999999999
 31
0.0
  0
LINE
  5
25D
330
B
100
AcDbEntity
 67
     1
  8
1
  6
Continuous
 62
    18
100
AcDbLine
 10
5.509189
 20
3.809086
 30
0.0
 11
5.504501
 21
3.809086
 31
0.0
  0
LINE
  5
25E
330
B
100
AcDbEntity
 67
     1
  8
1
  6
Continuous
 62
    18
100
AcDbLine
 10
5.534241
 20
3.719085999999999
 30
0.0
 11
5.53924
 21
3.719085999999999
 31
0.0
  0
LINE
  5
25F
330
B
100
AcDbEntity
 67
     1
  8
1
  6
Continuous
 62
    18
100
AcDbLine
 10
2.919950999999999
 20
6.846542999999999
 30
0.0
 11
2.939950999999999
 21
6.846542999999999
 31
0.0
  0
LINE
  5
260
330
B
100
AcDbEntity
 67
     1
  8
1
  6
Continuous
 62
    18
100
AcDbLine
 10
5.74924
 20
3.851586
 30
0.0
 11
5.719241
 21
3.881586
 31
0.0
  0
LINE
  5
261
330
B
100
AcDbEntity
 67
     1
  8
1
  6
Continuous
 62
    18
100
AcDbLine
 10
5.66924
 20
3.719085999999999
 30
0.0
 11
5.674241
 21
3.719085999999999
 31
0.0
  0
LINE
  5
262
330
B
100
AcDbEntity
 67
     1
  8
1
  6
Continuous
 62
    18
100
AcDbLine
 10
6.084084999999999
 20
3.809086
 30
0.0
 11
6.054396999999999
 21
3.809086
 31
0.0
  0
LINE
  5
263
330
B
100
AcDbEntity
 67
     1
  8
1
  6
Continuous
 62
    18
100
AcDbLine
 10
2.63531
 20
6.631542999999999
 30
0.0
 11
2.664950999999999
 21
6.631542999999999
 31
0.0
  0
LINE
  5
264
330
B
100
AcDbEntity
 67
     1
  8
1
  6
Continuous
 62
    18
100
AcDbLine
 10
5.346741
 20
3.779085999999999
 30
0.0
 11
5.321741
 21
3.779085999999999
 31
0.0
  0
LINE
  5
265
330
B
100
AcDbEntity
 67
     1
  8
1
  6
Continuous
 62
    18
100
AcDbLine
 10
5.091741
 20
3.779085999999999
 30
0.0
 11
5.073438999999999
 21
3.779085999999999
 31
0.0
  0
LINE
  5
266
330
B
100
AcDbEntity
 67
     1
  8
1
  6
Continuous
 62
    18
100
AcDbLine
 10
5.508666999999999
 20
3.809086
 30
0.0
 11
5.504501
 21
3.809086
 31
0.0
  0
LINE
  5
267
330
B
100
AcDbEntity
 67
     1
  8
1
  6
Continuous
 62
    18
100
AcDbLine
 10
2.989950999999999
 20
6.923671
 30
0.0
 11
2.089950999999999
 21
6.923671
 31
0.0
  0
LINE
  5
268
330
B
100
AcDbEntity
 67
     1
  8
1
  6
Continuous
 62
    18
100
AcDbLine
 10
5.246739999999999
 20
3.809086
 30
0.0
 11
5.27174
 21
3.809086
 31
0.0
  0
LINE
  5
269
330
B
100
AcDbEntity
 67
     1
  8
1
  6
Continuous
 62
    18
100
AcDbLine
 10
2.207794999999999
 20
6.361282
 30
0.0
 11
2.197899
 21
6.356073999999999
 31
0.0
  0
LINE
  5
26A
330
B
100
AcDbEntity
 67
     1
  8
1
  6
Continuous
 62
    18
100
AcDbLine
 10
4.86207
 20
3.753114
 30
0.0
 11
4.86207
 21
3.781387
 31
0.0
  0
LINE
  5
26B
330
B
100
AcDbEntity
 67
     1
  8
1
  6
Continuous
 62
    18
100
AcDbLine
 10
2.674950999999999
 20
6.491543
 30
0.0
 11
2.704591999999999
 21
6.491543
 31
0.0
  0
LINE
  5
26C
330
B
100
AcDbEntity
 67
     1
  8
1
  6
Continuous
 62
    18
100
AcDbLine
 10
5.359188999999999
 20
3.809086
 30
0.0
 11
5.354500999999999
 21
3.809086
 31
0.0
  0
LINE
  5
26D
330
B
100
AcDbEntity
 67
     1
  8
1
  6
Continuous
 62
    18
100
AcDbLine
 10
5.246739999999999
 20
3.779085999999999
 30
0.0
 11
5.246739999999999
 21
3.809086
 31
0.0
  0
LINE
  5
26E
330
B
100
AcDbEntity
 67
     1
  8
1
  6
Continuous
 62
    18
100
AcDbLine
 10
6.09398
 20
3.809086
 30
0.0
 11
6.084084999999999
 21
3.809086
 31
0.0
  0
LINE
  5
26F
330
B
100
AcDbEntity
 67
     1
  8
1
  6
Continuous
 62
    18
100
AcDbLine
 10
1.720100999999999
 20
6.077389
 30
0.0
 11
1.720100999999999
 21
6.058389
 31
0.0
  0
LINE
  5
270
330
B
100
AcDbEntity
 67
     1
  8
1
  6
Continuous
 62
    18
100
AcDbLine
 10
4.86207
 20
3.814871
 30
0.0
 11
5.101086
 21
3.823218
 31
0.0
  0
LINE
  5
271
330
B
100
AcDbEntity
 67
     1
  8
1
  6
Continuous
 62
    18
100
AcDbLine
 10
1.961288
 20
5.539043
 30
0.0
 11
1.984579
 21
5.539043
 31
0.0
  0
LINE
  5
272
330
B
100
AcDbEntity
 67
     1
  8
1
  6
Continuous
 62
    18
100
AcDbLine
 10
5.904241
 20
3.719085999999999
 30
0.0
 11
5.894239999999999
 21
3.719085999999999
 31
0.0
  0
LINE
  5
273
330
B
100
AcDbEntity
 67
     1
  8
1
  6
Continuous
 62
    18
100
AcDbLine
 10
2.074721999999999
 20
6.491491
 30
0.0
 11
2.074721999999999
 21
6.481594999999999
 31
0.0
  0
LINE
  5
274
330
B
100
AcDbEntity
 67
     1
  8
1
  6
Continuous
 62
    18
100
AcDbLine
 10
2.587822999999999
 20
6.261542999999999
 30
0.0
 11
2.587822999999999
 21
6.711542999999998
 31
0.0
  0
LINE
  5
275
330
B
100
AcDbEntity
 67
     1
  8
1
  6
Continuous
 62
    18
100
AcDbLine
 10
2.169950999999999
 20
6.797599
 30
0.0
 11
2.169950999999999
 21
6.799389999999999
 31
0.0
  0
LINE
  5
276
330
B
100
AcDbEntity
 67
     1
  8
1
  6
Continuous
 62
    18
100
AcDbLine
 10
4.968278999999999
 20
3.761201
 30
0.0
 11
4.967912
 21
3.751644
 31
0.0
  0
LINE
  5
277
330
B
100
AcDbEntity
 67
     1
  8
1
  6
Continuous
 62
    18
100
AcDbLine
 10
2.469951
 20
6.805206
 30
0.0
 11
2.469951
 21
6.806902
 31
0.0
  0
LINE
  5
278
330
B
100
AcDbEntity
 67
     1
  8
1
  6
Continuous
 62
    18
100
AcDbLine
 10
4.621739999999999
 20
3.883934999999999
 30
0.0
 11
4.621739999999999
 21
3.885724999999999
 31
0.0
  0
LINE
  5
279
330
B
100
AcDbEntity
 67
     1
  8
1
  6
Continuous
 62
    18
100
AcDbLine
 10
2.997450999999999
 20
4.067947
 30
0.0
 11
2.997450999999999
 21
4.035701999999999
 31
0.0
  0
LINE
  5
27A
330
B
100
AcDbEntity
 67
     1
  8
1
  6
Continuous
 62
    18
100
AcDbLine
 10
3.320012999999999
 20
3.776835999999999
 30
0.0
 11
3.320012999999999
 21
3.530835999999999
 31
0.0
  0
LINE
  5
27B
330
B
100
AcDbEntity
 67
     1
  8
1
  6
Continuous
 62
    18
100
AcDbLine
 10
2.284950999999999
 20
6.711542999999998
 30
0.0
 11
2.254950999999999
 21
6.711542999999998
 31
0.0
  0
LINE
  5
27C
330
B
100
AcDbEntity
 67
     1
  8
1
  6
Continuous
 62
    18
100
AcDbLine
 10
2.189950999999999
 20
6.846542999999999
 30
0.0
 11
2.189950999999999
 21
6.836542999999998
 31
0.0
  0
LINE
  5
27D
330
B
100
AcDbEntity
 67
     1
  8
1
  6
Continuous
 62
    18
100
AcDbLine
 10
4.914791
 20
3.771657999999999
 30
0.0
 11
4.916021999999999
 21
3.779085999999999
 31
0.0
  0
LINE
  5
27E
330
B
100
AcDbEntity
 67
     1
  8
1
  6
Continuous
 62
    18
100
AcDbLine
 10
2.882524
 20
6.661283
 30
0.0
 11
2.842941
 21
6.661283
 31
0.0
  0
LINE
  5
27F
330
B
100
AcDbEntity
 67
     1
  8
1
  6
Continuous
 62
    18
100
AcDbLine
 10
2.469951
 20
6.880358
 30
0.0
 11
2.469951
 21
6.883185
 31
0.0
  0
LINE
  5
280
330
B
100
AcDbEntity
 67
     1
  8
1
  6
Continuous
 62
    18
100
AcDbLine
 10
2.470159
 20
7.051282
 30
0.0
 11
2.445158999999999
 21
7.001802999999999
 31
0.0
  0
LINE
  5
281
330
B
100
AcDbEntity
 67
     1
  8
1
  6
Continuous
 62
    18
100
AcDbLine
 10
4.994301999999999
 20
3.734086
 30
0.0
 11
4.981951999999999
 21
3.734086
 31
0.0
  0
LINE
  5
282
330
B
100
AcDbEntity
 67
     1
  8
1
  6
Continuous
 62
    18
100
AcDbLine
 10
2.942950999999999
 20
4.172836
 30
0.0
 11
2.941641999999999
 21
4.172836
 31
0.0
  0
LINE
  5
283
330
B
100
AcDbEntity
 67
     1
  8
1
  6
Continuous
 62
    18
100
AcDbLine
 10
4.569241
 20
3.876528
 30
0.0
 11
4.569241
 21
4.053528
 31
0.0
  0
LINE
  5
284
330
B
100
AcDbEntity
 67
     1
  8
1
  6
Continuous
 62
    18
100
AcDbLine
 10
2.459950999999999
 20
6.886252
 30
0.0
 11
2.459950999999999
 21
6.88553
 31
0.0
  0
LINE
  5
285
330
B
100
AcDbEntity
 67
     1
  8
1
  6
Continuous
 62
    18
100
AcDbLine
 10
2.304794999999999
 20
7.026282000000001
 30
0.0
 11
2.294899
 21
7.021594999999999
 31
0.0
  0
LINE
  5
286
330
B
100
AcDbEntity
 67
     1
  8
1
  6
Continuous
 62
    18
100
AcDbLine
 10
2.095429999999999
 20
3.881137999999999
 30
0.0
 11
1.988471999999999
 21
3.881137999999999
 31
0.0
  0
LINE
  5
287
330
B
100
AcDbEntity
 67
     1
  8
1
  6
Continuous
 62
    18
100
AcDbLine
 10
2.013450999999999
 20
3.917969
 30
0.0
 11
2.013450999999999
 21
3.885724999999999
 31
0.0
  0
LINE
  5
288
330
B
100
AcDbEntity
 67
     1
  8
1
  6
Continuous
 62
    18
100
AcDbLine
 10
2.609950999999999
 20
6.886263999999999
 30
0.0
 11
2.609950999999999
 21
6.886252
 31
0.0
  0
LINE
  5
289
330
B
100
AcDbEntity
 67
     1
  8
1
  6
Continuous
 62
    18
100
AcDbLine
 10
2.154795
 20
7.051282
 30
0.0
 11
2.144899
 21
7.046594999999999
 31
0.0
  0
LINE
  5
28A
330
B
100
AcDbEntity
 67
     1
  8
1
  6
Continuous
 62
    18
100
AcDbLine
 10
3.148950999999999
 20
5.876703
 30
0.0
 11
3.148950999999999
 21
5.974042999999999
 31
0.0
  0
LINE
  5
28B
330
B
100
AcDbEntity
 67
     1
  8
1
  6
Continuous
 62
    18
100
AcDbLine
 10
2.162950999999999
 20
3.752144999999999
 30
0.0
 11
2.912950999999999
 21
3.752144999999999
 31
0.0
  0
LINE
  5
28C
330
B
100
AcDbEntity
 67
     1
  8
1
  6
Continuous
 62
    18
100
AcDbLine
 10
2.373613999999999
 20
6.491543
 30
0.0
 11
2.375309999999999
 21
6.491543
 31
0.0
  0
LINE
  5
28D
330
B
100
AcDbEntity
 67
     1
  8
1
  6
Continuous
 62
    18
100
AcDbLine
 10
4.989241
 20
4.149086
 30
0.0
 11
4.88374
 21
4.149086
 31
0.0
  0
LINE
  5
28E
330
B
100
AcDbEntity
 67
     1
  8
1
  6
Continuous
 62
    18
100
AcDbLine
 10
5.719241
 20
3.931586
 30
0.0
 11
5.719241
 21
3.881586
 31
0.0
  0
LINE
  5
28F
330
B
100
AcDbEntity
 67
     1
  8
1
  6
Continuous
 62
    18
100
AcDbLine
 10
2.319950999999999
 20
6.805206
 30
0.0
 11
2.319950999999999
 21
6.806902
 31
0.0
  0
LINE
  5
290
330
B
100
AcDbEntity
 67
     1
  8
1
  6
Continuous
 62
    18
100
AcDbLine
 10
2.099722
 20
6.511281999999999
 30
0.0
 11
2.089825999999999
 21
6.511281999999999
 31
0.0
  0
LINE
  5
291
330
B
100
AcDbEntity
 67
     1
  8
1
  6
Continuous
 62
    18
100
AcDbLine
 10
2.294899
 20
7.031490999999999
 30
0.0
 11
2.304794999999999
 21
7.026282000000001
 31
0.0
  0
LINE
  5
292
330
B
100
AcDbEntity
 67
     1
  8
1
  6
Continuous
 62
    18
100
AcDbLine
 10
1.720100999999999
 20
4.130454
 30
0.0
 11
1.755100999999999
 21
4.130454
 31
0.0
  0
LINE
  5
293
330
B
100
AcDbEntity
 67
     1
  8
1
  6
Continuous
 62
    18
100
AcDbLine
 10
2.712884999999999
 20
6.331542999999999
 30
0.0
 11
2.714315
 21
6.331542999999999
 31
0.0
  0
LINE
  5
294
330
B
100
AcDbEntity
 67
     1
  8
1
  6
Continuous
 62
    18
100
AcDbLine
 10
2.448765999999999
 20
6.491543
 30
0.0
 11
2.451592999999999
 21
6.491543
 31
0.0
  0
LINE
  5
295
330
B
100
AcDbEntity
 67
     1
  8
1
  6
Continuous
 62
    18
100
AcDbLine
 10
2.319950999999999
 20
6.880358
 30
0.0
 11
2.319950999999999
 21
6.883185
 31
0.0
  0
LINE
  5
296
330
B
100
AcDbEntity
 67
     1
  8
1
  6
Continuous
 62
    18
100
AcDbLine
 10
2.784482
 20
7.011699
 30
0.0
 11
2.775106999999999
 21
7.001802999999999
 31
0.0
  0
LINE
  5
297
330
B
100
AcDbEntity
 67
     1
  8
1
  6
Continuous
 62
    18
100
AcDbLine
 10
2.605055
 20
7.001802999999999
 30
0.0
 11
2.595159
 21
7.006491
 31
0.0
  0
LINE
  5
298
330
B
100
AcDbEntity
 67
     1
  8
1
  6
Continuous
 62
    18
100
AcDbLine
 10
3.318874999999999
 20
4.172284999999999
 30
0.0
 11
3.320012999999999
 21
4.176835999999999
 31
0.0
  0
LINE
  5
299
330
B
100
AcDbEntity
 67
     1
  8
1
  6
Continuous
 62
    18
100
AcDbLine
 10
2.45466
 20
6.481543
 30
0.0
 11
2.453937999999999
 21
6.481543
 31
0.0
  0
LINE
  5
29A
330
B
100
AcDbEntity
 67
     1
  8
1
  6
Continuous
 62
    18
100
AcDbLine
 10
2.626929999999999
 20
6.481543
 30
0.0
 11
2.629256999999999
 21
6.481543
 31
0.0
  0
LINE
  5
29B
330
B
100
AcDbEntity
 67
     1
  8
1
  6
Continuous
 62
    18
100
AcDbLine
 10
1.988874999999999
 20
4.071836
 30
0.0
 11
1.980216
 21
4.066836
 31
0.0
  0
LINE
  5
29C
330
B
100
AcDbEntity
 67
     1
  8
1
  6
Continuous
 62
    18
100
AcDbLine
 10
2.404951
 20
6.341542999999999
 30
0.0
 11
2.375309999999999
 21
6.341542999999999
 31
0.0
  0
LINE
  5
29D
330
B
100
AcDbEntity
 67
     1
  8
1
  6
Continuous
 62
    18
100
AcDbLine
 10
2.278656
 20
5.689042999999999
 30
0.0
 11
2.278656
 21
5.526543
 31
0.0
  0
LINE
  5
29E
330
B
100
AcDbEntity
 67
     1
  8
1
  6
Continuous
 62
    18
100
AcDbLine
 10
2.132950999999999
 20
4.172836
 30
0.0
 11
2.132950999999999
 21
4.039336
 31
0.0
  0
LINE
  5
29F
330
B
100
AcDbEntity
 67
     1
  8
1
  6
Continuous
 62
    18
100
AcDbLine
 10
3.144760999999999
 20
3.981834999999999
 30
0.0
 11
3.095685
 21
4.066836
 31
0.0
  0
LINE
  5
2A0
330
B
100
AcDbEntity
 67
     1
  8
1
  6
Continuous
 62
    18
100
AcDbLine
 10
5.309239999999999
 20
3.851586
 30
0.0
 11
5.449241
 21
3.851586
 31
0.0
  0
LINE
  5
2A1
330
B
100
AcDbEntity
 67
     1
  8
1
  6
Continuous
 62
    18
100
AcDbLine
 10
2.813675999999999
 20
3.880348
 30
0.0
 11
2.844886
 21
4.057348
 31
0.0
  0
LINE
  5
2A2
330
B
100
AcDbEntity
 67
     1
  8
1
  6
Continuous
 62
    18
100
AcDbLine
 10
2.609950999999999
 20
6.798608999999999
 30
0.0
 11
2.609950999999999
 21
6.797178999999998
 31
0.0
  0
LINE
  5
2A3
330
B
100
AcDbEntity
 67
     1
  8
1
  6
Continuous
 62
    18
100
AcDbLine
 10
2.104089
 20
4.067534999999999
 30
0.0
 11
2.103686
 21
4.066836
 31
0.0
  0
LINE
  5
2A4
330
B
100
AcDbEntity
 67
     1
  8
1
  6
Continuous
 62
    18
100
AcDbLine
 10
2.414950999999999
 20
6.361543
 30
0.0
 11
2.404951
 21
6.361543
 31
0.0
  0
LINE
  5
2A5
330
B
100
AcDbEntity
 67
     1
  8
1
  6
Continuous
 62
    18
100
AcDbLine
 10
2.759951
 20
6.797178999999998
 30
0.0
 11
2.759951
 21
6.796821999999999
 31
0.0
  0
LINE
  5
2A6
330
B
100
AcDbEntity
 67
     1
  8
1
  6
Continuous
 62
    18
100
AcDbLine
 10
5.674241
 20
3.719085999999999
 30
0.0
 11
5.684239999999999
 21
3.719085999999999
 31
0.0
  0
LINE
  5
2A7
330
B
100
AcDbEntity
 67
     1
  8
1
  6
Continuous
 62
    18
100
AcDbLine
 10
2.414950999999999
 20
6.311543
 30
0.0
 11
2.414950999999999
 21
6.331542999999999
 31
0.0
  0
LINE
  5
2A8
330
B
100
AcDbEntity
 67
     1
  8
1
  6
Continuous
 62
    18
100
AcDbLine
 10
2.739951
 20
6.846542999999999
 30
0.0
 11
2.739951
 21
6.836542999999998
 31
0.0
  0
LINE
  5
2A9
330
B
100
AcDbEntity
 67
     1
  8
1
  6
Continuous
 62
    18
100
AcDbLine
 10
4.989241
 20
3.819312
 30
0.0
 11
4.989241
 21
3.809086
 31
0.0
  0
LINE
  5
2AA
330
B
100
AcDbEntity
 67
     1
  8
1
  6
Continuous
 62
    18
100
AcDbLine
 10
2.162950999999999
 20
4.202836
 30
0.0
 11
2.912950999999999
 21
4.202836
 31
0.0
  0
LINE
  5
2AB
330
B
100
AcDbEntity
 67
     1
  8
1
  6
Continuous
 62
    18
100
AcDbLine
 10
5.524291999999999
 20
3.809086
 30
0.0
 11
5.509189
 21
3.809086
 31
0.0
  0
LINE
  5
2AC
330
B
100
AcDbEntity
 67
     1
  8
1
  6
Continuous
 62
    18
100
AcDbLine
 10
2.919950999999999
 20
6.797599
 30
0.0
 11
2.919950999999999
 21
6.799389999999999
 31
0.0
  0
LINE
  5
2AD
330
B
100
AcDbEntity
 67
     1
  8
1
  6
Continuous
 62
    18
100
AcDbLine
 10
2.714672
 20
6.641542999999999
 30
0.0
 11
2.714653999999999
 21
6.641542999999999
 31
0.0
  0
LINE
  5
2AE
330
B
100
AcDbEntity
 67
     1
  8
1
  6
Continuous
 62
    18
100
AcDbLine
 10
5.369241
 20
3.719085999999999
 30
0.0
 11
5.37424
 21
3.719085999999999
 31
0.0
  0
LINE
  5
2AF
330
B
100
AcDbEntity
 67
     1
  8
1
  6
Continuous
 62
    18
100
AcDbLine
 10
6.064292
 20
3.809086
 30
0.0
 11
6.06898
 21
3.809086
 31
0.0
  0
LINE
  5
2B0
330
B
100
AcDbEntity
 67
     1
  8
1
  6
Continuous
 62
    18
100
AcDbLine
 10
2.939950999999999
 20
6.846542999999999
 30
0.0
 11
2.939950999999999
 21
6.836542999999998
 31
0.0
  0
LINE
  5
2B1
330
B
100
AcDbEntity
 67
     1
  8
1
  6
Continuous
 62
    18
100
AcDbLine
 10
2.63531
 20
6.641542999999999
 30
0.0
 11
2.664950999999999
 21
6.641542999999999
 31
0.0
  0
LINE
  5
2B2
330
B
100
AcDbEntity
 67
     1
  8
1
  6
Continuous
 62
    18
100
AcDbLine
 10
5.719241
 20
3.931586
 30
0.0
 11
5.74924
 21
3.961586
 31
0.0
  0
LINE
  5
2B3
330
B
100
AcDbEntity
 67
     1
  8
1
  6
Continuous
 62
    18
100
AcDbLine
 10
2.366006999999999
 20
6.641542999999999
 30
0.0
 11
2.367798
 21
6.641542999999999
 31
0.0
  0
LINE
  5
2B4
330
B
100
AcDbEntity
 67
     1
  8
1
  6
Continuous
 62
    18
100
AcDbLine
 10
2.609950999999999
 20
6.879235
 30
0.0
 11
2.609950999999999
 21
6.876183999999999
 31
0.0
  0
LINE
  5
2B5
330
B
100
AcDbEntity
 67
     1
  8
1
  6
Continuous
 62
    18
100
AcDbLine
 10
5.073438999999999
 20
3.779085999999999
 30
0.0
 11
5.066741
 21
3.779085999999999
 31
0.0
  0
LINE
  5
2B6
330
B
100
AcDbEntity
 67
     1
  8
1
  6
Continuous
 62
    18
100
AcDbLine
 10
5.694083999999999
 20
3.809086
 30
0.0
 11
5.70398
 21
3.809086
 31
0.0
  0
LINE
  5
2B7
330
B
100
AcDbEntity
 67
     1
  8
1
  6
Continuous
 62
    18
100
AcDbLine
 10
2.089950999999999
 20
6.759414999999999
 30
0.0
 11
2.089950999999999
 21
6.923671
 31
0.0
  0
LINE
  5
2B8
330
B
100
AcDbEntity
 67
     1
  8
1
  6
Continuous
 62
    18
100
AcDbLine
 10
2.367798
 20
6.641542999999999
 30
0.0
 11
2.370426999999999
 21
6.641542999999999
 31
0.0
  0
LINE
  5
2B9
330
B
100
AcDbEntity
 67
     1
  8
1
  6
Continuous
 62
    18
100
AcDbLine
 10
5.27174
 20
3.809086
 30
0.0
 11
5.290041999999999
 21
3.809086
 31
0.0
  0
LINE
  5
2BA
330
B
100
AcDbEntity
 67
     1
  8
1
  6
Continuous
 62
    18
100
AcDbLine
 10
2.674950999999999
 20
6.461542999999999
 30
0.0
 11
2.674950999999999
 21
6.481543
 31
0.0
  0
LINE
  5
2BB
330
B
100
AcDbEntity
 67
     1
  8
1
  6
Continuous
 62
    18
100
AcDbLine
 10
2.162950999999999
 20
3.750836
 30
0.0
 11
2.912950999999999
 21
3.750836
 31
0.0
  0
LINE
  5
2BC
330
B
100
AcDbEntity
 67
     1
  8
1
  6
Continuous
 62
    18
100
AcDbLine
 10
6.049189
 20
3.809086
 30
0.0
 11
6.044501
 21
3.809086
 31
0.0
  0
LINE
  5
2BD
330
B
100
AcDbEntity
 67
     1
  8
1
  6
Continuous
 62
    18
100
AcDbLine
 10
2.851325999999999
 20
6.486282
 30
0.0
 11
2.866429999999999
 21
6.486282
 31
0.0
  0
LINE
  5
2BE
330
B
100
AcDbEntity
 67
     1
  8
1
  6
Continuous
 62
    18
100
AcDbLine
 10
4.73174
 20
3.776835999999999
 30
0.0
 11
4.86207
 21
3.781387
 31
0.0
  0
LINE
  5
2BF
330
B
100
AcDbEntity
 67
     1
  8
1
  6
Continuous
 62
    18
100
AcDbLine
 10
2.714672
 20
6.491543
 30
0.0
 11
2.714653999999999
 21
6.491543
 31
0.0
  0
LINE
  5
2C0
330
B
100
AcDbEntity
 67
     1
  8
1
  6
Continuous
 62
    18
100
AcDbLine
 10
2.444591999999999
 20
6.641542999999999
 30
0.0
 11
2.445443
 21
6.641542999999999
 31
0.0
  0
LINE
  5
2C1
330
B
100
AcDbEntity
 67
     1
  8
1
  6
Continuous
 62
    18
100
AcDbLine
 10
2.811675999999999
 20
3.880348
 30
0.0
 11
2.842886
 21
4.057348
 31
0.0
  0
LINE
  5
2C2
330
B
100
AcDbEntity
 67
     1
  8
1
  6
Continuous
 62
    18
100
AcDbLine
 10
5.116741
 20
3.809086
 30
0.0
 11
5.116741
 21
3.779085999999999
 31
0.0
  0
LINE
  5
2C3
330
B
100
AcDbEntity
 67
     1
  8
1
  6
Continuous
 62
    18
100
AcDbLine
 10
1.720100999999999
 20
6.058389
 30
0.0
 11
1.755100999999999
 21
6.058389
 31
0.0
  0
LINE
  5
2C4
330
B
100
AcDbEntity
 67
     1
  8
1
  6
Continuous
 62
    18
100
AcDbLine
 10
5.250086
 20
3.828421
 30
0.0
 11
5.250086
 21
4.125251
 31
0.0
  0
LINE
  5
2C5
330
B
100
AcDbEntity
 67
     1
  8
1
  6
Continuous
 62
    18
100
AcDbLine
 10
2.63531
 20
6.491543
 30
0.0
 11
2.664950999999999
 21
6.491543
 31
0.0
  0
LINE
  5
2C6
330
B
100
AcDbEntity
 67
     1
  8
1
  6
Continuous
 62
    18
100
AcDbLine
 10
5.894239999999999
 20
3.719085999999999
 30
0.0
 11
5.889241
 21
3.719085999999999
 31
0.0
  0
LINE
  5
2C7
330
B
100
AcDbEntity
 67
     1
  8
1
  6
Continuous
 62
    18
100
AcDbLine
 10
5.639241
 20
3.931586
 30
0.0
 11
5.719241
 21
3.931586
 31
0.0
  0
LINE
  5
2C8
330
B
100
AcDbEntity
 67
     1
  8
1
  6
Continuous
 62
    18
100
AcDbLine
 10
2.444591999999999
 20
6.641542999999999
 30
0.0
 11
2.414950999999999
 21
6.641542999999999
 31
0.0
  0
LINE
  5
2C9
330
B
100
AcDbEntity
 67
     1
  8
1
  6
Continuous
 62
    18
100
AcDbLine
 10
2.074721999999999
 20
6.481594999999999
 30
0.0
 11
2.07993
 21
6.466491
 31
0.0
  0
LINE
  5
2CA
330
B
100
AcDbEntity
 67
     1
  8
1
  6
Continuous
 62
    18
100
AcDbLine
 10
2.587822999999999
 20
6.711542999999998
 30
0.0
 11
2.544950999999999
 21
6.711542999999998
 31
0.0
  0
LINE
  5
2CB
330
B
100
AcDbEntity
 67
     1
  8
1
  6
Continuous
 62
    18
100
AcDbLine
 10
2.169950999999999
 20
6.799389999999999
 30
0.0
 11
2.169950999999999
 21
6.802019
 31
0.0
  0
LINE
  5
2CC
330
B
100
AcDbEntity
 67
     1
  8
1
  6
Continuous
 62
    18
100
AcDbLine
 10
4.967957
 20
3.779085999999999
 30
0.0
 11
4.968205
 21
3.770980999999999
 31
0.0
  0
LINE
  5
2CD
330
B
100
AcDbEntity
 67
     1
  8
1
  6
Continuous
 62
    18
100
AcDbLine
 10
2.459950999999999
 20
6.836542999999998
 30
0.0
 11
2.459950999999999
 21
6.806902
 31
0.0
  0
LINE
  5
2CE
330
B
100
AcDbEntity
 67
     1
  8
1
  6
Continuous
 62
    18
100
AcDbLine
 10
4.621739999999999
 20
4.067947
 30
0.0
 11
4.621739999999999
 21
4.069735999999999
 31
0.0
  0
LINE
  5
2CF
330
B
100
AcDbEntity
 67
     1
  8
1
  6
Continuous
 62
    18
100
AcDbLine
 10
3.320012999999999
 20
3.776835999999999
 30
0.0
 11
3.314354
 21
3.776835999999999
 31
0.0
  0
LINE
  5
2D0
330
B
100
AcDbEntity
 67
     1
  8
1
  6
Continuous
 62
    18
100
AcDbLine
 10
2.534950999999999
 20
6.261542999999999
 30
0.0
 11
2.492078999999999
 21
6.261542999999999
 31
0.0
  0
LINE
  5
2D1
330
B
100
AcDbEntity
 67
     1
  8
1
  6
Continuous
 62
    18
100
AcDbLine
 10
2.169950999999999
 20
6.876183999999999
 30
0.0
 11
2.169950999999999
 21
6.877035
 31
0.0
  0
LINE
  5
2D2
330
B
100
AcDbEntity
 67
     1
  8
1
  6
Continuous
 62
    18
100
AcDbLine
 10
4.922616999999999
 20
3.734086
 30
0.0
 11
4.919398999999999
 21
3.743495999999999
 31
0.0
  0
LINE
  5
2D3
330
B
100
AcDbEntity
 67
     1
  8
1
  6
Continuous
 62
    18
100
AcDbLine
 10
2.469951
 20
6.883185
 30
0.0
 11
2.469951
 21
6.884564
 31
0.0
  0
LINE
  5
2D4
330
B
100
AcDbEntity
 67
     1
  8
1
  6
Continuous
 62
    18
100
AcDbLine
 10
2.114825999999999
 20
6.481594999999999
 30
0.0
 11
2.114304999999999
 21
6.491491
 31
0.0
  0
LINE
  5
2D5
330
B
100
AcDbEntity
 67
     1
  8
1
  6
Continuous
 62
    18
100
AcDbLine
 10
5.53924
 20
3.719085999999999
 30
0.0
 11
5.53924
 21
3.779085999999999
 31
0.0
  0
LINE
  5
2D6
330
B
100
AcDbEntity
 67
     1
  8
1
  6
Continuous
 62
    18
100
AcDbLine
 10
2.941641999999999
 20
3.780835999999999
 30
0.0
 11
2.941641999999999
 21
3.923524
 31
0.0
  0
LINE
  5
2D7
330
B
100
AcDbEntity
 67
     1
  8
1
  6
Continuous
 62
    18
100
AcDbLine
 10
4.569241
 20
4.053528
 30
0.0
 11
4.569241
 21
4.077144
 31
0.0
  0
LINE
  5
2D8
330
B
100
AcDbEntity
 67
     1
  8
1
  6
Continuous
 62
    18
100
AcDbLine
 10
2.459950999999999
 20
6.88553
 30
0.0
 11
2.459950999999999
 21
6.884564
 31
0.0
  0
LINE
  5
2D9
330
B
100
AcDbEntity
 67
     1
  8
1
  6
Continuous
 62
    18
100
AcDbLine
 10
3.068322
 20
5.539043
 30
0.0
 11
3.091613999999999
 21
5.539043
 31
0.0
  0
LINE
  5
2DA
330
B
100
AcDbEntity
 67
     1
  8
1
  6
Continuous
 62
    18
100
AcDbLine
 10
2.375309999999999
 20
6.481543
 30
0.0
 11
2.372475999999999
 21
6.481543
 31
0.0
  0
LINE
  5
2DB
330
B
100
AcDbEntity
 67
     1
  8
1
  6
Continuous
 62
    18
100
AcDbLine
 10
4.88374
 20
4.149086
 30
0.0
 11
4.88374
 21
4.174085999999999
 31
0.0
  0
LINE
  5
2DC
330
B
100
AcDbEntity
 67
     1
  8
1
  6
Continuous
 62
    18
100
AcDbLine
 10
2.309950999999999
 20
6.836542999999998
 30
0.0
 11
2.309950999999999
 21
6.806902
 31
0.0
  0
LINE
  5
2DD
330
B
100
AcDbEntity
 67
     1
  8
1
  6
Continuous
 62
    18
100
AcDbLine
 10
2.208054999999999
 20
6.461802999999999
 30
0.0
 11
2.208054999999999
 21
6.511281999999999
 31
0.0
  0
LINE
  5
2DE
330
B
100
AcDbEntity
 67
     1
  8
1
  6
Continuous
 62
    18
100
AcDbLine
 10
2.334481999999999
 20
7.046594999999999
 30
0.0
 11
2.325107
 21
7.051282
 31
0.0
  0
LINE
  5
2DF
330
B
100
AcDbEntity
 67
     1
  8
1
  6
Continuous
 62
    18
100
AcDbLine
 10
1.759272999999999
 20
4.138800999999999
 30
0.0
 11
1.755100999999999
 21
4.130454
 31
0.0
  0
LINE
  5
2E0
330
B
100
AcDbEntity
 67
     1
  8
1
  6
Continuous
 62
    18
100
AcDbLine
 10
2.714315
 20
6.331542999999999
 30
0.0
 11
2.714672
 21
6.331542999999999
 31
0.0
  0
LINE
  5
2E1
330
B
100
AcDbEntity
 67
     1
  8
1
  6
Continuous
 62
    18
100
AcDbLine
 10
2.451592999999999
 20
6.491543
 30
0.0
 11
2.452971999999999
 21
6.491543
 31
0.0
  0
LINE
  5
2E2
330
B
100
AcDbEntity
 67
     1
  8
1
  6
Continuous
 62
    18
100
AcDbLine
 10
2.319950999999999
 20
6.883185
 30
0.0
 11
2.319950999999999
 21
6.884564
 31
0.0
  0
LINE
  5
2E3
330
B
100
AcDbEntity
 67
     1
  8
1
  6
Continuous
 62
    18
100
AcDbLine
 10
2.025554999999999
 20
6.461802999999999
 30
0.0
 11
2.025554999999999
 21
6.511281999999999
 31
0.0
  0
LINE
  5
2E4
330
B
100
AcDbEntity
 67
     1
  8
1
  6
Continuous
 62
    18
100
AcDbLine
 10
2.294899
 20
7.046594999999999
 30
0.0
 11
2.294899
 21
7.031490999999999
 31
0.0
  0
LINE
  5
2E5
330
B
100
AcDbEntity
 67
     1
  8
1
  6
Continuous
 62
    18
100
AcDbLine
 10
2.309950999999999
 20
6.886263999999999
 30
0.0
 11
2.309950999999999
 21
6.886252
 31
0.0
  0
LINE
  5
2E6
330
B
100
AcDbEntity
 67
     1
  8
1
  6
Continuous
 62
    18
100
AcDbLine
 10
2.769950999999999
 20
6.799389999999999
 30
0.0
 11
2.769950999999999
 21
6.802019
 31
0.0
  0
LINE
  5
2E7
330
B
100
AcDbEntity
 67
     1
  8
1
  6
Continuous
 62
    18
100
AcDbLine
 10
1.755888999999999
 20
4.176835999999999
 30
0.0
 11
1.757027
 21
4.172284999999999
 31
0.0
  0
LINE
  5
2E8
330
B
100
AcDbEntity
 67
     1
  8
1
  6
Continuous
 62
    18
100
AcDbLine
 10
2.664950999999999
 20
6.311543
 30
0.0
 11
2.674950999999999
 21
6.311543
 31
0.0
  0
LINE
  5
2E9
330
B
100
AcDbEntity
 67
     1
  8
1
  6
Continuous
 62
    18
100
AcDbLine
 10
2.453937999999999
 20
6.481543
 30
0.0
 11
2.452971999999999
 21
6.481543
 31
0.0
  0
LINE
  5
2EA
330
B
100
AcDbEntity
 67
     1
  8
1
  6
Continuous
 62
    18
100
AcDbLine
 10
1.988471999999999
 20
4.072533999999999
 30
0.0
 11
1.979813
 21
4.067534999999999
 31
0.0
  0
LINE
  5
2EB
330
B
100
AcDbEntity
 67
     1
  8
1
  6
Continuous
 62
    18
100
AcDbLine
 10
2.629256999999999
 20
6.481543
 30
0.0
 11
2.632258
 21
6.481543
 31
0.0
  0
LINE
  5
2EC
330
B
100
AcDbEntity
 67
     1
  8
1
  6
Continuous
 62
    18
100
AcDbLine
 10
1.931141
 20
3.981834999999999
 30
0.0
 11
1.946377999999999
 21
4.008226999999999
 31
0.0
  0
LINE
  5
2ED
330
B
100
AcDbEntity
 67
     1
  8
1
  6
Continuous
 62
    18
100
AcDbLine
 10
2.365229999999999
 20
6.341542999999999
 30
0.0
 11
2.365247999999999
 21
6.341542999999999
 31
0.0
  0
LINE
  5
2EE
330
B
100
AcDbEntity
 67
     1
  8
1
  6
Continuous
 62
    18
100
AcDbLine
 10
2.797245999999999
 20
5.526543
 30
0.0
 11
2.797245999999999
 21
5.689042999999999
 31
0.0
  0
LINE
  5
2EF
330
B
100
AcDbEntity
 67
     1
  8
1
  6
Continuous
 62
    18
100
AcDbLine
 10
4.621739999999999
 20
3.883335999999999
 30
0.0
 11
4.73174
 21
3.883335999999999
 31
0.0
  0
LINE
  5
2F0
330
B
100
AcDbEntity
 67
     1
  8
1
  6
Continuous
 62
    18
100
AcDbLine
 10
3.087026999999999
 20
4.071836
 30
0.0
 11
3.095685
 21
4.066836
 31
0.0
  0
LINE
  5
2F1
330
B
100
AcDbEntity
 67
     1
  8
1
  6
Continuous
 62
    18
100
AcDbLine
 10
5.45924
 20
3.961586
 30
0.0
 11
5.45924
 21
3.851586
 31
0.0
  0
LINE
  5
2F2
330
B
100
AcDbEntity
 67
     1
  8
1
  6
Continuous
 62
    18
100
AcDbLine
 10
2.280316999999999
 20
4.111335999999999
 30
0.0
 11
2.799584999999999
 21
4.111335999999999
 31
0.0
  0
LINE
  5
2F3
330
B
100
AcDbEntity
 67
     1
  8
1
  6
Continuous
 62
    18
100
AcDbLine
 10
2.609950999999999
 20
6.797178999999998
 30
0.0
 11
2.609950999999999
 21
6.796821999999999
 31
0.0
  0
LINE
  5
2F4
330
B
100
AcDbEntity
 67
     1
  8
1
  6
Continuous
 62
    18
100
AcDbLine
 10
2.119499
 20
3.912827999999999
 30
0.0
 11
2.119095999999999
 21
3.913526999999999
 31
0.0
  0
LINE
  5
2F5
330
B
100
AcDbEntity
 67
     1
  8
1
  6
Continuous
 62
    18
100
AcDbLine
 10
2.414950999999999
 20
6.341542999999999
 30
0.0
 11
2.414950999999999
 21
6.361543
 31
0.0
  0
LINE
  5
2F6
330
B
100
AcDbEntity
 67
     1
  8
1
  6
Continuous
 62
    18
100
AcDbLine
 10
2.769950999999999
 20
6.836542999999998
 30
0.0
 11
2.789950999999999
 21
6.836542999999998
 31
0.0
  0
LINE
  5
2F7
330
B
100
AcDbEntity
 67
     1
  8
1
  6
Continuous
 62
    18
100
AcDbLine
 10
5.355281999999999
 20
3.809086
 30
0.0
 11
5.404760999999999
 21
3.809086
 31
0.0
  0
LINE
  5
2F8
330
B
100
AcDbEntity
 67
     1
  8
1
  6
Continuous
 62
    18
100
AcDbLine
 10
2.304794999999999
 20
7.051282
 30
0.0
 11
2.294899
 21
7.046594999999999
 31
0.0
  0
LINE
  5
2F9
330
B
100
AcDbEntity
 67
     1
  8
1
  6
Continuous
 62
    18
100
AcDbLine
 10
5.684239999999999
 20
3.719085999999999
 30
0.0
 11
5.689239999999999
 21
3.719085999999999
 31
0.0
  0
LINE
  5
2FA
330
B
100
AcDbEntity
 67
     1
  8
1
  6
Continuous
 62
    18
100
AcDbLine
 10
2.414950999999999
 20
6.311543
 30
0.0
 11
2.404951
 21
6.311543
 31
0.0
  0
LINE
  5
2FB
330
B
100
AcDbEntity
 67
     1
  8
1
  6
Continuous
 62
    18
100
AcDbLine
 10
2.739951
 20
6.846542999999999
 30
0.0
 11
2.759951
 21
6.846542999999999
 31
0.0
  0
LINE
  5
2FC
330
B
100
AcDbEntity
 67
     1
  8
1
  6
Continuous
 62
    18
100
AcDbLine
 10
5.55398
 20
3.809086
 30
0.0
 11
5.544084999999999
 21
3.809086
 31
0.0
  0
LINE
  5
2FD
330
B
100
AcDbEntity
 67
     1
  8
1
  6
Continuous
 62
    18
100
AcDbLine
 10
2.919950999999999
 20
6.799389999999999
 30
0.0
 11
2.919950999999999
 21
6.802019
 31
0.0
  0
LINE
  5
2FE
330
B
100
AcDbEntity
 67
     1
  8
1
  6
Continuous
 62
    18
100
AcDbLine
 10
2.714653999999999
 20
6.641542999999999
 30
0.0
 11
2.713894999999999
 21
6.641542999999999
 31
0.0
  0
LINE
  5
2FF
330
B
100
AcDbEntity
 67
     1
  8
1
  6
Continuous
 62
    18
100
AcDbLine
 10
5.37424
 20
3.719085999999999
 30
0.0
 11
5.384241
 21
3.719085999999999
 31
0.0
  0
LINE
  5
300
330
B
100
AcDbEntity
 67
     1
  8
1
  6
Continuous
 62
    18
100
AcDbLine
 10
2.919950999999999
 20
6.876183999999999
 30
0.0
 11
2.919950999999999
 21
6.877035
 31
0.0
  0
LINE
  5
301
330
B
100
AcDbEntity
 67
     1
  8
1
  6
Continuous
 62
    18
100
AcDbLine
 10
2.664950999999999
 20
6.641542999999999
 30
0.0
 11
2.664950999999999
 21
6.661542999999999
 31
0.0
  0
LINE
  5
302
330
B
100
AcDbEntity
 67
     1
  8
1
  6
Continuous
 62
    18
100
AcDbLine
 10
2.589950999999999
 20
6.836542999999998
 30
0.0
 11
2.609950999999999
 21
6.836542999999998
 31
0.0
  0
LINE
  5
303
330
B
100
AcDbEntity
 67
     1
  8
1
  6
Continuous
 62
    18
100
AcDbLine
 10
6.099241
 20
3.779085999999999
 30
0.0
 11
6.092541999999999
 21
3.779085999999999
 31
0.0
  0
LINE
  5
304
330
B
100
AcDbEntity
 67
     1
  8
1
  6
Continuous
 62
    18
100
AcDbLine
 10
2.238002999999999
 20
6.656594999999999
 30
0.0
 11
2.228107
 21
6.661283
 31
0.0
  0
LINE
  5
305
330
B
100
AcDbEntity
 67
     1
  8
1
  6
Continuous
 62
    18
100
AcDbLine
 10
5.509189
 20
3.809086
 30
0.0
 11
5.504501
 21
3.809086
 31
0.0
  0
LINE
  5
306
330
B
100
AcDbEntity
 67
     1
  8
1
  6
Continuous
 62
    18
100
AcDbLine
 10
2.055450999999999
 20
5.539043
 30
0.0
 11
2.084322
 21
5.539043
 31
0.0
  0
LINE
  5
307
330
B
100
AcDbEntity
 67
     1
  8
1
  6
Continuous
 62
    18
100
AcDbLine
 10
5.066741
 20
3.779085999999999
 30
0.0
 11
5.060042
 21
3.779085999999999
 31
0.0
  0
LINE
  5
308
330
B
100
AcDbEntity
 67
     1
  8
1
  6
Continuous
 62
    18
100
AcDbLine
 10
5.70398
 20
3.809086
 30
0.0
 11
5.699292999999999
 21
3.809086
 31
0.0
  0
LINE
  5
309
330
B
100
AcDbEntity
 67
     1
  8
1
  6
Continuous
 62
    18
100
AcDbLine
 10
5.679501
 20
3.809086
 30
0.0
 11
5.674292999999999
 21
3.809086
 31
0.0
  0
LINE
  5
30A
330
B
100
AcDbEntity
 67
     1
  8
1
  6
Continuous
 62
    18
100
AcDbLine
 10
2.370426999999999
 20
6.641542999999999
 30
0.0
 11
2.373613999999999
 21
6.641542999999999
 31
0.0
  0
LINE
  5
30B
330
B
100
AcDbEntity
 67
     1
  8
1
  6
Continuous
 62
    18
100
AcDbLine
 10
5.549292999999999
 20
3.809086
 30
0.0
 11
5.55398
 21
3.809086
 31
0.0
  0
LINE
  5
30C
330
B
100
AcDbEntity
 67
     1
  8
1
  6
Continuous
 62
    18
100
AcDbLine
 10
5.290041999999999
 20
3.809086
 30
0.0
 11
5.296740999999999
 21
3.809086
 31
0.0
  0
LINE
  5
30D
330
B
100
AcDbEntity
 67
     1
  8
1
  6
Continuous
 62
    18
100
AcDbLine
 10
2.664950999999999
 20
6.461542999999999
 30
0.0
 11
2.674950999999999
 21
6.461542999999999
 31
0.0
  0
LINE
  5
30E
330
B
100
AcDbEntity
 67
     1
  8
1
  6
Continuous
 62
    18
100
AcDbLine
 10
2.143419999999999
 20
6.361282
 30
0.0
 11
2.143419999999999
 21
6.311803
 31
0.0
  0
LINE
  5
30F
330
B
100
AcDbEntity
 67
     1
  8
1
  6
Continuous
 62
    18
100
AcDbLine
 10
4.919398999999999
 20
3.532473999999999
 30
0.0
 11
4.828219999999999
 21
3.531677999999999
 31
0.0
  0
LINE
  5
310
330
B
100
AcDbEntity
 67
     1
  8
1
  6
Continuous
 62
    18
100
AcDbLine
 10
2.714653999999999
 20
6.491543
 30
0.0
 11
2.713894999999999
 21
6.491543
 31
0.0
  0
LINE
  5
311
330
B
100
AcDbEntity
 67
     1
  8
1
  6
Continuous
 62
    18
100
AcDbLine
 10
2.445443
 20
6.641542999999999
 30
0.0
 11
2.448765999999999
 21
6.641542999999999
 31
0.0
  0
LINE
  5
312
330
B
100
AcDbEntity
 67
     1
  8
1
  6
Continuous
 62
    18
100
AcDbLine
 10
5.066741
 20
3.809086
 30
0.0
 11
5.066741
 21
3.779085999999999
 31
0.0
  0
LINE
  5
313
330
B
100
AcDbEntity
 67
     1
  8
1
  6
Continuous
 62
    18
100
AcDbLine
 10
1.758272
 20
5.876701999999999
 30
0.0
 11
1.755100999999999
 21
6.058389
 31
0.0
  0
LINE
  5
314
330
B
100
AcDbEntity
 67
     1
  8
1
  6
Continuous
 62
    18
100
AcDbLine
 10
2.664950999999999
 20
6.491543
 30
0.0
 11
2.664950999999999
 21
6.511542999999999
 31
0.0
  0
LINE
  5
315
330
B
100
AcDbEntity
 67
     1
  8
1
  6
Continuous
 62
    18
100
AcDbLine
 10
2.454671999999999
 20
6.631542999999999
 30
0.0
 11
2.45466
 21
6.631542999999999
 31
0.0
  0
LINE
  5
316
330
B
100
AcDbEntity
 67
     1
  8
1
  6
Continuous
 62
    18
100
AcDbLine
 10
2.589950999999999
 20
6.846542999999999
 30
0.0
 11
2.609950999999999
 21
6.846542999999999
 31
0.0
  0
LINE
  5
317
330
B
100
AcDbEntity
 67
     1
  8
1
  6
Continuous
 62
    18
100
AcDbLine
 10
4.581739999999999
 20
4.067947
 30
0.0
 11
4.581739999999999
 21
4.057731999999999
 31
0.0
  0
LINE
  5
318
330
B
100
AcDbEntity
 67
     1
  8
1
  6
Continuous
 62
    18
100
AcDbLine
 10
2.013450999999999
 20
4.067947
 30
0.0
 11
2.013450999999999
 21
4.035701999999999
 31
0.0
  0
LINE
  5
319
330
B
100
AcDbEntity
 67
     1
  8
1
  6
Continuous
 62
    18
100
AcDbLine
 10
2.304794999999999
 20
7.026282000000001
 30
0.0
 11
2.319899
 21
7.026282000000001
 31
0.0
  0
LINE
  5
31A
330
B
100
AcDbEntity
 67
     1
  8
1
  6
Continuous
 62
    18
100
AcDbLine
 10
2.544950999999999
 20
6.711542999999998
 30
0.0
 11
2.544950999999999
 21
6.261542999999999
 31
0.0
  0
LINE
  5
31B
330
B
100
AcDbEntity
 67
     1
  8
1
  6
Continuous
 62
    18
100
AcDbLine
 10
2.169950999999999
 20
6.802019
 30
0.0
 11
2.169950999999999
 21
6.805206
 31
0.0
  0
LINE
  5
31C
330
B
100
AcDbEntity
 67
     1
  8
1
  6
Continuous
 62
    18
100
AcDbLine
 10
2.459950999999999
 20
6.806902
 30
0.0
 11
2.459950999999999
 21
6.804067999999999
 31
0.0
  0
LINE
  5
31D
330
B
100
AcDbEntity
 67
     1
  8
1
  6
Continuous
 62
    18
100
AcDbLine
 10
4.621739999999999
 20
4.069735999999999
 30
0.0
 11
4.621739999999999
 21
4.070336
 31
0.0
  0
LINE
  5
31E
330
B
100
AcDbEntity
 67
     1
  8
1
  6
Continuous
 62
    18
100
AcDbLine
 10
2.997450999999999
 20
3.917969
 30
0.0
 11
2.997450999999999
 21
3.885724999999999
 31
0.0
  0
LINE
  5
31F
330
B
100
AcDbEntity
 67
     1
  8
1
  6
Continuous
 62
    18
100
AcDbLine
 10
3.314354
 20
3.776835999999999
 30
0.0
 11
3.314354
 21
4.176835999999999
 31
0.0
  0
LINE
  5
320
330
B
100
AcDbEntity
 67
     1
  8
1
  6
Continuous
 62
    18
100
AcDbLine
 10
2.534950999999999
 20
6.711542999999998
 30
0.0
 11
2.534950999999999
 21
6.261542999999999
 31
0.0
  0
LINE
  5
321
330
B
100
AcDbEntity
 67
     1
  8
1
  6
Continuous
 62
    18
100
AcDbLine
 10
2.169950999999999
 20
6.877035
 30
0.0
 11
2.169950999999999
 21
6.880358
 31
0.0
  0
LINE
  5
322
330
B
100
AcDbEntity
 67
     1
  8
1
  6
Continuous
 62
    18
100
AcDbLine
 10
4.916433999999999
 20
3.752165
 30
0.0
 11
4.916380999999999
 21
3.752320999999999
 31
0.0
  0
LINE
  5
323
330
B
100
AcDbEntity
 67
     1
  8
1
  6
Continuous
 62
    18
100
AcDbLine
 10
2.469951
 20
6.884564
 30
0.0
 11
2.469951
 21
6.885941
 31
0.0
  0
LINE
  5
324
330
B
100
AcDbEntity
 67
     1
  8
1
  6
Continuous
 62
    18
100
AcDbLine
 10
2.175107
 20
7.026282000000001
 30
0.0
 11
2.184482
 21
7.021594999999999
 31
0.0
  0
LINE
  5
325
330
B
100
AcDbEntity
 67
     1
  8
1
  6
Continuous
 62
    18
100
AcDbLine
 10
2.941641999999999
 20
4.030148
 30
0.0
 11
2.941641999999999
 21
4.172836
 31
0.0
  0
LINE
  5
326
330
B
100
AcDbEntity
 67
     1
  8
1
  6
Continuous
 62
    18
100
AcDbLine
 10
4.569241
 20
4.077144
 30
0.0
 11
4.569241
 21
4.099336
 31
0.0
  0
LINE
  5
327
330
B
100
AcDbEntity
 67
     1
  8
1
  6
Continuous
 62
    18
100
AcDbLine
 10
2.459950999999999
 20
6.884564
 30
0.0
 11
2.459950999999999
 21
6.882236999999999
 31
0.0
  0
LINE
  5
328
330
B
100
AcDbEntity
 67
     1
  8
1
  6
Continuous
 62
    18
100
AcDbLine
 10
2.852055
 20
6.312583999999999
 30
0.0
 11
2.852055
 21
6.362064
 31
0.0
  0
LINE
  5
329
330
B
100
AcDbEntity
 67
     1
  8
1
  6
Continuous
 62
    18
100
AcDbLine
 10
1.757027
 20
3.781387
 30
0.0
 11
1.755888999999999
 21
3.776835999999999
 31
0.0
  0
LINE
  5
32A
330
B
100
AcDbEntity
 67
     1
  8
1
  6
Continuous
 62
    18
100
AcDbLine
 10
2.080950999999999
 20
6.254043
 30
0.0
 11
1.980950999999999
 21
6.254043
 31
0.0
  0
LINE
  5
32B
330
B
100
AcDbEntity
 67
     1
  8
1
  6
Continuous
 62
    18
100
AcDbLine
 10
6.064292
 20
3.809086
 30
0.0
 11
6.049189
 21
3.809086
 31
0.0
  0
LINE
  5
32C
330
B
100
AcDbEntity
 67
     1
  8
1
  6
Continuous
 62
    18
100
AcDbLine
 10
2.372475999999999
 20
6.481543
 30
0.0
 11
2.369399
 21
6.481543
 31
0.0
  0
LINE
  5
32D
330
B
100
AcDbEntity
 67
     1
  8
1
  6
Continuous
 62
    18
100
AcDbLine
 10
2.309950999999999
 20
6.806902
 30
0.0
 11
2.309950999999999
 21
6.804067999999999
 31
0.0
  0
LINE
  5
32E
330
B
100
AcDbEntity
 67
     1
  8
1
  6
Continuous
 62
    18
100
AcDbLine
 10
2.185003
 20
7.046074
 30
0.0
 11
2.175107
 21
7.051282
 31
0.0
  0
LINE
  5
32F
330
B
100
AcDbEntity
 67
     1
  8
1
  6
Continuous
 62
    18
100
AcDbLine
 10
2.089825999999999
 20
6.461802999999999
 30
0.0
 11
2.099722
 21
6.461802999999999
 31
0.0
  0
LINE
  5
330
330
B
100
AcDbEntity
 67
     1
  8
1
  6
Continuous
 62
    18
100
AcDbLine
 10
3.320801
 20
4.130454
 30
0.0
 11
3.316629
 21
4.138800999999999
 31
0.0
  0
LINE
  5
331
330
B
100
AcDbEntity
 67
     1
  8
1
  6
Continuous
 62
    18
100
AcDbLine
 10
2.452971999999999
 20
6.491543
 30
0.0
 11
2.454349
 21
6.491543
 31
0.0
  0
LINE
  5
332
330
B
100
AcDbEntity
 67
     1
  8
1
  6
Continuous
 62
    18
100
AcDbLine
 10
4.981951999999999
 20
3.734086
 30
0.0
 11
4.966801999999999
 21
3.734086
 31
0.0
  0
LINE
  5
333
330
B
100
AcDbEntity
 67
     1
  8
1
  6
Continuous
 62
    18
100
AcDbLine
 10
2.319950999999999
 20
6.884564
 30
0.0
 11
2.319950999999999
 21
6.885941
 31
0.0
  0
LINE
  5
334
330
B
100
AcDbEntity
 67
     1
  8
1
  6
Continuous
 62
    18
100
AcDbLine
 10
2.325107
 20
7.051282
 30
0.0
 11
2.304794999999999
 21
7.051282
 31
0.0
  0
LINE
  5
335
330
B
100
AcDbEntity
 67
     1
  8
1
  6
Continuous
 62
    18
100
AcDbLine
 10
2.824951
 20
6.256542999999999
 30
0.0
 11
2.824951
 21
6.266543
 31
0.0
  0
LINE
  5
336
330
B
100
AcDbEntity
 67
     1
  8
1
  6
Continuous
 62
    18
100
AcDbLine
 10
2.309950999999999
 20
6.886252
 30
0.0
 11
2.309950999999999
 21
6.88553
 31
0.0
  0
LINE
  5
337
330
B
100
AcDbEntity
 67
     1
  8
1
  6
Continuous
 62
    18
100
AcDbLine
 10
2.162950999999999
 20
3.750836
 30
0.0
 11
2.162950999999999
 21
3.752144999999999
 31
0.0
  0
LINE
  5
338
330
B
100
AcDbEntity
 67
     1
  8
1
  6
Continuous
 62
    18
100
AcDbLine
 10
1.979813
 20
3.886137
 30
0.0
 11
1.988471999999999
 21
3.881137999999999
 31
0.0
  0
LINE
  5
339
330
B
100
AcDbEntity
 67
     1
  8
1
  6
Continuous
 62
    18
100
AcDbLine
 10
5.67898
 20
3.809086
 30
0.0
 11
5.654500999999999
 21
3.809086
 31
0.0
  0
LINE
  5
33A
330
B
100
AcDbEntity
 67
     1
  8
1
  6
Continuous
 62
    18
100
AcDbLine
 10
2.452971999999999
 20
6.481543
 30
0.0
 11
2.450645
 21
6.481543
 31
0.0
  0
LINE
  5
33B
330
B
100
AcDbEntity
 67
     1
  8
1
  6
Continuous
 62
    18
100
AcDbLine
 10
5.719241
 20
3.881586
 30
0.0
 11
5.639241
 21
3.881586
 31
0.0
  0
LINE
  5
33C
330
B
100
AcDbEntity
 67
     1
  8
1
  6
Continuous
 62
    18
100
AcDbLine
 10
2.632258
 20
6.481543
 30
0.0
 11
2.63531
 21
6.481543
 31
0.0
  0
LINE
  5
33D
330
B
100
AcDbEntity
 67
     1
  8
1
  6
Continuous
 62
    18
100
AcDbLine
 10
1.963227999999999
 20
4.037412999999999
 30
0.0
 11
1.980216
 21
4.066836
 31
0.0
  0
LINE
  5
33E
330
B
100
AcDbEntity
 67
     1
  8
1
  6
Continuous
 62
    18
100
AcDbLine
 10
2.769950999999999
 20
6.836542999999998
 30
0.0
 11
2.769950999999999
 21
6.806902
 31
0.0
  0
LINE
  5
33F
330
B
100
AcDbEntity
 67
     1
  8
1
  6
Continuous
 62
    18
100
AcDbLine
 10
2.370426999999999
 20
6.341542999999999
 30
0.0
 11
2.373613999999999
 21
6.341542999999999
 31
0.0
  0
LINE
  5
340
330
B
100
AcDbEntity
 67
     1
  8
1
  6
Continuous
 62
    18
100
AcDbLine
 10
5.599241
 20
3.961586
 30
0.0
 11
5.45924
 21
3.961586
 31
0.0
  0
LINE
  5
341
330
B
100
AcDbEntity
 67
     1
  8
1
  6
Continuous
 62
    18
100
AcDbLine
 10
2.635263
 20
7.041386999999999
 30
0.0
 11
2.634741999999999
 21
7.051282
 31
0.0
  0
LINE
  5
342
330
B
100
AcDbEntity
 67
     1
  8
1
  6
Continuous
 62
    18
100
AcDbLine
 10
2.619950999999999
 20
6.836542999999998
 30
0.0
 11
2.639950999999999
 21
6.836542999999998
 31
0.0
  0
LINE
  5
343
330
B
100
AcDbEntity
 67
     1
  8
1
  6
Continuous
 62
    18
100
AcDbLine
 10
2.103686
 20
3.886834999999999
 30
0.0
 11
2.104089
 21
3.886137
 31
0.0
  0
LINE
  5
344
330
B
100
AcDbEntity
 67
     1
  8
1
  6
Continuous
 62
    18
100
AcDbLine
 10
2.444591999999999
 20
6.341542999999999
 30
0.0
 11
2.414950999999999
 21
6.341542999999999
 31
0.0
  0
LINE
  5
345
330
B
100
AcDbEntity
 67
     1
  8
1
  6
Continuous
 62
    18
100
AcDbLine
 10
5.37898
 20
3.809086
 30
0.0
 11
5.374292999999999
 21
3.809086
 31
0.0
  0
LINE
  5
346
330
B
100
AcDbEntity
 67
     1
  8
1
  6
Continuous
 62
    18
100
AcDbLine
 10
5.569241
 20
3.931586
 30
0.0
 11
5.569241
 21
3.881586
 31
0.0
  0
LINE
  5
347
330
B
100
AcDbEntity
 67
     1
  8
1
  6
Continuous
 62
    18
100
AcDbLine
 10
2.759951
 20
6.876183999999999
 30
0.0
 11
2.759951
 21
6.846542999999999
 31
0.0
  0
LINE
  5
348
330
B
100
AcDbEntity
 67
     1
  8
1
  6
Continuous
 62
    18
100
AcDbLine
 10
2.674950999999999
 20
6.631542999999999
 30
0.0
 11
2.704591999999999
 21
6.631542999999999
 31
0.0
  0
LINE
  5
349
330
B
100
AcDbEntity
 67
     1
  8
1
  6
Continuous
 62
    18
100
AcDbLine
 10
6.074188999999999
 20
3.809086
 30
0.0
 11
6.088772
 21
3.809086
 31
0.0
  0
LINE
  5
34A
330
B
100
AcDbEntity
 67
     1
  8
1
  6
Continuous
 62
    18
100
AcDbLine
 10
2.919950999999999
 20
6.802019
 30
0.0
 11
2.919950999999999
 21
6.805206
 31
0.0
  0
LINE
  5
34B
330
B
100
AcDbEntity
 67
     1
  8
1
  6
Continuous
 62
    18
100
AcDbLine
 10
2.713894999999999
 20
6.641542999999999
 30
0.0
 11
2.712104
 21
6.641542999999999
 31
0.0
  0
LINE
  5
34C
330
B
100
AcDbEntity
 67
     1
  8
1
  6
Continuous
 62
    18
100
AcDbLine
 10
5.384241
 20
3.719085999999999
 30
0.0
 11
5.389241
 21
3.719085999999999
 31
0.0
  0
LINE
  5
34D
330
B
100
AcDbEntity
 67
     1
  8
1
  6
Continuous
 62
    18
100
AcDbLine
 10
1.975243
 20
6.465969999999999
 30
0.0
 11
1.971075999999999
 21
6.461802999999999
 31
0.0
  0
LINE
  5
34E
330
B
100
AcDbEntity
 67
     1
  8
1
  6
Continuous
 62
    18
100
AcDbLine
 10
5.40398
 20
3.809086
 30
0.0
 11
5.354500999999999
 21
3.809086
 31
0.0
  0
LINE
  5
34F
330
B
100
AcDbEntity
 67
     1
  8
1
  6
Continuous
 62
    18
100
AcDbLine
 10
2.919950999999999
 20
6.877035
 30
0.0
 11
2.919950999999999
 21
6.880358
 31
0.0
  0
LINE
  5
350
330
B
100
AcDbEntity
 67
     1
  8
1
  6
Continuous
 62
    18
100
AcDbLine
 10
2.664950999999999
 20
6.661542999999999
 30
0.0
 11
2.674950999999999
 21
6.661542999999999
 31
0.0
  0
LINE
  5
351
330
B
100
AcDbEntity
 67
     1
  8
1
  6
Continuous
 62
    18
100
AcDbLine
 10
2.589950999999999
 20
6.846542999999999
 30
0.0
 11
2.589950999999999
 21
6.836542999999998
 31
0.0
  0
LINE
  5
352
330
B
100
AcDbEntity
 67
     1
  8
1
  6
Continuous
 62
    18
100
AcDbLine
 10
6.092541999999999
 20
3.779085999999999
 30
0.0
 11
6.074241
 21
3.779085999999999
 31
0.0
  0
LINE
  5
353
330
B
100
AcDbEntity
 67
     1
  8
1
  6
Continuous
 62
    18
100
AcDbLine
 10
2.909950999999999
 20
6.886263999999999
 30
0.0
 11
2.909950999999999
 21
6.886252
 31
0.0
  0
LINE
  5
354
330
B
100
AcDbEntity
 67
     1
  8
1
  6
Continuous
 62
    18
100
AcDbLine
 10
5.060042
 20
3.779085999999999
 30
0.0
 11
5.041739999999999
 21
3.779085999999999
 31
0.0
  0
LINE
  5
355
330
B
100
AcDbEntity
 67
     1
  8
1
  6
Continuous
 62
    18
100
AcDbLine
 10
5.504501
 20
3.809086
 30
0.0
 11
5.55398
 21
3.809086
 31
0.0
  0
LINE
  5
356
330
B
100
AcDbEntity
 67
     1
  8
1
  6
Continuous
 62
    18
100
AcDbLine
 10
2.373613999999999
 20
6.641542999999999
 30
0.0
 11
2.375309999999999
 21
6.641542999999999
 31
0.0
  0
LINE
  5
357
330
B
100
AcDbEntity
 67
     1
  8
1
  6
Continuous
 62
    18
100
AcDbLine
 10
5.359448999999999
 20
3.809086
 30
0.0
 11
5.355281999999999
 21
3.809086
 31
0.0
  0
LINE
  5
358
330
B
100
AcDbEntity
 67
     1
  8
1
  6
Continuous
 62
    18
100
AcDbLine
 10
5.296740999999999
 20
3.809086
 30
0.0
 11
5.303439
 21
3.809086
 31
0.0
  0
LINE
  5
359
330
B
100
AcDbEntity
 67
     1
  8
1
  6
Continuous
 62
    18
100
AcDbLine
 10
2.132950999999999
 20
3.914336
 30
0.0
 11
2.132950999999999
 21
3.780835999999999
 31
0.0
  0
LINE
  5
35A
330
B
100
AcDbEntity
 67
     1
  8
1
  6
Continuous
 62
    18
100
AcDbLine
 10
2.278656
 20
4.136557999999999
 30
0.0
 11
2.278656
 21
4.133335999999999
 31
0.0
  0
LINE
  5
35B
330
B
100
AcDbEntity
 67
     1
  8
1
  6
Continuous
 62
    18
100
AcDbLine
 10
2.744899
 20
7.041386999999999
 30
0.0
 11
2.754795
 21
7.051282
 31
0.0
  0
LINE
  5
35C
330
B
100
AcDbEntity
 67
     1
  8
1
  6
Continuous
 62
    18
100
AcDbLine
 10
4.828219999999999
 20
3.531677999999999
 30
0.0
 11
4.828219999999999
 21
3.65639
 31
0.0
  0
LINE
  5
35D
330
B
100
AcDbEntity
 67
     1
  8
1
  6
Continuous
 62
    18
100
AcDbLine
 10
2.713894999999999
 20
6.491543
 30
0.0
 11
2.712104
 21
6.491543
 31
0.0
  0
LINE
  5
35E
330
B
100
AcDbEntity
 67
     1
  8
1
  6
Continuous
 62
    18
100
AcDbLine
 10
2.448765999999999
 20
6.641542999999999
 30
0.0
 11
2.451592999999999
 21
6.641542999999999
 31
0.0
  0
LINE
  5
35F
330
B
100
AcDbEntity
 67
     1
  8
1
  6
Continuous
 62
    18
100
AcDbLine
 10
5.296740999999999
 20
3.779085999999999
 30
0.0
 11
5.296740999999999
 21
3.809086
 31
0.0
  0
LINE
  5
360
330
B
100
AcDbEntity
 67
     1
  8
1
  6
Continuous
 62
    18
100
AcDbLine
 10
2.619950999999999
 20
6.885941
 30
0.0
 11
2.619950999999999
 21
6.886263999999999
 31
0.0
  0
LINE
  5
361
330
B
100
AcDbEntity
 67
     1
  8
1
  6
Continuous
 62
    18
100
AcDbLine
 10
2.664950999999999
 20
6.461542999999999
 30
0.0
 11
2.664950999999999
 21
6.481543
 31
0.0
  0
LINE
  5
362
330
B
100
AcDbEntity
 67
     1
  8
1
  6
Continuous
 62
    18
100
AcDbLine
 10
3.320801
 20
6.058389
 30
0.0
 11
3.31763
 21
5.876701999999999
 31
0.0
  0
LINE
  5
363
330
B
100
AcDbEntity
 67
     1
  8
1
  6
Continuous
 62
    18
100
AcDbLine
 10
5.101086
 20
3.823218
 30
0.0
 11
5.101086
 21
4.130454
 31
0.0
  0
LINE
  5
364
330
B
100
AcDbEntity
 67
     1
  8
1
  6
Continuous
 62
    18
100
AcDbLine
 10
2.851325999999999
 20
6.461802999999999
 30
0.0
 11
2.871639
 21
6.461802999999999
 31
0.0
  0
LINE
  5
365
330
B
100
AcDbEntity
 67
     1
  8
1
  6
Continuous
 62
    18
100
AcDbLine
 10
2.664950999999999
 20
6.511542999999999
 30
0.0
 11
2.674950999999999
 21
6.511542999999999
 31
0.0
  0
LINE
  5
366
330
B
100
AcDbEntity
 67
     1
  8
1
  6
Continuous
 62
    18
100
AcDbLine
 10
2.45466
 20
6.631542999999999
 30
0.0
 11
2.453937999999999
 21
6.631542999999999
 31
0.0
  0
LINE
  5
367
330
B
100
AcDbEntity
 67
     1
  8
1
  6
Continuous
 62
    18
100
AcDbLine
 10
4.581739999999999
 20
4.057731999999999
 30
0.0
 11
4.581739999999999
 21
4.040351
 31
0.0
  0
LINE
  5
368
330
B
100
AcDbEntity
 67
     1
  8
1
  6
Continuous
 62
    18
100
AcDbLine
 10
5.250086
 20
3.828421
 30
0.0
 11
5.120085999999999
 21
3.823880999999999
 31
0.0
  0
LINE
  5
369
330
B
100
AcDbEntity
 67
     1
  8
1
  6
Continuous
 62
    18
100
AcDbLine
 10
2.184482
 20
7.006491
 30
0.0
 11
2.175107
 21
7.001802999999999
 31
0.0
  0
LINE
  5
36A
330
B
100
AcDbEntity
 67
     1
  8
1
  6
Continuous
 62
    18
100
AcDbLine
 10
2.752079
 20
6.261542999999999
 30
0.0
 11
2.587822999999999
 21
6.261542999999999
 31
0.0
  0
LINE
  5
36B
330
B
100
AcDbEntity
 67
     1
  8
1
  6
Continuous
 62
    18
100
AcDbLine
 10
2.169950999999999
 20
6.805206
 30
0.0
 11
2.169950999999999
 21
6.806902
 31
0.0
  0
LINE
  5
36C
330
B
100
AcDbEntity
 67
     1
  8
1
  6
Continuous
 62
    18
100
AcDbLine
 10
2.459950999999999
 20
6.804067999999999
 30
0.0
 11
2.459950999999999
 21
6.800991999999999
 31
0.0
  0
LINE
  5
36D
330
B
100
AcDbEntity
 67
     1
  8
1
  6
Continuous
 62
    18
100
AcDbLine
 10
6.09398
 20
3.809086
 30
0.0
 11
6.089292999999999
 21
3.809086
 31
0.0
  0
LINE
  5
36E
330
B
100
AcDbEntity
 67
     1
  8
1
  6
Continuous
 62
    18
100
AcDbLine
 10
2.924950999999999
 20
5.689041999999999
 30
0.0
 11
2.924950999999999
 21
5.539043
 31
0.0
  0
LINE
  5
36F
330
B
100
AcDbEntity
 67
     1
  8
1
  6
Continuous
 62
    18
100
AcDbLine
 10
2.63531
 20
6.481543
 30
0.0
 11
2.664950999999999
 21
6.481543
 31
0.0
  0
LINE
  5
370
330
B
100
AcDbEntity
 67
     1
  8
1
  6
Continuous
 62
    18
100
AcDbLine
 10
3.314354
 20
4.176835999999999
 30
0.0
 11
3.320012999999999
 21
4.176835999999999
 31
0.0
  0
LINE
  5
371
330
B
100
AcDbEntity
 67
     1
  8
1
  6
Continuous
 62
    18
100
AcDbLine
 10
2.492078999999999
 20
6.711542999999998
 30
0.0
 11
2.534950999999999
 21
6.711542999999998
 31
0.0
  0
LINE
  5
372
330
B
100
AcDbEntity
 67
     1
  8
1
  6
Continuous
 62
    18
100
AcDbLine
 10
2.278656
 20
4.133335999999999
 30
0.0
 11
2.797245999999999
 21
4.133335999999999
 31
0.0
  0
LINE
  5
373
330
B
100
AcDbEntity
 67
     1
  8
1
  6
Continuous
 62
    18
100
AcDbLine
 10
2.169950999999999
 20
6.880358
 30
0.0
 11
2.169950999999999
 21
6.883185
 31
0.0
  0
LINE
  5
374
330
B
100
AcDbEntity
 67
     1
  8
1
  6
Continuous
 62
    18
100
AcDbLine
 10
4.909112
 20
3.751644
 30
0.0
 11
4.907121
 21
3.761201
 31
0.0
  0
LINE
  5
375
330
B
100
AcDbEntity
 67
     1
  8
1
  6
Continuous
 62
    18
100
AcDbLine
 10
2.084322
 20
5.539043
 30
0.0
 11
2.107613999999999
 21
5.539043
 31
0.0
  0
LINE
  5
376
330
B
100
AcDbEntity
 67
     1
  8
1
  6
Continuous
 62
    18
100
AcDbLine
 10
2.469951
 20
6.885941
 30
0.0
 11
2.469951
 21
6.886263999999999
 31
0.0
  0
LINE
  5
377
330
B
100
AcDbEntity
 67
     1
  8
1
  6
Continuous
 62
    18
100
AcDbLine
 10
2.144899
 20
7.006491
 30
0.0
 11
2.144899
 21
7.021594999999999
 31
0.0
  0
LINE
  5
378
330
B
100
AcDbEntity
 67
     1
  8
1
  6
Continuous
 62
    18
100
AcDbLine
 10
5.689239999999999
 20
3.719085999999999
 30
0.0
 11
5.689239999999999
 21
3.779085999999999
 31
0.0
  0
LINE
  5
379
330
B
100
AcDbEntity
 67
     1
  8
1
  6
Continuous
 62
    18
100
AcDbLine
 10
2.942950999999999
 20
3.780835999999999
 30
0.0
 11
2.941641999999999
 21
3.780835999999999
 31
0.0
  0
LINE
  5
37A
330
B
100
AcDbEntity
 67
     1
  8
1
  6
Continuous
 62
    18
100
AcDbLine
 10
2.159950999999999
 20
6.886252
 30
0.0
 11
2.159950999999999
 21
6.88553
 31
0.0
  0
LINE
  5
37B
330
B
100
AcDbEntity
 67
     1
  8
1
  6
Continuous
 62
    18
100
AcDbLine
 10
4.569241
 20
4.099336
 30
0.0
 11
4.569241
 21
4.117426999999999
 31
0.0
  0
LINE
  5
37C
330
B
100
AcDbEntity
 67
     1
  8
1
  6
Continuous
 62
    18
100
AcDbLine
 10
5.504501
 20
3.809086
 30
0.0
 11
5.55398
 21
3.809086
 31
0.0
  0
LINE
  5
37D
330
B
100
AcDbEntity
 67
     1
  8
1
  6
Continuous
 62
    18
100
AcDbLine
 10
2.459950999999999
 20
6.882236999999999
 30
0.0
 11
2.459950999999999
 21
6.879235
 31
0.0
  0
LINE
  5
37E
330
B
100
AcDbEntity
 67
     1
  8
1
  6
Continuous
 62
    18
100
AcDbLine
 10
2.144899
 20
7.021594999999999
 30
0.0
 11
2.154795
 21
7.026282000000001
 31
0.0
  0
LINE
  5
37F
330
B
100
AcDbEntity
 67
     1
  8
1
  6
Continuous
 62
    18
100
AcDbLine
 10
2.144899
 20
7.046594999999999
 30
0.0
 11
2.144899
 21
7.031490999999999
 31
0.0
  0
LINE
  5
380
330
B
100
AcDbEntity
 67
     1
  8
1
  6
Continuous
 62
    18
100
AcDbLine
 10
3.320012999999999
 20
3.776835999999999
 30
0.0
 11
3.318874999999999
 21
3.781387
 31
0.0
  0
LINE
  5
381
330
B
100
AcDbEntity
 67
     1
  8
1
  6
Continuous
 62
    18
100
AcDbLine
 10
2.369399
 20
6.481543
 30
0.0
 11
2.367016999999999
 21
6.481543
 31
0.0
  0
LINE
  5
382
330
B
100
AcDbEntity
 67
     1
  8
1
  6
Continuous
 62
    18
100
AcDbLine
 10
2.309950999999999
 20
6.804067999999999
 30
0.0
 11
2.309950999999999
 21
6.800991999999999
 31
0.0
  0
LINE
  5
383
330
B
100
AcDbEntity
 67
     1
  8
1
  6
Continuous
 62
    18
100
AcDbLine
 10
2.852835999999999
 20
6.611803999999999
 30
0.0
 11
2.842941
 21
6.616491
 31
0.0
  0
LINE
  5
384
330
B
100
AcDbEntity
 67
     1
  8
1
  6
Continuous
 62
    18
100
AcDbLine
 10
2.055347
 20
6.501387
 30
0.0
 11
2.055347
 21
6.515969999999999
 31
0.0
  0
LINE
  5
385
330
B
100
AcDbEntity
 67
     1
  8
1
  6
Continuous
 62
    18
100
AcDbLine
 10
3.355801
 20
4.130454
 30
0.0
 11
3.320801
 21
4.130454
 31
0.0
  0
LINE
  5
386
330
B
100
AcDbEntity
 67
     1
  8
1
  6
Continuous
 62
    18
100
AcDbLine
 10
2.91643
 20
6.312583999999999
 30
0.0
 11
2.91643
 21
6.362064
 31
0.0
  0
LINE
  5
387
330
B
100
AcDbEntity
 67
     1
  8
1
  6
Continuous
 62
    18
100
AcDbLine
 10
2.454349
 20
6.491543
 30
0.0
 11
2.454671999999999
 21
6.491543
 31
0.0
  0
LINE
  5
388
330
B
100
AcDbEntity
 67
     1
  8
1
  6
Continuous
 62
    18
100
AcDbLine
 10
2.319950999999999
 20
6.885941
 30
0.0
 11
2.319950999999999
 21
6.886263999999999
 31
0.0
  0
LINE
  5
389
330
B
100
AcDbEntity
 67
     1
  8
1
  6
Continuous
 62
    18
100
AcDbLine
 10
2.188679999999999
 20
6.511281999999999
 30
0.0
 11
2.188679999999999
 21
6.501387
 31
0.0
  0
LINE
  5
38A
330
B
100
AcDbEntity
 67
     1
  8
1
  6
Continuous
 62
    18
100
AcDbLine
 10
2.842941
 20
6.626386999999999
 30
0.0
 11
2.883045
 21
6.651386999999999
 31
0.0
  0
LINE
  5
38B
330
B
100
AcDbEntity
 67
     1
  8
1
  6
Continuous
 62
    18
100
AcDbLine
 10
2.309950999999999
 20
6.88553
 30
0.0
 11
2.309950999999999
 21
6.884564
 31
0.0
  0
LINE
  5
38C
330
B
100
AcDbEntity
 67
     1
  8
1
  6
Continuous
 62
    18
100
AcDbLine
 10
2.912950999999999
 20
3.750836
 30
0.0
 11
2.912950999999999
 21
3.752144999999999
 31
0.0
  0
LINE
  5
38D
330
B
100
AcDbEntity
 67
     1
  8
1
  6
Continuous
 62
    18
100
AcDbLine
 10
2.63531
 20
6.331542999999999
 30
0.0
 11
2.664950999999999
 21
6.331542999999999
 31
0.0
  0
LINE
  5
38E
330
B
100
AcDbEntity
 67
     1
  8
1
  6
Continuous
 62
    18
100
AcDbLine
 10
3.091613999999999
 20
5.539043
 30
0.0
 11
3.10672
 21
5.539043
 31
0.0
  0
LINE
  5
38F
330
B
100
AcDbEntity
 67
     1
  8
1
  6
Continuous
 62
    18
100
AcDbLine
 10
2.619950999999999
 20
6.836542999999998
 30
0.0
 11
2.619950999999999
 21
6.806902
 31
0.0
  0
LINE
  5
390
330
B
100
AcDbEntity
 67
     1
  8
1
  6
Continuous
 62
    18
100
AcDbLine
 10
1.931141
 20
3.981834999999999
 30
0.0
 11
1.931141
 21
3.971837
 31
0.0
  0
LINE
  5
391
330
B
100
AcDbEntity
 67
     1
  8
1
  6
Continuous
 62
    18
100
AcDbLine
 10
2.366006999999999
 20
6.341542999999999
 30
0.0
 11
2.367798
 21
6.341542999999999
 31
0.0
  0
LINE
  5
392
330
B
100
AcDbEntity
 67
     1
  8
1
  6
Continuous
 62
    18
100
AcDbLine
 10
2.769950999999999
 20
6.796821999999999
 30
0.0
 11
2.769950999999999
 21
6.796839999999999
 31
0.0
  0
LINE
  5
393
330
B
100
AcDbEntity
 67
     1
  8
1
  6
Continuous
 62
    18
100
AcDbLine
 10
2.972215999999999
 20
4.066836
 30
0.0
 11
2.980875
 21
4.071836
 31
0.0
  0
LINE
  5
394
330
B
100
AcDbEntity
 67
     1
  8
1
  6
Continuous
 62
    18
100
AcDbLine
 10
2.365247999999999
 20
6.341542999999999
 30
0.0
 11
2.366006999999999
 21
6.341542999999999
 31
0.0
  0
LINE
  5
395
330
B
100
AcDbEntity
 67
     1
  8
1
  6
Continuous
 62
    18
100
AcDbLine
 10
5.599241
 20
3.851586
 30
0.0
 11
5.599241
 21
3.961586
 31
0.0
  0
LINE
  5
396
330
B
100
AcDbEntity
 67
     1
  8
1
  6
Continuous
 62
    18
100
AcDbLine
 10
2.095429999999999
 20
3.881137999999999
 30
0.0
 11
2.095025999999999
 21
3.881835999999999
 31
0.0
  0
LINE
  5
397
330
B
100
AcDbEntity
 67
     1
  8
1
  6
Continuous
 62
    18
100
AcDbLine
 10
2.769950999999999
 20
6.876183999999999
 30
0.0
 11
2.769950999999999
 21
6.846542999999999
 31
0.0
  0
LINE
  5
398
330
B
100
AcDbEntity
 67
     1
  8
1
  6
Continuous
 62
    18
100
AcDbLine
 10
5.000494
 20
3.770980999999999
 30
0.0
 11
5.000821
 21
3.761201
 31
0.0
  0
LINE
  5
399
330
B
100
AcDbEntity
 67
     1
  8
1
  6
Continuous
 62
    18
100
AcDbLine
 10
5.569241
 20
3.881586
 30
0.0
 11
5.489241
 21
3.881586
 31
0.0
  0
LINE
  5
39A
330
B
100
AcDbEntity
 67
     1
  8
1
  6
Continuous
 62
    18
100
AcDbLine
 10
3.148950999999999
 20
6.304043
 30
0.0
 11
3.148950999999999
 21
7.006542999999999
 31
0.0
  0
LINE
  5
39B
330
B
100
AcDbEntity
 67
     1
  8
1
  6
Continuous
 62
    18
100
AcDbLine
 10
5.355281999999999
 20
3.809086
 30
0.0
 11
5.404760999999999
 21
3.809086
 31
0.0
  0
LINE
  5
39C
330
B
100
AcDbEntity
 67
     1
  8
1
  6
Continuous
 62
    18
100
AcDbLine
 10
2.919950999999999
 20
6.805206
 30
0.0
 11
2.919950999999999
 21
6.806902
 31
0.0
  0
LINE
  5
39D
330
B
100
AcDbEntity
 67
     1
  8
1
  6
Continuous
 62
    18
100
AcDbLine
 10
2.712104
 20
6.641542999999999
 30
0.0
 11
2.709474999999999
 21
6.641542999999999
 31
0.0
  0
LINE
  5
39E
330
B
100
AcDbEntity
 67
     1
  8
1
  6
Continuous
 62
    18
100
AcDbLine
 10
5.101086
 20
3.823218
 30
0.0
 11
5.120085999999999
 21
3.823880999999999
 31
0.0
  0
LINE
  5
39F
330
B
100
AcDbEntity
 67
     1
  8
1
  6
Continuous
 62
    18
100
AcDbLine
 10
5.339241
 20
3.881586
 30
0.0
 11
5.309239999999999
 21
3.851586
 31
0.0
  0
LINE
  5
3A0
330
B
100
AcDbEntity
 67
     1
  8
1
  6
Continuous
 62
    18
100
AcDbLine
 10
3.087026999999999
 20
4.071836
 30
0.0
 11
2.980875
 21
4.071836
 31
0.0
  0
LINE
  5
3A1
330
B
100
AcDbEntity
 67
     1
  8
1
  6
Continuous
 62
    18
100
AcDbLine
 10
2.919950999999999
 20
6.880358
 30
0.0
 11
2.919950999999999
 21
6.883185
 31
0.0
  0
LINE
  5
3A2
330
B
100
AcDbEntity
 67
     1
  8
1
  6
Continuous
 62
    18
100
AcDbLine
 10
2.63531
 20
6.641542999999999
 30
0.0
 11
2.634459
 21
6.641542999999999
 31
0.0
  0
LINE
  5
3A3
330
B
100
AcDbEntity
 67
     1
  8
1
  6
Continuous
 62
    18
100
AcDbLine
 10
6.074241
 20
3.779085999999999
 30
0.0
 11
6.049241
 21
3.779085999999999
 31
0.0
  0
LINE
  5
3A4
330
B
100
AcDbEntity
 67
     1
  8
1
  6
Continuous
 62
    18
100
AcDbLine
 10
2.909950999999999
 20
6.886252
 30
0.0
 11
2.909950999999999
 21
6.88553
 31
0.0
  0
LINE
  5
3A5
330
B
100
AcDbEntity
 67
     1
  8
1
  6
Continuous
 62
    18
100
AcDbLine
 10
5.041739999999999
 20
3.779085999999999
 30
0.0
 11
5.016741
 21
3.779085999999999
 31
0.0
  0
LINE
  5
3A6
330
B
100
AcDbEntity
 67
     1
  8
1
  6
Continuous
 62
    18
100
AcDbLine
 10
5.658667999999999
 20
3.809086
 30
0.0
 11
5.654500999999999
 21
3.809086
 31
0.0
  0
LINE
  5
3A7
330
B
100
AcDbEntity
 67
     1
  8
1
  6
Continuous
 62
    18
100
AcDbLine
 10
2.375309999999999
 20
6.631542999999999
 30
0.0
 11
2.372475999999999
 21
6.631542999999999
 31
0.0
  0
LINE
  5
3A8
330
B
100
AcDbEntity
 67
     1
  8
1
  6
Continuous
 62
    18
100
AcDbLine
 10
6.074188999999999
 20
3.809086
 30
0.0
 11
6.084084999999999
 21
3.809086
 31
0.0
  0
LINE
  5
3A9
330
B
100
AcDbEntity
 67
     1
  8
1
  6
Continuous
 62
    18
100
AcDbLine
 10
2.924950999999999
 20
5.539043
 30
0.0
 11
2.930181999999999
 21
5.539043
 31
0.0
  0
LINE
  5
3AA
330
B
100
AcDbEntity
 67
     1
  8
1
  6
Continuous
 62
    18
100
AcDbLine
 10
5.303439
 20
3.809086
 30
0.0
 11
5.321741
 21
3.809086
 31
0.0
  0
LINE
  5
3AB
330
B
100
AcDbEntity
 67
     1
  8
1
  6
Continuous
 62
    18
100
AcDbLine
 10
2.122109999999999
 20
3.914336
 30
0.0
 11
2.132950999999999
 21
3.914336
 31
0.0
  0
LINE
  5
3AC
330
B
100
AcDbEntity
 67
     1
  8
1
  6
Continuous
 62
    18
100
AcDbLine
 10
2.029722
 20
6.465969999999999
 30
0.0
 11
2.025554999999999
 21
6.461802999999999
 31
0.0
  0
LINE
  5
3AD
330
B
100
AcDbEntity
 67
     1
  8
1
  6
Continuous
 62
    18
100
AcDbLine
 10
4.828219999999999
 20
3.531677999999999
 30
0.0
 11
4.818182
 21
3.53159
 31
0.0
  0
LINE
  5
3AE
330
B
100
AcDbEntity
 67
     1
  8
1
  6
Continuous
 62
    18
100
AcDbLine
 10
2.712104
 20
6.491543
 30
0.0
 11
2.709474999999999
 21
6.491543
 31
0.0
  0
LINE
  5
3AF
330
B
100
AcDbEntity
 67
     1
  8
1
  6
Continuous
 62
    18
100
AcDbLine
 10
2.451592999999999
 20
6.641542999999999
 30
0.0
 11
2.452971999999999
 21
6.641542999999999
 31
0.0
  0
LINE
  5
3B0
330
B
100
AcDbEntity
 67
     1
  8
1
  6
Continuous
 62
    18
100
AcDbLine
 10
5.399291999999999
 20
3.809086
 30
0.0
 11
5.40398
 21
3.809086
 31
0.0
  0
LINE
  5
3B1
330
B
100
AcDbEntity
 67
     1
  8
1
  6
Continuous
 62
    18
100
AcDbLine
 10
2.921950999999999
 20
6.511281999999999
 30
0.0
 11
2.909450999999999
 21
6.511281999999999
 31
0.0
  0
LINE
  5
3B2
330
B
100
AcDbEntity
 67
     1
  8
1
  6
Continuous
 62
    18
100
AcDbLine
 10
5.966369
 20
4.154086
 30
0.0
 11
5.802112999999999
 21
4.154086
 31
0.0
  0
LINE
  5
3B3
330
B
100
AcDbEntity
 67
     1
  8
1
  6
Continuous
 62
    18
100
AcDbLine
 10
4.86207
 20
4.172284999999999
 30
0.0
 11
4.86207
 21
4.200556999999999
 31
0.0
  0
LINE
  5
3B4
330
B
100
AcDbEntity
 67
     1
  8
1
  6
Continuous
 62
    18
100
AcDbLine
 10
3.355801
 20
6.058389
 30
0.0
 11
3.320801
 21
6.058389
 31
0.0
  0
LINE
  5
3B5
330
B
100
AcDbEntity
 67
     1
  8
1
  6
Continuous
 62
    18
100
AcDbLine
 10
4.919398999999999
 20
4.201558
 30
0.0
 11
4.919398999999999
 21
4.421198
 31
0.0
  0
LINE
  5
3B6
330
B
100
AcDbEntity
 67
     1
  8
1
  6
Continuous
 62
    18
100
AcDbLine
 10
6.044501
 20
3.809086
 30
0.0
 11
6.049189
 21
3.809086
 31
0.0
  0
LINE
  5
3B7
330
B
100
AcDbEntity
 67
     1
  8
1
  6
Continuous
 62
    18
100
AcDbLine
 10
2.453937999999999
 20
6.631542999999999
 30
0.0
 11
2.452971999999999
 21
6.631542999999999
 31
0.0
  0
LINE
  5
3B8
330
B
100
AcDbEntity
 67
     1
  8
1
  6
Continuous
 62
    18
100
AcDbLine
 10
5.659187999999999
 20
3.809086
 30
0.0
 11
5.654500999999999
 21
3.809086
 31
0.0
  0
LINE
  5
3B9
330
B
100
AcDbEntity
 67
     1
  8
1
  6
Continuous
 62
    18
100
AcDbLine
 10
2.871639
 20
6.461802999999999
 30
0.0
 11
2.881533999999999
 21
6.466491
 31
0.0
  0
LINE
  5
3BA
330
B
100
AcDbEntity
 67
     1
  8
1
  6
Continuous
 62
    18
100
AcDbLine
 10
2.980472
 20
4.072533999999999
 30
0.0
 11
3.087429999999999
 21
4.072533999999999
 31
0.0
  0
LINE
  5
3BB
330
B
100
AcDbEntity
 67
     1
  8
1
  6
Continuous
 62
    18
100
AcDbLine
 10
2.752079
 20
6.711542999999998
 30
0.0
 11
2.587822999999999
 21
6.711542999999998
 31
0.0
  0
LINE
  5
3BC
330
B
100
AcDbEntity
 67
     1
  8
1
  6
Continuous
 62
    18
100
AcDbLine
 10
2.159950999999999
 20
6.836542999999998
 30
0.0
 11
2.159950999999999
 21
6.806902
 31
0.0
  0
LINE
  5
3BD
330
B
100
AcDbEntity
 67
     1
  8
1
  6
Continuous
 62
    18
100
AcDbLine
 10
2.459950999999999
 20
6.800991999999999
 30
0.0
 11
2.459950999999999
 21
6.798608999999999
 31
0.0
  0
LINE
  5
3BE
330
B
100
AcDbEntity
 67
     1
  8
1
  6
Continuous
 62
    18
100
AcDbLine
 10
3.320012999999999
 20
4.422836
 30
0.0
 11
3.320012999999999
 21
4.176835999999999
 31
0.0
  0
LINE
  5
3BF
330
B
100
AcDbEntity
 67
     1
  8
1
  6
Continuous
 62
    18
100
AcDbLine
 10
2.492078999999999
 20
6.261542999999999
 30
0.0
 11
2.492078999999999
 21
6.711542999999998
 31
0.0
  0
LINE
  5
3C0
330
B
100
AcDbEntity
 67
     1
  8
1
  6
Continuous
 62
    18
100
AcDbLine
 10
2.169950999999999
 20
6.883185
 30
0.0
 11
2.169950999999999
 21
6.884564
 31
0.0
  0
LINE
  5
3C1
330
B
100
AcDbEntity
 67
     1
  8
1
  6
Continuous
 62
    18
100
AcDbLine
 10
4.907121
 20
3.761201
 30
0.0
 11
4.907523
 21
3.770980999999999
 31
0.0
  0
LINE
  5
3C2
330
B
100
AcDbEntity
 67
     1
  8
1
  6
Continuous
 62
    18
100
AcDbLine
 10
2.178783999999999
 20
6.511281999999999
 30
0.0
 11
2.188679999999999
 21
6.511281999999999
 31
0.0
  0
LINE
  5
3C3
330
B
100
AcDbEntity
 67
     1
  8
1
  6
Continuous
 62
    18
100
AcDbLine
 10
2.207794999999999
 20
6.631594999999999
 30
0.0
 11
2.228107
 21
6.631594999999999
 31
0.0
  0
LINE
  5
3C4
330
B
100
AcDbEntity
 67
     1
  8
1
  6
Continuous
 62
    18
100
AcDbLine
 10
2.133649
 20
4.038637999999999
 30
0.0
 11
2.133649
 21
3.915033999999999
 31
0.0
  0
LINE
  5
3C5
330
B
100
AcDbEntity
 67
     1
  8
1
  6
Continuous
 62
    18
100
AcDbLine
 10
2.159950999999999
 20
6.88553
 30
0.0
 11
2.159950999999999
 21
6.884564
 31
0.0
  0
LINE
  5
3C6
330
B
100
AcDbEntity
 67
     1
  8
1
  6
Continuous
 62
    18
100
AcDbLine
 10
4.569241
 20
4.117426999999999
 30
0.0
 11
4.569241
 21
4.129234999999999
 31
0.0
  0
LINE
  5
3C7
330
B
100
AcDbEntity
 67
     1
  8
1
  6
Continuous
 62
    18
100
AcDbLine
 10
2.459950999999999
 20
6.879235
 30
0.0
 11
2.459950999999999
 21
6.876183999999999
 31
0.0
  0
LINE
  5
3C8
330
B
100
AcDbEntity
 67
     1
  8
1
  6
Continuous
 62
    18
100
AcDbLine
 10
4.86207
 20
4.172284999999999
 30
0.0
 11
4.73174
 21
4.176835999999999
 31
0.0
  0
LINE
  5
3C9
330
B
100
AcDbEntity
 67
     1
  8
1
  6
Continuous
 62
    18
100
AcDbLine
 10
1.759272999999999
 20
3.781387
 30
0.0
 11
1.757027
 21
3.781387
 31
0.0
  0
LINE
  5
3CA
330
B
100
AcDbEntity
 67
     1
  8
1
  6
Continuous
 62
    18
100
AcDbLine
 10
2.714672
 20
6.341542999999999
 30
0.0
 11
2.714653999999999
 21
6.341542999999999
 31
0.0
  0
LINE
  5
3CB
330
B
100
AcDbEntity
 67
     1
  8
1
  6
Continuous
 62
    18
100
AcDbLine
 10
2.367016999999999
 20
6.481543
 30
0.0
 11
2.365587
 21
6.481543
 31
0.0
  0
LINE
  5
3CC
330
B
100
AcDbEntity
 67
     1
  8
1
  6
Continuous
 62
    18
100
AcDbLine
 10
2.309950999999999
 20
6.800991999999999
 30
0.0
 11
2.309950999999999
 21
6.798608999999999
 31
0.0
  0
LINE
  5
3CD
330
B
100
AcDbEntity
 67
     1
  8
1
  6
Continuous
 62
    18
100
AcDbLine
 10
2.099722
 20
6.461802999999999
 30
0.0
 11
2.109618
 21
6.466491
 31
0.0
  0
LINE
  5
3CE
330
B
100
AcDbEntity
 67
     1
  8
1
  6
Continuous
 62
    18
100
AcDbLine
 10
2.228107
 20
6.361282
 30
0.0
 11
2.207794999999999
 21
6.361282
 31
0.0
  0
LINE
  5
3CF
330
B
100
AcDbEntity
 67
     1
  8
1
  6
Continuous
 62
    18
100
AcDbLine
 10
3.320801
 20
3.823218
 30
0.0
 11
3.355801
 21
3.823218
 31
0.0
  0
LINE
  5
3D0
330
B
100
AcDbEntity
 67
     1
  8
1
  6
Continuous
 62
    18
100
AcDbLine
 10
2.625963
 20
6.481543
 30
0.0
 11
2.626929999999999
 21
6.481543
 31
0.0
  0
LINE
  5
3D1
330
B
100
AcDbEntity
 67
     1
  8
1
  6
Continuous
 62
    18
100
AcDbLine
 10
2.63531
 20
6.341542999999999
 30
0.0
 11
2.664950999999999
 21
6.341542999999999
 31
0.0
  0
LINE
  5
3D2
330
B
100
AcDbEntity
 67
     1
  8
1
  6
Continuous
 62
    18
100
AcDbLine
 10
5.654500999999999
 20
3.809086
 30
0.0
 11
5.659187999999999
 21
3.809086
 31
0.0
  0
LINE
  5
3D3
330
B
100
AcDbEntity
 67
     1
  8
1
  6
Continuous
 62
    18
100
AcDbLine
 10
2.198158999999999
 20
6.491491
 30
0.0
 11
2.237743
 21
6.491491
 31
0.0
  0
LINE
  5
3D4
330
B
100
AcDbEntity
 67
     1
  8
1
  6
Continuous
 62
    18
100
AcDbLine
 10
2.919868
 20
6.465969999999999
 30
0.0
 11
2.915700999999999
 21
6.461802999999999
 31
0.0
  0
LINE
  5
3D5
330
B
100
AcDbEntity
 67
     1
  8
1
  6
Continuous
 62
    18
100
AcDbLine
 10
2.309950999999999
 20
6.884564
 30
0.0
 11
2.309950999999999
 21
6.882236999999999
 31
0.0
  0
LINE
  5
3D6
330
B
100
AcDbEntity
 67
     1
  8
1
  6
Continuous
 62
    18
100
AcDbLine
 10
2.912950999999999
 20
4.202836
 30
0.0
 11
2.912950999999999
 21
4.201526999999999
 31
0.0
  0
LINE
  5
3D7
330
B
100
AcDbEntity
 67
     1
  8
1
  6
Continuous
 62
    18
100
AcDbLine
 10
2.447643999999999
 20
6.481543
 30
0.0
 11
2.444591999999999
 21
6.481543
 31
0.0
  0
LINE
  5
3D8
330
B
100
AcDbEntity
 67
     1
  8
1
  6
Continuous
 62
    18
100
AcDbLine
 10
1.988874999999999
 20
3.881835999999999
 30
0.0
 11
1.988471999999999
 21
3.881137999999999
 31
0.0
  0
LINE
  5
3D9
330
B
100
AcDbEntity
 67
     1
  8
1
  6
Continuous
 62
    18
100
AcDbLine
 10
2.619950999999999
 20
6.796821999999999
 30
0.0
 11
2.619950999999999
 21
6.796839999999999
 31
0.0
  0
LINE
  5
3DA
330
B
100
AcDbEntity
 67
     1
  8
1
  6
Continuous
 62
    18
100
AcDbLine
 10
1.980216
 20
3.886834999999999
 30
0.0
 11
1.963227999999999
 21
3.916258999999999
 31
0.0
  0
LINE
  5
3DB
330
B
100
AcDbEntity
 67
     1
  8
1
  6
Continuous
 62
    18
100
AcDbLine
 10
2.367798
 20
6.341542999999999
 30
0.0
 11
2.370426999999999
 21
6.341542999999999
 31
0.0
  0
LINE
  5
3DC
330
B
100
AcDbEntity
 67
     1
  8
1
  6
Continuous
 62
    18
100
AcDbLine
 10
2.769950999999999
 20
6.796839999999999
 30
0.0
 11
2.769950999999999
 21
6.797599
 31
0.0
  0
LINE
  5
3DD
330
B
100
AcDbEntity
 67
     1
  8
1
  6
Continuous
 62
    18
100
AcDbLine
 10
2.972215999999999
 20
4.066836
 30
0.0
 11
2.964235
 21
4.053012999999999
 31
0.0
  0
LINE
  5
3DE
330
B
100
AcDbEntity
 67
     1
  8
1
  6
Continuous
 62
    18
100
AcDbLine
 10
5.45924
 20
3.851586
 30
0.0
 11
5.599241
 21
3.851586
 31
0.0
  0
LINE
  5
3DF
330
B
100
AcDbEntity
 67
     1
  8
1
  6
Continuous
 62
    18
100
AcDbLine
 10
4.999198
 20
3.751644
 30
0.0
 11
4.994301999999999
 21
3.734086
 31
0.0
  0
LINE
  5
3E0
330
B
100
AcDbEntity
 67
     1
  8
1
  6
Continuous
 62
    18
100
AcDbLine
 10
2.619950999999999
 20
6.876183999999999
 30
0.0
 11
2.619950999999999
 21
6.846542999999999
 31
0.0
  0
LINE
  5
3E1
330
B
100
AcDbEntity
 67
     1
  8
1
  6
Continuous
 62
    18
100
AcDbLine
 10
2.444591999999999
 20
6.341542999999999
 30
0.0
 11
2.445443
 21
6.341542999999999
 31
0.0
  0
LINE
  5
3E2
330
B
100
AcDbEntity
 67
     1
  8
1
  6
Continuous
 62
    18
100
AcDbLine
 10
2.309527
 20
3.842335999999999
 30
0.0
 11
2.766375
 21
3.842335999999999
 31
0.0
  0
LINE
  5
3E3
330
B
100
AcDbEntity
 67
     1
  8
1
  6
Continuous
 62
    18
100
AcDbLine
 10
2.769950999999999
 20
6.846542999999999
 30
0.0
 11
2.789950999999999
 21
6.846542999999999
 31
0.0
  0
LINE
  5
3E4
330
B
100
AcDbEntity
 67
     1
  8
1
  6
Continuous
 62
    18
100
AcDbLine
 10
1.979813
 20
3.886137
 30
0.0
 11
1.960425
 21
3.919719
 31
0.0
  0
LINE
  5
3E5
330
B
100
AcDbEntity
 67
     1
  8
1
  6
Continuous
 62
    18
100
AcDbLine
 10
5.489241
 20
3.881586
 30
0.0
 11
5.489241
 21
3.931586
 31
0.0
  0
LINE
  5
3E6
330
B
100
AcDbEntity
 67
     1
  8
1
  6
Continuous
 62
    18
100
AcDbLine
 10
2.998950999999999
 20
6.024042999999999
 30
0.0
 11
3.098951
 21
6.024042999999999
 31
0.0
  0
LINE
  5
3E7
330
B
100
AcDbEntity
 67
     1
  8
1
  6
Continuous
 62
    18
100
AcDbLine
 10
5.639241
 20
3.881586
 30
0.0
 11
5.639241
 21
3.931586
 31
0.0
  0
LINE
  5
3E8
330
B
100
AcDbEntity
 67
     1
  8
1
  6
Continuous
 62
    18
100
AcDbLine
 10
6.06898
 20
3.809086
 30
0.0
 11
6.074188999999999
 21
3.809086
 31
0.0
  0
LINE
  5
3E9
330
B
100
AcDbEntity
 67
     1
  8
1
  6
Continuous
 62
    18
100
AcDbLine
 10
2.909950999999999
 20
6.836542999999998
 30
0.0
 11
2.909950999999999
 21
6.806902
 31
0.0
  0
LINE
  5
3EA
330
B
100
AcDbEntity
 67
     1
  8
1
  6
Continuous
 62
    18
100
AcDbLine
 10
5.346741
 20
3.809086
 30
0.0
 11
6.049241
 21
3.809086
 31
0.0
  0
LINE
  5
3EB
330
B
100
AcDbEntity
 67
     1
  8
1
  6
Continuous
 62
    18
100
AcDbLine
 10
2.709474999999999
 20
6.641542999999999
 30
0.0
 11
2.706288
 21
6.641542999999999
 31
0.0
  0
LINE
  5
3EC
330
B
100
AcDbEntity
 67
     1
  8
1
  6
Continuous
 62
    18
100
AcDbLine
 10
2.445158999999999
 20
7.001802999999999
 30
0.0
 11
2.484742999999999
 21
7.001802999999999
 31
0.0
  0
LINE
  5
3ED
330
B
100
AcDbEntity
 67
     1
  8
1
  6
Continuous
 62
    18
100
AcDbLine
 10
5.548772
 20
3.809086
 30
0.0
 11
5.534187999999999
 21
3.809086
 31
0.0
  0
LINE
  5
3EE
330
B
100
AcDbEntity
 67
     1
  8
1
  6
Continuous
 62
    18
100
AcDbLine
 10
5.309239999999999
 20
3.961586
 30
0.0
 11
5.339241
 21
3.931586
 31
0.0
  0
LINE
  5
3EF
330
B
100
AcDbEntity
 67
     1
  8
1
  6
Continuous
 62
    18
100
AcDbLine
 10
2.919950999999999
 20
6.883185
 30
0.0
 11
2.919950999999999
 21
6.884564
 31
0.0
  0
LINE
  5
3F0
330
B
100
AcDbEntity
 67
     1
  8
1
  6
Continuous
 62
    18
100
AcDbLine
 10
2.634459
 20
6.641542999999999
 30
0.0
 11
2.631136
 21
6.641542999999999
 31
0.0
  0
LINE
  5
3F1
330
B
100
AcDbEntity
 67
     1
  8
1
  6
Continuous
 62
    18
100
AcDbLine
 10
5.120085999999999
 20
4.129789999999999
 30
0.0
 11
5.250086
 21
4.125251
 31
0.0
  0
LINE
  5
3F2
330
B
100
AcDbEntity
 67
     1
  8
1
  6
Continuous
 62
    18
100
AcDbLine
 10
5.346741
 20
3.779085999999999
 30
0.0
 11
6.049241
 21
3.779085999999999
 31
0.0
  0
LINE
  5
3F3
330
B
100
AcDbEntity
 67
     1
  8
1
  6
Continuous
 62
    18
100
AcDbLine
 10
5.504501
 20
3.809086
 30
0.0
 11
5.55398
 21
3.809086
 31
0.0
  0
LINE
  5
3F4
330
B
100
AcDbEntity
 67
     1
  8
1
  6
Continuous
 62
    18
100
AcDbLine
 10
2.909950999999999
 20
6.88553
 30
0.0
 11
2.909950999999999
 21
6.884564
 31
0.0
  0
LINE
  5
3F5
330
B
100
AcDbEntity
 67
     1
  8
1
  6
Continuous
 62
    18
100
AcDbLine
 10
2.12272
 20
5.539043
 30
0.0
 11
2.127950999999999
 21
5.539043
 31
0.0
  0
LINE
  5
3F6
330
B
100
AcDbEntity
 67
     1
  8
1
  6
Continuous
 62
    18
100
AcDbLine
 10
4.862072
 20
3.779085999999999
 30
0.0
 11
5.016741
 21
3.779085999999999
 31
0.0
  0
LINE
  5
3F7
330
B
100
AcDbEntity
 67
     1
  8
1
  6
Continuous
 62
    18
100
AcDbLine
 10
2.674950999999999
 20
6.341542999999999
 30
0.0
 11
2.704591999999999
 21
6.341542999999999
 31
0.0
  0
LINE
  5
3F8
330
B
100
AcDbEntity
 67
     1
  8
1
  6
Continuous
 62
    18
100
AcDbLine
 10
4.73174
 20
3.776835999999999
 30
0.0
 11
4.73174
 21
3.530835999999999
 31
0.0
  0
LINE
  5
3F9
330
B
100
AcDbEntity
 67
     1
  8
1
  6
Continuous
 62
    18
100
AcDbLine
 10
2.989950999999999
 20
6.716542999999999
 30
0.0
 11
2.089950999999999
 21
6.716542999999999
 31
0.0
  0
LINE
  5
3FA
330
B
100
AcDbEntity
 67
     1
  8
1
  6
Continuous
 62
    18
100
AcDbLine
 10
2.372475999999999
 20
6.631542999999999
 30
0.0
 11
2.369399
 21
6.631542999999999
 31
0.0
  0
LINE
  5
3FB
330
B
100
AcDbEntity
 67
     1
  8
1
  6
Continuous
 62
    18
100
AcDbLine
 10
5.354500999999999
 20
3.809086
 30
0.0
 11
5.359188999999999
 21
3.809086
 31
0.0
  0
LINE
  5
3FC
330
B
100
AcDbEntity
 67
     1
  8
1
  6
Continuous
 62
    18
100
AcDbLine
 10
2.930181999999999
 20
5.539043
 30
0.0
 11
2.945288
 21
5.539043
 31
0.0
  0
LINE
  5
3FD
330
B
100
AcDbEntity
 67
     1
  8
1
  6
Continuous
 62
    18
100
AcDbLine
 10
5.321741
 20
3.809086
 30
0.0
 11
5.346741
 21
3.809086
 31
0.0
  0
LINE
  5
3FE
330
B
100
AcDbEntity
 67
     1
  8
1
  6
Continuous
 62
    18
100
AcDbLine
 10
2.833002999999999
 20
3.876528
 30
0.0
 11
2.864212999999999
 21
4.053528
 31
0.0
  0
LINE
  5
3FF
330
B
100
AcDbEntity
 67
     1
  8
1
  6
Continuous
 62
    18
100
AcDbLine
 10
2.175107
 20
7.026282000000001
 30
0.0
 11
2.185003
 21
7.031490999999999
 31
0.0
  0
LINE
  5
400
330
B
100
AcDbEntity
 67
     1
  8
1
  6
Continuous
 62
    18
100
AcDbLine
 10
2.122109999999999
 20
3.914336
 30
0.0
 11
2.119499
 21
3.912827999999999
 31
0.0
  0
LINE
  5
401
330
B
100
AcDbEntity
 67
     1
  8
1
  6
Continuous
 62
    18
100
AcDbLine
 10
2.883045
 20
6.651386999999999
 30
0.0
 11
2.882524
 21
6.661283
 31
0.0
  0
LINE
  5
402
330
B
100
AcDbEntity
 67
     1
  8
1
  6
Continuous
 62
    18
100
AcDbLine
 10
4.86207
 20
3.814871
 30
0.0
 11
4.86207
 21
3.781387
 31
0.0
  0
LINE
  5
403
330
B
100
AcDbEntity
 67
     1
  8
1
  6
Continuous
 62
    18
100
AcDbLine
 10
2.709474999999999
 20
6.491543
 30
0.0
 11
2.706288
 21
6.491543
 31
0.0
  0
LINE
  5
404
330
B
100
AcDbEntity
 67
     1
  8
1
  6
Continuous
 62
    18
100
AcDbLine
 10
2.452971999999999
 20
6.641542999999999
 30
0.0
 11
2.454349
 21
6.641542999999999
 31
0.0
  0
LINE
  5
405
330
B
100
AcDbEntity
 67
     1
  8
1
  6
Continuous
 62
    18
100
AcDbLine
 10
5.759241
 20
3.809086
 30
0.0
 11
5.759241
 21
3.994086
 31
0.0
  0
LINE
  5
406
330
B
100
AcDbEntity
 67
     1
  8
1
  6
Continuous
 62
    18
100
AcDbLine
 10
3.355801
 20
6.077389
 30
0.0
 11
3.355801
 21
6.058389
 31
0.0
  0
LINE
  5
407
330
B
100
AcDbEntity
 67
     1
  8
1
  6
Continuous
 62
    18
100
AcDbLine
 10
2.452971999999999
 20
6.631542999999999
 30
0.0
 11
2.450645
 21
6.631542999999999
 31
0.0
  0
LINE
  5
408
330
B
100
AcDbEntity
 67
     1
  8
1
  6
Continuous
 62
    18
100
AcDbLine
 10
4.581739999999999
 20
4.017344
 30
0.0
 11
4.581739999999999
 21
3.990748999999999
 31
0.0
  0
LINE
  5
409
330
B
100
AcDbEntity
 67
     1
  8
1
  6
Continuous
 62
    18
100
AcDbLine
 10
2.609950999999999
 20
6.876183999999999
 30
0.0
 11
2.609950999999999
 21
6.846542999999999
 31
0.0
  0
LINE
  5
40A
330
B
100
AcDbEntity
 67
     1
  8
1
  6
Continuous
 62
    18
100
AcDbLine
 10
2.595159
 20
7.006491
 30
0.0
 11
2.595159
 21
7.016386999999999
 31
0.0
  0
LINE
  5
40B
330
B
100
AcDbEntity
 67
     1
  8
1
  6
Continuous
 62
    18
100
AcDbLine
 10
3.096089
 20
4.067534999999999
 30
0.0
 11
3.087429999999999
 21
4.072533999999999
 31
0.0
  0
LINE
  5
40C
330
B
100
AcDbEntity
 67
     1
  8
1
  6
Continuous
 62
    18
100
AcDbLine
 10
2.159950999999999
 20
6.806902
 30
0.0
 11
2.159950999999999
 21
6.804067999999999
 31
0.0
  0
LINE
  5
40D
330
B
100
AcDbEntity
 67
     1
  8
1
  6
Continuous
 62
    18
100
AcDbLine
 10
2.459950999999999
 20
6.798608999999999
 30
0.0
 11
2.459950999999999
 21
6.797178999999998
 31
0.0
  0
LINE
  5
40E
330
B
100
AcDbEntity
 67
     1
  8
1
  6
Continuous
 62
    18
100
AcDbLine
 10
2.674950999999999
 20
6.341542999999999
 30
0.0
 11
2.674950999999999
 21
6.361543
 31
0.0
  0
LINE
  5
40F
330
B
100
AcDbEntity
 67
     1
  8
1
  6
Continuous
 62
    18
100
AcDbLine
 10
2.865245999999999
 20
5.526543
 30
0.0
 11
2.865245999999999
 21
5.689042999999999
 31
0.0
  0
LINE
  5
410
330
B
100
AcDbEntity
 67
     1
  8
1
  6
Continuous
 62
    18
100
AcDbLine
 10
1.755888999999999
 20
4.422836
 30
0.0
 11
3.320012999999999
 21
4.422836
 31
0.0
  0
LINE
  5
411
330
B
100
AcDbEntity
 67
     1
  8
1
  6
Continuous
 62
    18
100
AcDbLine
 10
2.492078999999999
 20
6.261542999999999
 30
0.0
 11
2.327822999999999
 21
6.261542999999999
 31
0.0
  0
LINE
  5
412
330
B
100
AcDbEntity
 67
     1
  8
1
  6
Continuous
 62
    18
100
AcDbLine
 10
2.169950999999999
 20
6.884564
 30
0.0
 11
2.169950999999999
 21
6.885941
 31
0.0
  0
LINE
  5
413
330
B
100
AcDbEntity
 67
     1
  8
1
  6
Continuous
 62
    18
100
AcDbLine
 10
4.904234999999999
 20
3.770980999999999
 30
0.0
 11
4.905064
 21
3.770980999999999
 31
0.0
  0
LINE
  5
414
330
B
100
AcDbEntity
 67
     1
  8
1
  6
Continuous
 62
    18
100
AcDbLine
 10
2.439950999999999
 20
6.836542999999998
 30
0.0
 11
2.459950999999999
 21
6.836542999999998
 31
0.0
  0
LINE
  5
415
330
B
100
AcDbEntity
 67
     1
  8
1
  6
Continuous
 62
    18
100
AcDbLine
 10
2.294899
 20
7.021594999999999
 30
0.0
 11
2.294899
 21
7.006491
 31
0.0
  0
LINE
  5
416
330
B
100
AcDbEntity
 67
     1
  8
1
  6
Continuous
 62
    18
100
AcDbLine
 10
2.882524
 20
6.616491
 30
0.0
 11
2.873149
 21
6.611803999999999
 31
0.0
  0
LINE
  5
417
330
B
100
AcDbEntity
 67
     1
  8
1
  6
Continuous
 62
    18
100
AcDbLine
 10
2.704591999999999
 20
6.331542999999999
 30
0.0
 11
2.707425999999999
 21
6.331542999999999
 31
0.0
  0
LINE
  5
418
330
B
100
AcDbEntity
 67
     1
  8
1
  6
Continuous
 62
    18
100
AcDbLine
 10
5.389241
 20
3.719085999999999
 30
0.0
 11
5.389241
 21
3.779085999999999
 31
0.0
  0
LINE
  5
419
330
B
100
AcDbEntity
 67
     1
  8
1
  6
Continuous
 62
    18
100
AcDbLine
 10
2.133649
 20
3.915033999999999
 30
0.0
 11
2.132950999999999
 21
3.914336
 31
0.0
  0
LINE
  5
41A
330
B
100
AcDbEntity
 67
     1
  8
1
  6
Continuous
 62
    18
100
AcDbLine
 10
2.159950999999999
 20
6.884564
 30
0.0
 11
2.159950999999999
 21
6.882236999999999
 31
0.0
  0
LINE
  5
41B
330
B
100
AcDbEntity
 67
     1
  8
1
  6
Continuous
 62
    18
100
AcDbLine
 10
4.569241
 20
4.129234999999999
 30
0.0
 11
4.569241
 21
4.133335999999999
 31
0.0
  0
LINE
  5
41C
330
B
100
AcDbEntity
 67
     1
  8
1
  6
Continuous
 62
    18
100
AcDbLine
 10
3.146951
 20
5.946543
 30
0.0
 11
3.146951
 21
5.876701999999999
 31
0.0
  0
LINE
  5
41D
330
B
100
AcDbEntity
 67
     1
  8
1
  6
Continuous
 62
    18
100
AcDbLine
 10
2.143419999999999
 20
6.336281999999999
 30
0.0
 11
2.183002999999999
 21
6.336281999999999
 31
0.0
  0
LINE
  5
41E
330
B
100
AcDbEntity
 67
     1
  8
1
  6
Continuous
 62
    18
100
AcDbLine
 10
2.197899
 20
6.356073999999999
 30
0.0
 11
2.197899
 21
6.341491
 31
0.0
  0
LINE
  5
41F
330
B
100
AcDbEntity
 67
     1
  8
1
  6
Continuous
 62
    18
100
AcDbLine
 10
1.759272999999999
 20
3.814871
 30
0.0
 11
1.759272999999999
 21
3.781387
 31
0.0
  0
LINE
  5
420
330
B
100
AcDbEntity
 67
     1
  8
1
  6
Continuous
 62
    18
100
AcDbLine
 10
2.365587
 20
6.481543
 30
0.0
 11
2.365229999999999
 21
6.481543
 31
0.0
  0
LINE
  5
421
330
B
100
AcDbEntity
 67
     1
  8
1
  6
Continuous
 62
    18
100
AcDbLine
 10
2.309950999999999
 20
6.798608999999999
 30
0.0
 11
2.309950999999999
 21
6.797178999999998
 31
0.0
  0
LINE
  5
422
330
B
100
AcDbEntity
 67
     1
  8
1
  6
Continuous
 62
    18
100
AcDbLine
 10
2.881743
 20
6.342272
 30
0.0
 11
2.852055
 21
6.312583999999999
 31
0.0
  0
LINE
  5
423
330
B
100
AcDbEntity
 67
     1
  8
1
  6
Continuous
 62
    18
100
AcDbLine
 10
2.237743
 20
6.491491
 30
0.0
 11
2.208054999999999
 21
6.461802999999999
 31
0.0
  0
LINE
  5
424
330
B
100
AcDbEntity
 67
     1
  8
1
  6
Continuous
 62
    18
100
AcDbLine
 10
3.316629
 20
3.814871
 30
0.0
 11
3.320801
 21
3.823218
 31
0.0
  0
LINE
  5
425
330
B
100
AcDbEntity
 67
     1
  8
1
  6
Continuous
 62
    18
100
AcDbLine
 10
2.664950999999999
 20
6.341542999999999
 30
0.0
 11
2.664950999999999
 21
6.361543
 31
0.0
  0
LINE
  5
426
330
B
100
AcDbEntity
 67
     1
  8
1
  6
Continuous
 62
    18
100
AcDbLine
 10
2.63531
 20
6.491543
 30
0.0
 11
2.634459
 21
6.491543
 31
0.0
  0
LINE
  5
427
330
B
100
AcDbEntity
 67
     1
  8
1
  6
Continuous
 62
    18
100
AcDbLine
 10
2.289950999999999
 20
6.836542999999998
 30
0.0
 11
2.309950999999999
 21
6.836542999999998
 31
0.0
  0
LINE
  5
428
330
B
100
AcDbEntity
 67
     1
  8
1
  6
Continuous
 62
    18
100
AcDbLine
 10
2.873149
 20
6.611803999999999
 30
0.0
 11
2.852835999999999
 21
6.611803999999999
 31
0.0
  0
LINE
  5
429
330
B
100
AcDbEntity
 67
     1
  8
1
  6
Continuous
 62
    18
100
AcDbLine
 10
6.088772
 20
3.809086
 30
0.0
 11
6.09398
 21
3.809086
 31
0.0
  0
LINE
  5
42A
330
B
100
AcDbEntity
 67
     1
  8
1
  6
Continuous
 62
    18
100
AcDbLine
 10
2.309950999999999
 20
6.882236999999999
 30
0.0
 11
2.309950999999999
 21
6.879235
 31
0.0
  0
LINE
  5
42B
330
B
100
AcDbEntity
 67
     1
  8
1
  6
Continuous
 62
    18
100
AcDbLine
 10
2.162950999999999
 20
4.202836
 30
0.0
 11
2.162950999999999
 21
4.201526999999999
 31
0.0
  0
LINE
  5
42C
330
B
100
AcDbEntity
 67
     1
  8
1
  6
Continuous
 62
    18
100
AcDbLine
 10
1.979813
 20
3.886137
 30
0.0
 11
1.980216
 21
3.886834999999999
 31
0.0
  0
LINE
  5
42D
330
B
100
AcDbEntity
 67
     1
  8
1
  6
Continuous
 62
    18
100
AcDbLine
 10
5.304241
 20
3.994086
 30
0.0
 11
5.304241
 21
4.154086
 31
0.0
  0
LINE
  5
42E
330
B
100
AcDbEntity
 67
     1
  8
1
  6
Continuous
 62
    18
100
AcDbLine
 10
2.766036
 20
3.817114
 30
0.0
 11
2.766036
 21
3.809336
 31
0.0
  0
LINE
  5
42F
330
B
100
AcDbEntity
 67
     1
  8
1
  6
Continuous
 62
    18
100
AcDbLine
 10
2.619950999999999
 20
6.796839999999999
 30
0.0
 11
2.619950999999999
 21
6.797599
 31
0.0
  0
LINE
  5
430
330
B
100
AcDbEntity
 67
     1
  8
1
  6
Continuous
 62
    18
100
AcDbLine
 10
1.946377999999999
 20
3.945444999999999
 30
0.0
 11
1.931141
 21
3.971837
 31
0.0
  0
LINE
  5
431
330
B
100
AcDbEntity
 67
     1
  8
1
  6
Continuous
 62
    18
100
AcDbLine
 10
2.769950999999999
 20
6.797599
 30
0.0
 11
2.769950999999999
 21
6.799389999999999
 31
0.0
  0
LINE
  5
432
330
B
100
AcDbEntity
 67
     1
  8
1
  6
Continuous
 62
    18
100
AcDbLine
 10
2.797584999999999
 20
4.111335999999999
 30
0.0
 11
2.278316999999999
 21
4.111335999999999
 31
0.0
  0
LINE
  5
433
330
B
100
AcDbEntity
 67
     1
  8
1
  6
Continuous
 62
    18
100
AcDbLine
 10
2.309865999999999
 20
3.809336
 30
0.0
 11
2.766036
 21
3.809336
 31
0.0
  0
LINE
  5
434
330
B
100
AcDbEntity
 67
     1
  8
1
  6
Continuous
 62
    18
100
AcDbLine
 10
6.089292999999999
 20
3.809086
 30
0.0
 11
6.09398
 21
3.809086
 31
0.0
  0
LINE
  5
435
330
B
100
AcDbEntity
 67
     1
  8
1
  6
Continuous
 62
    18
100
AcDbLine
 10
3.087026999999999
 20
3.881835999999999
 30
0.0
 11
3.087429999999999
 21
3.881137999999999
 31
0.0
  0
LINE
  5
436
330
B
100
AcDbEntity
 67
     1
  8
1
  6
Continuous
 62
    18
100
AcDbLine
 10
2.619950999999999
 20
6.846542999999999
 30
0.0
 11
2.639950999999999
 21
6.846542999999999
 31
0.0
  0
LINE
  5
437
330
B
100
AcDbEntity
 67
     1
  8
1
  6
Continuous
 62
    18
100
AcDbLine
 10
2.445443
 20
6.341542999999999
 30
0.0
 11
2.448765999999999
 21
6.341542999999999
 31
0.0
  0
LINE
  5
438
330
B
100
AcDbEntity
 67
     1
  8
1
  6
Continuous
 62
    18
100
AcDbLine
 10
2.789950999999999
 20
6.846542999999999
 30
0.0
 11
2.789950999999999
 21
6.836542999999998
 31
0.0
  0
LINE
  5
439
330
B
100
AcDbEntity
 67
     1
  8
1
  6
Continuous
 62
    18
100
AcDbLine
 10
2.238002999999999
 20
6.636282
 30
0.0
 11
2.238002999999999
 21
6.611803999999999
 31
0.0
  0
LINE
  5
43A
330
B
100
AcDbEntity
 67
     1
  8
1
  6
Continuous
 62
    18
100
AcDbLine
 10
5.609240999999999
 20
3.961586
 30
0.0
 11
5.609240999999999
 21
3.851586
 31
0.0
  0
LINE
  5
43B
330
B
100
AcDbEntity
 67
     1
  8
1
  6
Continuous
 62
    18
100
AcDbLine
 10
3.10672
 20
5.539043
 30
0.0
 11
3.111950999999999
 21
5.539043
 31
0.0
  0
LINE
  5
43C
330
B
100
AcDbEntity
 67
     1
  8
1
  6
Continuous
 62
    18
100
AcDbLine
 10
5.489241
 20
3.931586
 30
0.0
 11
5.569241
 21
3.931586
 31
0.0
  0
LINE
  5
43D
330
B
100
AcDbEntity
 67
     1
  8
1
  6
Continuous
 62
    18
100
AcDbLine
 10
2.454671999999999
 20
6.331542999999999
 30
0.0
 11
2.45466
 21
6.331542999999999
 31
0.0
  0
LINE
  5
43E
330
B
100
AcDbEntity
 67
     1
  8
1
  6
Continuous
 62
    18
100
AcDbLine
 10
2.159950999999999
 20
6.882236999999999
 30
0.0
 11
2.159950999999999
 21
6.879235
 31
0.0
  0
LINE
  5
43F
330
B
100
AcDbEntity
 67
     1
  8
1
  6
Continuous
 62
    18
100
AcDbLine
 10
5.354500999999999
 20
3.809086
 30
0.0
 11
5.40398
 21
3.809086
 31
0.0
  0
LINE
  5
440
330
B
100
AcDbEntity
 67
     1
  8
1
  6
Continuous
 62
    18
100
AcDbLine
 10
5.654500999999999
 20
3.809086
 30
0.0
 11
5.70398
 21
3.809086
 31
0.0
  0
LINE
  5
441
330
B
100
AcDbEntity
 67
     1
  8
1
  6
Continuous
 62
    18
100
AcDbLine
 10
2.909950999999999
 20
6.806902
 30
0.0
 11
2.909950999999999
 21
6.804067999999999
 31
0.0
  0
LINE
  5
442
330
B
100
AcDbEntity
 67
     1
  8
1
  6
Continuous
 62
    18
100
AcDbLine
 10
2.706288
 20
6.641542999999999
 30
0.0
 11
2.704591999999999
 21
6.641542999999999
 31
0.0
  0
LINE
  5
443
330
B
100
AcDbEntity
 67
     1
  8
1
  6
Continuous
 62
    18
100
AcDbLine
 10
5.489241
 20
3.881586
 30
0.0
 11
5.45924
 21
3.851586
 31
0.0
  0
LINE
  5
444
330
B
100
AcDbEntity
 67
     1
  8
1
  6
Continuous
 62
    18
100
AcDbLine
 10
2.769950999999999
 20
6.805206
 30
0.0
 11
2.769950999999999
 21
6.806902
 31
0.0
  0
LINE
  5
445
330
B
100
AcDbEntity
 67
     1
  8
1
  6
Continuous
 62
    18
100
AcDbLine
 10
2.919950999999999
 20
6.884564
 30
0.0
 11
2.919950999999999
 21
6.885941
 31
0.0
  0
LINE
  5
446
330
B
100
AcDbEntity
 67
     1
  8
1
  6
Continuous
 62
    18
100
AcDbLine
 10
2.104089
 20
4.067534999999999
 30
0.0
 11
2.095429999999999
 21
4.072533999999999
 31
0.0
  0
LINE
  5
447
330
B
100
AcDbEntity
 67
     1
  8
1
  6
Continuous
 62
    18
100
AcDbLine
 10
2.909950999999999
 20
6.884564
 30
0.0
 11
2.909950999999999
 21
6.882236999999999
 31
0.0
  0
LINE
  5
448
330
B
100
AcDbEntity
 67
     1
  8
1
  6
Continuous
 62
    18
100
AcDbLine
 10
2.625241999999999
 20
6.631542999999999
 30
0.0
 11
2.625963
 21
6.631542999999999
 31
0.0
  0
LINE
  5
449
330
B
100
AcDbEntity
 67
     1
  8
1
  6
Continuous
 62
    18
100
AcDbLine
 10
1.940950999999999
 20
5.539043
 30
0.0
 11
1.946181
 21
5.539043
 31
0.0
  0
LINE
  5
44A
330
B
100
AcDbEntity
 67
     1
  8
1
  6
Continuous
 62
    18
100
AcDbLine
 10
4.862072
 20
3.809086
 30
0.0
 11
5.016741
 21
3.809086
 31
0.0
  0
LINE
  5
44B
330
B
100
AcDbEntity
 67
     1
  8
1
  6
Continuous
 62
    18
100
AcDbLine
 10
1.930334
 20
3.981834999999999
 30
0.0
 11
1.930334
 21
3.971837
 31
0.0
  0
LINE
  5
44C
330
B
100
AcDbEntity
 67
     1
  8
1
  6
Continuous
 62
    18
100
AcDbLine
 10
4.73174
 20
3.776835999999999
 30
0.0
 11
4.73174
 21
4.176835999999999
 31
0.0
  0
LINE
  5
44D
330
B
100
AcDbEntity
 67
     1
  8
1
  6
Continuous
 62
    18
100
AcDbLine
 10
2.625241999999999
 20
6.481543
 30
0.0
 11
2.625963
 21
6.481543
 31
0.0
  0
LINE
  5
44E
330
B
100
AcDbEntity
 67
     1
  8
1
  6
Continuous
 62
    18
100
AcDbLine
 10
2.089950999999999
 20
6.716542999999999
 30
0.0
 11
2.089950999999999
 21
6.759414999999999
 31
0.0
  0
LINE
  5
44F
330
B
100
AcDbEntity
 67
     1
  8
1
  6
Continuous
 62
    18
100
AcDbLine
 10
2.369399
 20
6.631542999999999
 30
0.0
 11
2.367016999999999
 21
6.631542999999999
 31
0.0
  0
LINE
  5
450
330
B
100
AcDbEntity
 67
     1
  8
1
  6
Continuous
 62
    18
100
AcDbLine
 10
2.980875
 20
4.071836
 30
0.0
 11
2.980472
 21
4.072533999999999
 31
0.0
  0
LINE
  5
451
330
B
100
AcDbEntity
 67
     1
  8
1
  6
Continuous
 62
    18
100
AcDbLine
 10
2.119499
 20
3.912827999999999
 30
0.0
 11
2.104089
 21
3.886137
 31
0.0
  0
LINE
  5
452
330
B
100
AcDbEntity
 67
     1
  8
1
  6
Continuous
 62
    18
100
AcDbLine
 10
2.197899
 20
6.636802999999999
 30
0.0
 11
2.207794999999999
 21
6.631594999999999
 31
0.0
  0
LINE
  5
453
330
B
100
AcDbEntity
 67
     1
  8
1
  6
Continuous
 62
    18
100
AcDbLine
 10
2.706288
 20
6.491543
 30
0.0
 11
2.704591999999999
 21
6.491543
 31
0.0
  0
LINE
  5
454
330
B
100
AcDbEntity
 67
     1
  8
1
  6
Continuous
 62
    18
100
AcDbLine
 10
2.454349
 20
6.641542999999999
 30
0.0
 11
2.454671999999999
 21
6.641542999999999
 31
0.0
  0
LINE
  5
455
330
B
100
AcDbEntity
 67
     1
  8
1
  6
Continuous
 62
    18
100
AcDbLine
 10
6.074188999999999
 20
3.809086
 30
0.0
 11
6.06898
 21
3.809086
 31
0.0
  0
LINE
  5
456
330
B
100
AcDbEntity
 67
     1
  8
1
  6
Continuous
 62
    18
100
AcDbLine
 10
6.03924
 20
3.809086
 30
0.0
 11
6.03924
 21
3.994086
 31
0.0
  0
LINE
  5
457
330
B
100
AcDbEntity
 67
     1
  8
1
  6
Continuous
 62
    18
100
AcDbLine
 10
5.524291999999999
 20
3.809086
 30
0.0
 11
5.534187999999999
 21
3.809086
 31
0.0
  0
LINE
  5
458
330
B
100
AcDbEntity
 67
     1
  8
1
  6
Continuous
 62
    18
100
AcDbLine
 10
2.294899
 20
7.006491
 30
0.0
 11
2.304794999999999
 21
7.001802999999999
 31
0.0
  0
LINE
  5
459
330
B
100
AcDbEntity
 67
     1
  8
1
  6
Continuous
 62
    18
100
AcDbLine
 10
5.66924
 20
3.779085999999999
 30
0.0
 11
5.66924
 21
3.719085999999999
 31
0.0
  0
LINE
  5
45A
330
B
100
AcDbEntity
 67
     1
  8
1
  6
Continuous
 62
    18
100
AcDbLine
 10
2.674950999999999
 20
6.311543
 30
0.0
 11
2.674950999999999
 21
6.331542999999999
 31
0.0
  0
LINE
  5
45B
330
B
100
AcDbEntity
 67
     1
  8
1
  6
Continuous
 62
    18
100
AcDbLine
 10
2.450645
 20
6.631542999999999
 30
0.0
 11
2.447643999999999
 21
6.631542999999999
 31
0.0
  0
LINE
  5
45C
330
B
100
AcDbEntity
 67
     1
  8
1
  6
Continuous
 62
    18
100
AcDbLine
 10
5.909241
 20
3.809086
 30
0.0
 11
5.909241
 21
3.819086
 31
0.0
  0
LINE
  5
45D
330
B
100
AcDbEntity
 67
     1
  8
1
  6
Continuous
 62
    18
100
AcDbLine
 10
4.581739999999999
 20
3.990748999999999
 30
0.0
 11
4.581739999999999
 21
3.962922
 31
0.0
  0
LINE
  5
45E
330
B
100
AcDbEntity
 67
     1
  8
1
  6
Continuous
 62
    18
100
AcDbLine
 10
2.841429999999999
 20
6.481594999999999
 30
0.0
 11
2.841429999999999
 21
6.466491
 31
0.0
  0
LINE
  5
45F
330
B
100
AcDbEntity
 67
     1
  8
1
  6
Continuous
 62
    18
100
AcDbLine
 10
3.096089
 20
4.067534999999999
 30
0.0
 11
3.145566999999999
 21
3.981834999999999
 31
0.0
  0
LINE
  5
460
330
B
100
AcDbEntity
 67
     1
  8
1
  6
Continuous
 62
    18
100
AcDbLine
 10
2.674950999999999
 20
6.331542999999999
 30
0.0
 11
2.704591999999999
 21
6.331542999999999
 31
0.0
  0
LINE
  5
461
330
B
100
AcDbEntity
 67
     1
  8
1
  6
Continuous
 62
    18
100
AcDbLine
 10
2.159950999999999
 20
6.804067999999999
 30
0.0
 11
2.159950999999999
 21
6.800991999999999
 31
0.0
  0
LINE
  5
462
330
B
100
AcDbEntity
 67
     1
  8
1
  6
Continuous
 62
    18
100
AcDbLine
 10
4.985147
 20
3.751644
 30
0.0
 11
4.967912
 21
3.751644
 31
0.0
  0
LINE
  5
463
330
B
100
AcDbEntity
 67
     1
  8
1
  6
Continuous
 62
    18
100
AcDbLine
 10
2.459950999999999
 20
6.797178999999998
 30
0.0
 11
2.459950999999999
 21
6.796821999999999
 31
0.0
  0
LINE
  5
464
330
B
100
AcDbEntity
 67
     1
  8
1
  6
Continuous
 62
    18
100
AcDbLine
 10
2.210656
 20
5.689042999999999
 30
0.0
 11
2.210656
 21
5.526543
 31
0.0
  0
LINE
  5
465
330
B
100
AcDbEntity
 67
     1
  8
1
  6
Continuous
 62
    18
100
AcDbLine
 10
1.755888999999999
 20
4.176835999999999
 30
0.0
 11
1.755888999999999
 21
4.422836
 31
0.0
  0
LINE
  5
466
330
B
100
AcDbEntity
 67
     1
  8
1
  6
Continuous
 62
    18
100
AcDbLine
 10
2.169950999999999
 20
6.885941
 30
0.0
 11
2.169950999999999
 21
6.886263999999999
 31
0.0
  0
LINE
  5
467
330
B
100
AcDbEntity
 67
     1
  8
1
  6
Continuous
 62
    18
100
AcDbLine
 10
4.905064
 20
3.770980999999999
 30
0.0
 11
4.907523
 21
3.770980999999999
 31
0.0
  0
LINE
  5
468
330
B
100
AcDbEntity
 67
     1
  8
1
  6
Continuous
 62
    18
100
AcDbLine
 10
2.439950999999999
 20
6.846542999999999
 30
0.0
 11
2.439950999999999
 21
6.836542999999998
 31
0.0
  0
LINE
  5
469
330
B
100
AcDbEntity
 67
     1
  8
1
  6
Continuous
 62
    18
100
AcDbLine
 10
2.881013
 20
6.506594999999999
 30
0.0
 11
2.871639
 21
6.511281999999999
 31
0.0
  0
LINE
  5
46A
330
B
100
AcDbEntity
 67
     1
  8
1
  6
Continuous
 62
    18
100
AcDbLine
 10
2.132950999999999
 20
3.780835999999999
 30
0.0
 11
2.134259999999999
 21
3.780835999999999
 31
0.0
  0
LINE
  5
46B
330
B
100
AcDbEntity
 67
     1
  8
1
  6
Continuous
 62
    18
100
AcDbLine
 10
2.948950999999999
 20
6.204043
 30
0.0
 11
2.948950999999999
 21
6.074042999999999
 31
0.0
  0
LINE
  5
46C
330
B
100
AcDbEntity
 67
     1
  8
1
  6
Continuous
 62
    18
100
AcDbLine
 10
4.581744
 20
4.053528
 30
0.0
 11
4.569241
 21
4.053528
 31
0.0
  0
LINE
  5
46D
330
B
100
AcDbEntity
 67
     1
  8
1
  6
Continuous
 62
    18
100
AcDbLine
 10
1.928950999999999
 20
5.946543
 30
0.0
 11
1.928950999999999
 21
5.876701999999999
 31
0.0
  0
LINE
  5
46E
330
B
100
AcDbEntity
 67
     1
  8
1
  6
Continuous
 62
    18
100
AcDbLine
 10
2.304794999999999
 20
7.001802999999999
 30
0.0
 11
2.325107
 21
7.001802999999999
 31
0.0
  0
LINE
  5
46F
330
B
100
AcDbEntity
 67
     1
  8
1
  6
Continuous
 62
    18
100
AcDbLine
 10
6.06898
 20
3.809086
 30
0.0
 11
6.064292
 21
3.809086
 31
0.0
  0
LINE
  5
470
330
B
100
AcDbEntity
 67
     1
  8
1
  6
Continuous
 62
    18
100
AcDbLine
 10
2.775106999999999
 20
7.051282
 30
0.0
 11
2.784482
 21
7.041386999999999
 31
0.0
  0
LINE
  5
471
330
B
100
AcDbEntity
 67
     1
  8
1
  6
Continuous
 62
    18
100
AcDbLine
 10
4.88374
 20
4.174085999999999
 30
0.0
 11
4.86207
 21
4.174085999999999
 31
0.0
  0
LINE
  5
472
330
B
100
AcDbEntity
 67
     1
  8
1
  6
Continuous
 62
    18
100
AcDbLine
 10
3.316629
 20
3.814871
 30
0.0
 11
3.316629
 21
3.781387
 31
0.0
  0
LINE
  5
473
330
B
100
AcDbEntity
 67
     1
  8
1
  6
Continuous
 62
    18
100
AcDbLine
 10
2.713894999999999
 20
6.341542999999999
 30
0.0
 11
2.712104
 21
6.341542999999999
 31
0.0
  0
LINE
  5
474
330
B
100
AcDbEntity
 67
     1
  8
1
  6
Continuous
 62
    18
100
AcDbLine
 10
2.609950999999999
 20
6.88553
 30
0.0
 11
2.609950999999999
 21
6.884564
 31
0.0
  0
LINE
  5
475
330
B
100
AcDbEntity
 67
     1
  8
1
  6
Continuous
 62
    18
100
AcDbLine
 10
2.404951
 20
6.481543
 30
0.0
 11
2.375309999999999
 21
6.481543
 31
0.0
  0
LINE
  5
476
330
B
100
AcDbEntity
 67
     1
  8
1
  6
Continuous
 62
    18
100
AcDbLine
 10
4.985992999999999
 20
3.770980999999999
 30
0.0
 11
5.000494
 21
3.770980999999999
 31
0.0
  0
LINE
  5
477
330
B
100
AcDbEntity
 67
     1
  8
1
  6
Continuous
 62
    18
100
AcDbLine
 10
2.309950999999999
 20
6.797178999999998
 30
0.0
 11
2.309950999999999
 21
6.796821999999999
 31
0.0
  0
LINE
  5
478
330
B
100
AcDbEntity
 67
     1
  8
1
  6
Continuous
 62
    18
100
AcDbLine
 10
2.055347
 20
6.515969999999999
 30
0.0
 11
2.065243
 21
6.521177999999999
 31
0.0
  0
LINE
  5
479
330
B
100
AcDbEntity
 67
     1
  8
1
  6
Continuous
 62
    18
100
AcDbLine
 10
2.625367999999999
 20
7.001802999999999
 30
0.0
 11
2.605055
 21
7.001802999999999
 31
0.0
  0
LINE
  5
47A
330
B
100
AcDbEntity
 67
     1
  8
1
  6
Continuous
 62
    18
100
AcDbLine
 10
1.755100999999999
 20
3.823218
 30
0.0
 11
1.755100999999999
 21
4.130454
 31
0.0
  0
LINE
  5
47B
330
B
100
AcDbEntity
 67
     1
  8
1
  6
Continuous
 62
    18
100
AcDbLine
 10
2.664950999999999
 20
6.361543
 30
0.0
 11
2.674950999999999
 21
6.361543
 31
0.0
  0
LINE
  5
47C
330
B
100
AcDbEntity
 67
     1
  8
1
  6
Continuous
 62
    18
100
AcDbLine
 10
4.581739999999999
 20
4.040351
 30
0.0
 11
4.581739999999999
 21
4.017344
 31
0.0
  0
LINE
  5
47D
330
B
100
AcDbEntity
 67
     1
  8
1
  6
Continuous
 62
    18
100
AcDbLine
 10
2.289950999999999
 20
6.846542999999999
 30
0.0
 11
2.289950999999999
 21
6.836542999999998
 31
0.0
  0
LINE
  5
47E
330
B
100
AcDbEntity
 67
     1
  8
1
  6
Continuous
 62
    18
100
AcDbLine
 10
2.128524
 20
6.311803
 30
0.0
 11
2.128524
 21
6.361282
 31
0.0
  0
LINE
  5
47F
330
B
100
AcDbEntity
 67
     1
  8
1
  6
Continuous
 62
    18
100
AcDbLine
 10
2.309950999999999
 20
6.879235
 30
0.0
 11
2.309950999999999
 21
6.876183999999999
 31
0.0
  0
LINE
  5
480
330
B
100
AcDbEntity
 67
     1
  8
1
  6
Continuous
 62
    18
100
AcDbLine
 10
2.119095999999999
 20
3.913526999999999
 30
0.0
 11
2.103686
 21
3.886834999999999
 31
0.0
  0
LINE
  5
481
330
B
100
AcDbEntity
 67
     1
  8
1
  6
Continuous
 62
    18
100
AcDbLine
 10
2.119095999999999
 20
4.040144999999999
 30
0.0
 11
2.119499
 21
4.040842999999999
 31
0.0
  0
LINE
  5
482
330
B
100
AcDbEntity
 67
     1
  8
1
  6
Continuous
 62
    18
100
AcDbLine
 10
2.278656
 20
5.526543
 30
0.0
 11
2.252634
 21
5.526543
 31
0.0
  0
LINE
  5
483
330
B
100
AcDbEntity
 67
     1
  8
1
  6
Continuous
 62
    18
100
AcDbLine
 10
2.450645
 20
6.481543
 30
0.0
 11
2.447643999999999
 21
6.481543
 31
0.0
  0
LINE
  5
484
330
B
100
AcDbEntity
 67
     1
  8
1
  6
Continuous
 62
    18
100
AcDbLine
 10
1.931141
 20
3.971837
 30
0.0
 11
1.930334
 21
3.971837
 31
0.0
  0
LINE
  5
485
330
B
100
AcDbEntity
 67
     1
  8
1
  6
Continuous
 62
    18
100
AcDbLine
 10
5.754241
 20
3.994086
 30
0.0
 11
5.754241
 21
4.154086
 31
0.0
  0
LINE
  5
486
330
B
100
AcDbEntity
 67
     1
  8
1
  6
Continuous
 62
    18
100
AcDbLine
 10
2.200855999999999
 20
4.051618
 30
0.0
 11
2.208515999999999
 21
4.052969
 31
0.0
  0
LINE
  5
487
330
B
100
AcDbEntity
 67
     1
  8
1
  6
Continuous
 62
    18
100
AcDbLine
 10
2.619950999999999
 20
6.797599
 30
0.0
 11
2.619950999999999
 21
6.799389999999999
 31
0.0
  0
LINE
  5
488
330
B
100
AcDbEntity
 67
     1
  8
1
  6
Continuous
 62
    18
100
AcDbLine
 10
1.980216
 20
3.886834999999999
 30
0.0
 11
1.988874999999999
 21
3.881835999999999
 31
0.0
  0
LINE
  5
489
330
B
100
AcDbEntity
 67
     1
  8
1
  6
Continuous
 62
    18
100
AcDbLine
 10
6.048667
 20
3.809086
 30
0.0
 11
6.044501
 21
3.809086
 31
0.0
  0
LINE
  5
48A
330
B
100
AcDbEntity
 67
     1
  8
1
  6
Continuous
 62
    18
100
AcDbLine
 10
2.373613999999999
 20
6.341542999999999
 30
0.0
 11
2.375309999999999
 21
6.341542999999999
 31
0.0
  0
LINE
  5
48B
330
B
100
AcDbEntity
 67
     1
  8
1
  6
Continuous
 62
    18
100
AcDbLine
 10
2.980472
 20
3.881137999999999
 30
0.0
 11
2.980875
 21
3.881835999999999
 31
0.0
  0
LINE
  5
48C
330
B
100
AcDbEntity
 67
     1
  8
1
  6
Continuous
 62
    18
100
AcDbLine
 10
2.013450999999999
 20
5.579043
 30
0.0
 11
2.013450999999999
 21
5.539043
 31
0.0
  0
LINE
  5
48D
330
B
100
AcDbEntity
 67
     1
  8
1
  6
Continuous
 62
    18
100
AcDbLine
 10
2.639950999999999
 20
6.846542999999999
 30
0.0
 11
2.639950999999999
 21
6.836542999999998
 31
0.0
  0
LINE
  5
48E
330
B
100
AcDbEntity
 67
     1
  8
1
  6
Continuous
 62
    18
100
AcDbLine
 10
2.448765999999999
 20
6.341542999999999
 30
0.0
 11
2.451592999999999
 21
6.341542999999999
 31
0.0
  0
LINE
  5
48F
330
B
100
AcDbEntity
 67
     1
  8
1
  6
Continuous
 62
    18
100
AcDbLine
 10
2.055450999999999
 20
4.067947
 30
0.0
 11
2.055450999999999
 21
4.035701999999999
 31
0.0
  0
LINE
  5
490
330
B
100
AcDbEntity
 67
     1
  8
1
  6
Continuous
 62
    18
100
AcDbLine
 10
2.769950999999999
 20
6.876183999999999
 30
0.0
 11
2.769950999999999
 21
6.877035
 31
0.0
  0
LINE
  5
491
330
B
100
AcDbEntity
 67
     1
  8
1
  6
Continuous
 62
    18
100
AcDbLine
 10
5.41924
 20
3.931586
 30
0.0
 11
5.41924
 21
3.881586
 31
0.0
  0
LINE
  5
492
330
B
100
AcDbEntity
 67
     1
  8
1
  6
Continuous
 62
    18
100
AcDbLine
 10
6.074188999999999
 20
3.809086
 30
0.0
 11
6.06898
 21
3.809086
 31
0.0
  0
LINE
  5
493
330
B
100
AcDbEntity
 67
     1
  8
1
  6
Continuous
 62
    18
100
AcDbLine
 10
6.064292
 20
3.809086
 30
0.0
 11
6.074188999999999
 21
3.809086
 31
0.0
  0
LINE
  5
494
330
B
100
AcDbEntity
 67
     1
  8
1
  6
Continuous
 62
    18
100
AcDbLine
 10
6.059083999999999
 20
3.809086
 30
0.0
 11
6.084084999999999
 21
3.809086
 31
0.0
  0
LINE
  5
495
330
B
100
AcDbEntity
 67
     1
  8
1
  6
Continuous
 62
    18
100
AcDbLine
 10
2.45466
 20
6.331542999999999
 30
0.0
 11
2.453937999999999
 21
6.331542999999999
 31
0.0
  0
LINE
  5
496
330
B
100
AcDbEntity
 67
     1
  8
1
  6
Continuous
 62
    18
100
AcDbLine
 10
2.264225
 20
3.880348
 30
0.0
 11
2.233016
 21
4.057348
 31
0.0
  0
LINE
  5
497
330
B
100
AcDbEntity
 67
     1
  8
1
  6
Continuous
 62
    18
100
AcDbLine
 10
5.548772
 20
3.809086
 30
0.0
 11
5.55398
 21
3.809086
 31
0.0
  0
LINE
  5
498
330
B
100
AcDbEntity
 67
     1
  8
1
  6
Continuous
 62
    18
100
AcDbLine
 10
5.508666999999999
 20
3.809086
 30
0.0
 11
5.504501
 21
3.809086
 31
0.0
  0
LINE
  5
499
330
B
100
AcDbEntity
 67
     1
  8
1
  6
Continuous
 62
    18
100
AcDbLine
 10
2.909950999999999
 20
6.804067999999999
 30
0.0
 11
2.909950999999999
 21
6.800991999999999
 31
0.0
  0
LINE
  5
49A
330
B
100
AcDbEntity
 67
     1
  8
1
  6
Continuous
 62
    18
100
AcDbLine
 10
2.319950999999999
 20
6.796839999999999
 30
0.0
 11
2.319950999999999
 21
6.797599
 31
0.0
  0
LINE
  5
49B
330
B
100
AcDbEntity
 67
     1
  8
1
  6
Continuous
 62
    18
100
AcDbLine
 10
4.999198
 20
3.751644
 30
0.0
 11
4.985147
 21
3.751644
 31
0.0
  0
LINE
  5
49C
330
B
100
AcDbEntity
 67
     1
  8
1
  6
Continuous
 62
    18
100
AcDbLine
 10
5.45924
 20
3.961586
 30
0.0
 11
5.489241
 21
3.931586
 31
0.0
  0
LINE
  5
49D
330
B
100
AcDbEntity
 67
     1
  8
1
  6
Continuous
 62
    18
100
AcDbLine
 10
1.947972999999999
 20
3.941285999999999
 30
0.0
 11
1.930334
 21
3.971837
 31
0.0
  0
LINE
  5
49E
330
B
100
AcDbEntity
 67
     1
  8
1
  6
Continuous
 62
    18
100
AcDbLine
 10
5.374292999999999
 20
3.809086
 30
0.0
 11
5.359188999999999
 21
3.809086
 31
0.0
  0
LINE
  5
49F
330
B
100
AcDbEntity
 67
     1
  8
1
  6
Continuous
 62
    18
100
AcDbLine
 10
2.919950999999999
 20
6.885941
 30
0.0
 11
2.919950999999999
 21
6.886263999999999
 31
0.0
  0
LINE
  5
4A0
330
B
100
AcDbEntity
 67
     1
  8
1
  6
Continuous
 62
    18
100
AcDbLine
 10
2.309865999999999
 20
3.820336
 30
0.0
 11
2.766036
 21
3.820336
 31
0.0
  0
LINE
  5
4A1
330
B
100
AcDbEntity
 67
     1
  8
1
  6
Continuous
 62
    18
100
AcDbLine
 10
2.628309
 20
6.641542999999999
 30
0.0
 11
2.626929999999999
 21
6.641542999999999
 31
0.0
  0
LINE
  5
4A2
330
B
100
AcDbEntity
 67
     1
  8
1
  6
Continuous
 62
    18
100
AcDbLine
 10
2.980472
 20
4.072533999999999
 30
0.0
 11
2.971813
 21
4.067534999999999
 31
0.0
  0
LINE
  5
4A3
330
B
100
AcDbEntity
 67
     1
  8
1
  6
Continuous
 62
    18
100
AcDbLine
 10
2.188679999999999
 20
6.501387
 30
0.0
 11
2.178783999999999
 21
6.501387
 31
0.0
  0
LINE
  5
4A4
330
B
100
AcDbEntity
 67
     1
  8
1
  6
Continuous
 62
    18
100
AcDbLine
 10
5.321741
 20
3.779085999999999
 30
0.0
 11
5.303439
 21
3.779085999999999
 31
0.0
  0
LINE
  5
4A5
330
B
100
AcDbEntity
 67
     1
  8
1
  6
Continuous
 62
    18
100
AcDbLine
 10
3.039450999999999
 20
5.579043
 30
0.0
 11
3.018450999999999
 21
5.579043
 31
0.0
  0
LINE
  5
4A6
330
B
100
AcDbEntity
 67
     1
  8
1
  6
Continuous
 62
    18
100
AcDbLine
 10
5.544084999999999
 20
3.809086
 30
0.0
 11
5.558667999999999
 21
3.809086
 31
0.0
  0
LINE
  5
4A7
330
B
100
AcDbEntity
 67
     1
  8
1
  6
Continuous
 62
    18
100
AcDbLine
 10
2.107613999999999
 20
5.539043
 30
0.0
 11
2.12272
 21
5.539043
 31
0.0
  0
LINE
  5
4A8
330
B
100
AcDbEntity
 67
     1
  8
1
  6
Continuous
 62
    18
100
AcDbLine
 10
2.909950999999999
 20
6.882236999999999
 30
0.0
 11
2.909950999999999
 21
6.879235
 31
0.0
  0
LINE
  5
4A9
330
B
100
AcDbEntity
 67
     1
  8
1
  6
Continuous
 62
    18
100
AcDbLine
 10
2.625963
 20
6.631542999999999
 30
0.0
 11
2.626929999999999
 21
6.631542999999999
 31
0.0
  0
LINE
  5
4AA
330
B
100
AcDbEntity
 67
     1
  8
1
  6
Continuous
 62
    18
100
AcDbLine
 10
5.534187999999999
 20
3.809086
 30
0.0
 11
5.548772
 21
3.809086
 31
0.0
  0
LINE
  5
4AB
330
B
100
AcDbEntity
 67
     1
  8
1
  6
Continuous
 62
    18
100
AcDbLine
 10
5.016741
 20
3.809086
 30
0.0
 11
5.041739999999999
 21
3.809086
 31
0.0
  0
LINE
  5
4AC
330
B
100
AcDbEntity
 67
     1
  8
1
  6
Continuous
 62
    18
100
AcDbLine
 10
4.73174
 20
4.422836
 30
0.0
 11
4.919398999999999
 21
4.421198
 31
0.0
  0
LINE
  5
4AD
330
B
100
AcDbEntity
 67
     1
  8
1
  6
Continuous
 62
    18
100
AcDbLine
 10
2.327822999999999
 20
6.711542999999998
 30
0.0
 11
2.492078999999999
 21
6.711542999999998
 31
0.0
  0
LINE
  5
4AE
330
B
100
AcDbEntity
 67
     1
  8
1
  6
Continuous
 62
    18
100
AcDbLine
 10
1.988471999999999
 20
4.072533999999999
 30
0.0
 11
2.095429999999999
 21
4.072533999999999
 31
0.0
  0
LINE
  5
4AF
330
B
100
AcDbEntity
 67
     1
  8
1
  6
Continuous
 62
    18
100
AcDbLine
 10
2.871639
 20
6.511281999999999
 30
0.0
 11
2.851325999999999
 21
6.511281999999999
 31
0.0
  0
LINE
  5
4B0
330
B
100
AcDbEntity
 67
     1
  8
1
  6
Continuous
 62
    18
100
AcDbLine
 10
4.73174
 20
4.422836
 30
0.0
 11
4.73174
 21
4.176835999999999
 31
0.0
  0
LINE
  5
4B1
330
B
100
AcDbEntity
 67
     1
  8
1
  6
Continuous
 62
    18
100
AcDbLine
 10
2.089950999999999
 20
6.923671
 30
0.0
 11
2.089950999999999
 21
6.966542999999999
 31
0.0
  0
ARC
  5
4B2
330
B
100
AcDbEntity
 67
     1
  8
1
  6
Continuous
 62
    18
100
AcDbCircle
 10
2.409950999999999
 20
6.636542999999999
 30
0.0
 40
0.045
100
AcDbArc
 50
6.379369999999999
 51
173.62063
  0
ARC
  5
4B3
330
B
100
AcDbEntity
 67
     1
  8
1
  6
Continuous
 62
    18
100
AcDbCircle
 10
2.797245999999999
 20
4.065336
 30
0.0
 40
0.079
100
AcDbArc
 50
350.0
 51
450.0
  0
ARC
  5
4B4
330
B
100
AcDbEntity
 67
     1
  8
1
  6
Continuous
 62
    18
100
AcDbCircle
 10
2.912950999999999
 20
4.172836
 30
0.0
 40
0.03
100
AcDbArc
 50
0.0
 51
90.0
  0
ARC
  5
4B5
330
B
100
AcDbEntity
 67
     1
  8
1
  6
Continuous
 62
    18
100
AcDbCircle
 10
3.018450999999999
 20
3.976836
 30
0.0
 40
0.0625
100
AcDbArc
 50
70.366641
 51
109.633359
  0
ARC
  5
4B6
330
B
100
AcDbEntity
 67
     1
  8
1
  6
Continuous
 62
    18
100
AcDbCircle
 10
2.034450999999999
 20
3.976836
 30
0.0
 40
0.0935
100
AcDbArc
 50
102.979294
 51
257.020706
  0
CIRCLE
  5
4B7
330
B
100
AcDbEntity
 67
     1
  8
1
  6
Continuous
 62
    18
100
AcDbCircle
 10
2.669950999999999
 20
6.636542999999999
 30
0.0
 40
0.055
  0
ARC
  5
4B8
330
B
100
AcDbEntity
 67
     1
  8
1
  6
Continuous
 62
    18
100
AcDbCircle
 10
3.018450999999999
 20
3.976836
 30
0.0
 40
0.0625
100
AcDbArc
 50
250.366641
 51
289.633359
  0
ARC
  5
4B9
330
B
100
AcDbEntity
 67
     1
  8
1
  6
Continuous
 62
    18
100
AcDbCircle
 10
2.164950999999999
 20
6.841542999999999
 30
0.0
 40
0.045
100
AcDbArc
 50
276.37937
 51
443.62063
  0
ARC
  5
4BA
330
B
100
AcDbEntity
 67
     1
  8
1
  6
Continuous
 62
    18
100
AcDbCircle
 10
4.941165999999999
 20
3.764469
 30
0.0
 40
0.0375
100
AcDbArc
 50
170.0
 51
198.850626
  0
ARC
  5
4BB
330
B
100
AcDbEntity
 67
     1
  8
1
  6
Continuous
 62
    18
100
AcDbCircle
 10
2.998950999999999
 20
6.204043
 30
0.0
 40
0.05
100
AcDbArc
 50
90.0
 51
180.0
  0
ARC
  5
4BC
330
B
100
AcDbEntity
 67
     1
  8
1
  6
Continuous
 62
    18
100
AcDbCircle
 10
2.614951
 20
6.841542999999999
 30
0.0
 40
0.035
100
AcDbArc
 50
98.21321000000001
 51
261.78679
  0
ARC
  5
4BD
330
B
100
AcDbEntity
 67
     1
  8
1
  6
Continuous
 62
    18
100
AcDbCircle
 10
2.669950999999999
 20
6.336542999999999
 30
0.0
 40
0.035
100
AcDbArc
 50
8.21321
 51
171.78679
  0
ARC
  5
4BE
330
B
100
AcDbEntity
 67
     1
  8
1
  6
Continuous
 62
    18
100
AcDbCircle
 10
2.669950999999999
 20
6.336542999999999
 30
0.0
 40
0.045
100
AcDbArc
 50
353.62063
 51
366.37937
  0
ARC
  5
4BF
330
B
100
AcDbEntity
 67
     1
  8
1
  6
Continuous
 62
    18
100
AcDbCircle
 10
2.669950999999999
 20
6.486543
 30
0.0
 40
0.045
100
AcDbArc
 50
186.37937
 51
353.62063
  0
CIRCLE
  5
4C0
330
B
100
AcDbEntity
 67
     1
  8
1
  6
Continuous
 62
    18
100
AcDbCircle
 10
2.709950999999999
 20
3.976836
 30
0.0
 40
0.015
  0
ARC
  5
4C1
330
B
100
AcDbEntity
 67
     1
  8
1
  6
Continuous
 62
    18
100
AcDbCircle
 10
2.309865999999999
 20
3.888336
 30
0.0
 40
0.079
100
AcDbArc
 50
190.0
 51
270.0
  0
ARC
  5
4C2
330
B
100
AcDbEntity
 67
     1
  8
1
  6
Continuous
 62
    18
100
AcDbCircle
 10
3.098951
 20
6.304043
 30
0.0
 40
0.05
100
AcDbArc
 50
270.0
 51
360.0
  0
ARC
  5
4C3
330
B
100
AcDbEntity
 67
     1
  8
1
  6
Continuous
 62
    18
100
AcDbCircle
 10
2.914950999999999
 20
6.841542999999999
 30
0.0
 40
0.045
100
AcDbArc
 50
276.37937
 51
443.62063
  0
ARC
  5
4C4
330
B
100
AcDbEntity
 67
     1
  8
1
  6
Continuous
 62
    18
100
AcDbCircle
 10
2.614951
 20
6.841542999999999
 30
0.0
 40
0.045
100
AcDbArc
 50
83.62063
 51
96.37937
  0
ARC
  5
4C5
330
B
100
AcDbEntity
 67
     1
  8
1
  6
Continuous
 62
    18
100
AcDbCircle
 10
2.034450999999999
 20
3.976836
 30
0.0
 40
0.0625
100
AcDbArc
 50
70.366641
 51
109.633359
  0
ARC
  5
4C6
330
B
100
AcDbEntity
 67
     1
  8
1
  6
Continuous
 62
    18
100
AcDbCircle
 10
2.464950999999999
 20
6.841542999999999
 30
0.0
 40
0.035
100
AcDbArc
 50
278.21321
 51
441.78679
  0
ARC
  5
4C7
330
B
100
AcDbEntity
 67
     1
  8
1
  6
Continuous
 62
    18
100
AcDbCircle
 10
2.314950999999999
 20
6.841542999999999
 30
0.0
 40
0.035
100
AcDbArc
 50
278.21321
 51
441.78679
  0
CIRCLE
  5
4C8
330
B
100
AcDbEntity
 67
     1
  8
1
  6
Continuous
 62
    18
100
AcDbCircle
 10
2.624950999999999
 20
3.976836
 30
0.0
 40
0.015
  0
CIRCLE
  5
4C9
330
B
100
AcDbEntity
 67
     1
  8
1
  6
Continuous
 62
    18
100
AcDbCircle
 10
2.409950999999999
 20
6.336542999999999
 30
0.0
 40
0.055
  0
ARC
  5
4CA
330
B
100
AcDbEntity
 67
     1
  8
1
  6
Continuous
 62
    18
100
AcDbCircle
 10
2.614951
 20
6.841542999999999
 30
0.0
 40
0.045
100
AcDbArc
 50
263.62063
 51
276.37937
  0
CIRCLE
  5
4CB
330
B
100
AcDbEntity
 67
     1
  8
1
  6
Continuous
 62
    18
100
AcDbCircle
 10
2.164950999999999
 20
6.841542999999999
 30
0.0
 40
0.055
  0
ARC
  5
4CC
330
B
100
AcDbEntity
 67
     1
  8
1
  6
Continuous
 62
    18
100
AcDbCircle
 10
2.409950999999999
 20
6.636542999999999
 30
0.0
 40
0.035
100
AcDbArc
 50
188.21321
 51
351.78679
  0
ARC
  5
4CD
330
B
100
AcDbEntity
 67
     1
  8
1
  6
Continuous
 62
    18
100
AcDbCircle
 10
2.034450999999999
 20
3.976836
 30
0.0
 40
0.0625
100
AcDbArc
 50
250.366641
 51
289.633359
  0
ARC
  5
4CE
330
B
100
AcDbEntity
 67
     1
  8
1
  6
Continuous
 62
    18
100
AcDbCircle
 10
2.464950999999999
 20
6.841542999999999
 30
0.0
 40
0.035
100
AcDbArc
 50
98.21321000000001
 51
261.78679
  0
CIRCLE
  5
4CF
330
B
100
AcDbEntity
 67
     1
  8
1
  6
Continuous
 62
    18
100
AcDbCircle
 10
2.539950999999999
 20
3.976836
 30
0.0
 40
0.015
  0
CIRCLE
  5
4D0
330
B
100
AcDbEntity
 67
     1
  8
1
  6
Continuous
 62
    18
100
AcDbCircle
 10
2.327450999999999
 20
3.904835999999999
 30
0.0
 40
0.015
  0
ARC
  5
4D1
330
B
100
AcDbEntity
 67
     1
  8
1
  6
Continuous
 62
    18
100
AcDbCircle
 10
2.669950999999999
 20
6.636542999999999
 30
0.0
 40
0.045
100
AcDbArc
 50
6.379369999999999
 51
173.62063
  0
CIRCLE
  5
4D2
330
B
100
AcDbEntity
 67
     1
  8
1
  6
Continuous
 62
    18
100
AcDbCircle
 10
2.314950999999999
 20
6.841542999999999
 30
0.0
 40
0.055
  0
ARC
  5
4D3
330
B
100
AcDbEntity
 67
     1
  8
1
  6
Continuous
 62
    18
100
AcDbCircle
 10
2.314950999999999
 20
6.841542999999999
 30
0.0
 40
0.045
100
AcDbArc
 50
96.37937
 51
263.62063
  0
ARC
  5
4D4
330
B
100
AcDbEntity
 67
     1
  8
1
  6
Continuous
 62
    18
100
AcDbCircle
 10
2.912950999999999
 20
4.172836
 30
0.0
 40
0.028691
100
AcDbArc
 50
0.0
 51
90.0
  0
ARC
  5
4D5
330
B
100
AcDbEntity
 67
     1
  8
1
  6
Continuous
 62
    18
100
AcDbCircle
 10
2.669950999999999
 20
6.486543
 30
0.0
 40
0.045
100
AcDbArc
 50
173.62063
 51
186.37937
  0
ARC
  5
4D6
330
B
100
AcDbEntity
 67
     1
  8
1
  6
Continuous
 62
    18
100
AcDbCircle
 10
2.409950999999999
 20
6.486543
 30
0.0
 40
0.045
100
AcDbArc
 50
186.37937
 51
353.62063
  0
CIRCLE
  5
4D7
330
B
100
AcDbEntity
 67
     1
  8
1
  6
Continuous
 62
    18
100
AcDbCircle
 10
2.454950999999999
 20
3.976836
 30
0.0
 40
0.015
  0
ARC
  5
4D8
330
B
100
AcDbEntity
 67
     1
  8
1
  6
Continuous
 62
    18
100
AcDbCircle
 10
2.409950999999999
 20
6.336542999999999
 30
0.0
 40
0.045
100
AcDbArc
 50
6.379369999999999
 51
173.62063
  0
ARC
  5
4D9
330
B
100
AcDbEntity
 67
     1
  8
1
  6
Continuous
 62
    18
100
AcDbCircle
 10
2.768374999999999
 20
3.888336
 30
0.0
 40
0.046
100
AcDbArc
 50
270.0
 51
350.000001
  0
ARC
  5
4DA
330
B
100
AcDbEntity
 67
     1
  8
1
  6
Continuous
 62
    18
100
AcDbCircle
 10
2.799584999999999
 20
4.065336
 30
0.0
 40
0.046
100
AcDbArc
 50
350.000001
 51
450.0
  0
CIRCLE
  5
4DB
330
B
100
AcDbEntity
 67
     1
  8
1
  6
Continuous
 62
    18
100
AcDbCircle
 10
2.464950999999999
 20
6.841542999999999
 30
0.0
 40
0.055
  0
ARC
  5
4DC
330
B
100
AcDbEntity
 67
     1
  8
1
  6
Continuous
 62
    18
100
AcDbCircle
 10
2.278316999999999
 20
4.065336
 30
0.0
 40
0.046
100
AcDbArc
 50
90.0
 51
189.999999
  0
ARC
  5
4DD
330
B
100
AcDbEntity
 67
     1
  8
1
  6
Continuous
 62
    18
100
AcDbCircle
 10
2.034450999999999
 20
3.976836
 30
0.0
 40
0.0625
100
AcDbArc
 50
109.633359
 51
250.366641
  0
ARC
  5
4DE
330
B
100
AcDbEntity
 67
     1
  8
1
  6
Continuous
 62
    18
100
AcDbCircle
 10
2.164950999999999
 20
6.841542999999999
 30
0.0
 40
0.035
100
AcDbArc
 50
278.21321
 51
441.78679
  0
ARC
  5
4DF
330
B
100
AcDbEntity
 67
     1
  8
1
  6
Continuous
 62
    18
100
AcDbCircle
 10
2.464950999999999
 20
6.841542999999999
 30
0.0
 40
0.045
100
AcDbArc
 50
83.62063
 51
96.37937
  0
ARC
  5
4E0
330
B
100
AcDbEntity
 67
     1
  8
1
  6
Continuous
 62
    18
100
AcDbCircle
 10
3.098951
 20
7.006542999999999
 30
0.0
 40
0.05
100
AcDbArc
 50
0.0
 51
90.0
  0
ARC
  5
4E1
330
B
100
AcDbEntity
 67
     1
  8
1
  6
Continuous
 62
    18
100
AcDbCircle
 10
2.162950999999999
 20
4.172836
 30
0.0
 40
0.03
100
AcDbArc
 50
90.0
 51
180.0
  0
ARC
  5
4E2
330
B
100
AcDbEntity
 67
     1
  8
1
  6
Continuous
 62
    18
100
AcDbCircle
 10
2.409950999999999
 20
6.486543
 30
0.0
 40
0.035
100
AcDbArc
 50
8.21321
 51
171.78679
  0
ARC
  5
4E3
330
B
100
AcDbEntity
 67
     1
  8
1
  6
Continuous
 62
    18
100
AcDbCircle
 10
2.409950999999999
 20
6.486543
 30
0.0
 40
0.045
100
AcDbArc
 50
173.62063
 51
186.37937
  0
CIRCLE
  5
4E4
330
B
100
AcDbEntity
 67
     1
  8
1
  6
Continuous
 62
    18
100
AcDbCircle
 10
2.369950999999999
 20
3.976836
 30
0.0
 40
0.015
  0
ARC
  5
4E5
330
B
100
AcDbEntity
 67
     1
  8
1
  6
Continuous
 62
    18
100
AcDbCircle
 10
2.914950999999999
 20
6.841542999999999
 30
0.0
 40
0.035
100
AcDbArc
 50
278.21321
 51
441.78679
  0
ARC
  5
4E6
330
B
100
AcDbEntity
 67
     1
  8
1
  6
Continuous
 62
    18
100
AcDbCircle
 10
2.669950999999999
 20
6.486543
 30
0.0
 40
0.045
100
AcDbArc
 50
353.62063
 51
366.37937
  0
ARC
  5
4E7
330
B
100
AcDbEntity
 67
     1
  8
1
  6
Continuous
 62
    18
100
AcDbCircle
 10
3.018450999999999
 20
3.976836
 30
0.0
 40
0.0625
100
AcDbArc
 50
109.633359
 51
250.366641
  0
ARC
  5
4E8
330
B
100
AcDbEntity
 67
     1
  8
1
  6
Continuous
 62
    18
100
AcDbCircle
 10
2.164950999999999
 20
6.841542999999999
 30
0.0
 40
0.035
100
AcDbArc
 50
98.21321000000001
 51
261.78679
  0
ARC
  5
4E9
330
B
100
AcDbEntity
 67
     1
  8
1
  6
Continuous
 62
    18
100
AcDbCircle
 10
2.464950999999999
 20
6.841542999999999
 30
0.0
 40
0.045
100
AcDbArc
 50
263.62063
 51
276.37937
  0
ARC
  5
4EA
330
B
100
AcDbEntity
 67
     1
  8
1
  6
Continuous
 62
    18
100
AcDbCircle
 10
2.162950999999999
 20
4.172836
 30
0.0
 40
0.028691
100
AcDbArc
 50
90.0
 51
180.0
  0
ARC
  5
4EB
330
B
100
AcDbEntity
 67
     1
  8
1
  6
Continuous
 62
    18
100
AcDbCircle
 10
2.409950999999999
 20
6.486543
 30
0.0
 40
0.045
100
AcDbArc
 50
353.62063
 51
366.37937
  0
ARC
  5
4EC
330
B
100
AcDbEntity
 67
     1
  8
1
  6
Continuous
 62
    18
100
AcDbCircle
 10
2.278656
 20
4.065336
 30
0.0
 40
0.079
100
AcDbArc
 50
90.0
 51
190.0
  0
CIRCLE
  5
4ED
330
B
100
AcDbEntity
 67
     1
  8
1
  6
Continuous
 62
    18
100
AcDbCircle
 10
2.667450999999999
 20
3.904835999999999
 30
0.0
 40
0.015
  0
ARC
  5
4EE
330
B
100
AcDbEntity
 67
     1
  8
1
  6
Continuous
 62
    18
100
AcDbCircle
 10
2.409950999999999
 20
6.336542999999999
 30
0.0
 40
0.035
100
AcDbArc
 50
188.21321
 51
351.78679
  0
ARC
  5
4EF
330
B
100
AcDbEntity
 67
     1
  8
1
  6
Continuous
 62
    18
100
AcDbCircle
 10
2.764950999999999
 20
6.841542999999999
 30
0.0
 40
0.045
100
AcDbArc
 50
276.37937
 51
443.62063
  0
ARC
  5
4F0
330
B
100
AcDbEntity
 67
     1
  8
1
  6
Continuous
 62
    18
100
AcDbCircle
 10
2.914950999999999
 20
6.841542999999999
 30
0.0
 40
0.035
100
AcDbArc
 50
98.21321000000001
 51
261.78679
  0
ARC
  5
4F1
330
B
100
AcDbEntity
 67
     1
  8
1
  6
Continuous
 62
    18
100
AcDbCircle
 10
2.409950999999999
 20
6.636542999999999
 30
0.0
 40
0.045
100
AcDbArc
 50
186.37937
 51
353.62063
  0
CIRCLE
  5
4F2
330
B
100
AcDbEntity
 67
     1
  8
1
  6
Continuous
 62
    18
100
AcDbCircle
 10
2.409950999999999
 20
6.636542999999999
 30
0.0
 40
0.055
  0
ARC
  5
4F3
330
B
100
AcDbEntity
 67
     1
  8
1
  6
Continuous
 62
    18
100
AcDbCircle
 10
3.018450999999999
 20
3.976836
 30
0.0
 40
0.0625
100
AcDbArc
 50
289.633359
 51
430.3666409999999
  0
ARC
  5
4F4
330
B
100
AcDbEntity
 67
     1
  8
1
  6
Continuous
 62
    18
100
AcDbCircle
 10
2.164950999999999
 20
6.841542999999999
 30
0.0
 40
0.045
100
AcDbArc
 50
96.37937
 51
263.62063
  0
ARC
  5
4F5
330
B
100
AcDbEntity
 67
     1
  8
1
  6
Continuous
 62
    18
100
AcDbCircle
 10
2.162950999999999
 20
3.780835999999999
 30
0.0
 40
0.028691
100
AcDbArc
 50
180.0
 51
270.0
  0
ARC
  5
4F6
330
B
100
AcDbEntity
 67
     1
  8
1
  6
Continuous
 62
    18
100
AcDbCircle
 10
1.980950999999999
 20
7.006542999999999
 30
0.0
 40
0.05
100
AcDbArc
 50
90.0
 51
180.0
  0
ARC
  5
4F7
330
B
100
AcDbEntity
 67
     1
  8
1
  6
Continuous
 62
    18
100
AcDbCircle
 10
2.314950999999999
 20
6.841542999999999
 30
0.0
 40
0.045
100
AcDbArc
 50
83.62063
 51
96.37937
  0
ARC
  5
4F8
330
B
100
AcDbEntity
 67
     1
  8
1
  6
Continuous
 62
    18
100
AcDbCircle
 10
2.669950999999999
 20
6.336542999999999
 30
0.0
 40
0.045
100
AcDbArc
 50
6.379369999999999
 51
173.62063
  0
CIRCLE
  5
4F9
330
B
100
AcDbEntity
 67
     1
  8
1
  6
Continuous
 62
    18
100
AcDbCircle
 10
2.409950999999999
 20
6.486543
 30
0.0
 40
0.055
  0
CIRCLE
  5
4FA
330
B
100
AcDbEntity
 67
     1
  8
1
  6
Continuous
 62
    18
100
AcDbCircle
 10
2.582450999999999
 20
3.904835999999999
 30
0.0
 40
0.015
  0
ARC
  5
4FB
330
B
100
AcDbEntity
 67
     1
  8
1
  6
Continuous
 62
    18
100
AcDbCircle
 10
2.669950999999999
 20
6.636542999999999
 30
0.0
 40
0.035
100
AcDbArc
 50
8.21321
 51
171.78679
  0
ARC
  5
4FC
330
B
100
AcDbEntity
 67
     1
  8
1
  6
Continuous
 62
    18
100
AcDbCircle
 10
2.914950999999999
 20
6.841542999999999
 30
0.0
 40
0.045
100
AcDbArc
 50
96.37937
 51
263.62063
  0
ARC
  5
4FD
330
B
100
AcDbEntity
 67
     1
  8
1
  6
Continuous
 62
    18
100
AcDbCircle
 10
2.669950999999999
 20
6.486543
 30
0.0
 40
0.045
100
AcDbArc
 50
6.379369999999999
 51
173.62063
  0
ARC
  5
4FE
330
B
100
AcDbEntity
 67
     1
  8
1
  6
Continuous
 62
    18
100
AcDbCircle
 10
2.912950999999999
 20
3.780835999999999
 30
0.0
 40
0.03
100
AcDbArc
 50
270.0
 51
360.0
  0
ARC
  5
4FF
330
B
100
AcDbEntity
 67
     1
  8
1
  6
Continuous
 62
    18
100
AcDbCircle
 10
2.409950999999999
 20
6.636542999999999
 30
0.0
 40
0.035
100
AcDbArc
 50
8.21321
 51
171.78679
  0
ARC
  5
500
330
B
100
AcDbEntity
 67
     1
  8
1
  6
Continuous
 62
    18
100
AcDbCircle
 10
2.797584999999999
 20
4.065336
 30
0.0
 40
0.046
100
AcDbArc
 50
350.000001
 51
450.0
  0
ARC
  5
501
330
B
100
AcDbEntity
 67
     1
  8
1
  6
Continuous
 62
    18
100
AcDbCircle
 10
2.669950999999999
 20
6.486543
 30
0.0
 40
0.035
100
AcDbArc
 50
8.21321
 51
171.78679
  0
ARC
  5
502
330
B
100
AcDbEntity
 67
     1
  8
1
  6
Continuous
 62
    18
100
AcDbCircle
 10
2.409950999999999
 20
6.636542999999999
 30
0.0
 40
0.045
100
AcDbArc
 50
173.62063
 51
186.37937
  0
ARC
  5
503
330
B
100
AcDbEntity
 67
     1
  8
1
  6
Continuous
 62
    18
100
AcDbCircle
 10
1.980950999999999
 20
5.974042999999999
 30
0.0
 40
0.05
100
AcDbArc
 50
90.0
 51
180.0
  0
ARC
  5
504
330
B
100
AcDbEntity
 67
     1
  8
1
  6
Continuous
 62
    18
100
AcDbCircle
 10
2.164950999999999
 20
6.841542999999999
 30
0.0
 40
0.045
100
AcDbArc
 50
83.62063
 51
96.37937
  0
ARC
  5
505
330
B
100
AcDbEntity
 67
     1
  8
1
  6
Continuous
 62
    18
100
AcDbCircle
 10
2.034450999999999
 20
3.976836
 30
0.0
 40
0.0625
100
AcDbArc
 50
289.633359
 51
430.3666409999999
  0
ARC
  5
506
330
B
100
AcDbEntity
 67
     1
  8
1
  6
Continuous
 62
    18
100
AcDbCircle
 10
2.314950999999999
 20
6.841542999999999
 30
0.0
 40
0.045
100
AcDbArc
 50
263.62063
 51
276.37937
  0
ARC
  5
507
330
B
100
AcDbEntity
 67
     1
  8
1
  6
Continuous
 62
    18
100
AcDbCircle
 10
1.980950999999999
 20
6.304043
 30
0.0
 40
0.05
100
AcDbArc
 50
180.0
 51
270.0
  0
CIRCLE
  5
508
330
B
100
AcDbEntity
 67
     1
  8
1
  6
Continuous
 62
    18
100
AcDbCircle
 10
2.497450999999999
 20
3.904835999999999
 30
0.0
 40
0.015
  0
ARC
  5
509
330
B
100
AcDbEntity
 67
     1
  8
1
  6
Continuous
 62
    18
100
AcDbCircle
 10
2.914950999999999
 20
6.841542999999999
 30
0.0
 40
0.045
100
AcDbArc
 50
83.62063
 51
96.37937
  0
ARC
  5
50A
330
B
100
AcDbEntity
 67
     1
  8
1
  6
Continuous
 62
    18
100
AcDbCircle
 10
2.669950999999999
 20
6.636542999999999
 30
0.0
 40
0.035
100
AcDbArc
 50
188.21321
 51
351.78679
  0
ARC
  5
50B
330
B
100
AcDbEntity
 67
     1
  8
1
  6
Continuous
 62
    18
100
AcDbCircle
 10
2.409950999999999
 20
6.636542999999999
 30
0.0
 40
0.045
100
AcDbArc
 50
353.62063
 51
366.37937
  0
ARC
  5
50C
330
B
100
AcDbEntity
 67
     1
  8
1
  6
Continuous
 62
    18
100
AcDbCircle
 10
3.018450999999999
 20
3.976836
 30
0.0
 40
0.0935
100
AcDbArc
 50
102.979294
 51
257.020706
  0
ARC
  5
50D
330
B
100
AcDbEntity
 67
     1
  8
1
  6
Continuous
 62
    18
100
AcDbCircle
 10
2.164950999999999
 20
6.841542999999999
 30
0.0
 40
0.045
100
AcDbArc
 50
263.62063
 51
276.37937
  0
ARC
  5
50E
330
B
100
AcDbEntity
 67
     1
  8
1
  6
Continuous
 62
    18
100
AcDbCircle
 10
2.080950999999999
 20
6.204043
 30
0.0
 40
0.05
100
AcDbArc
 50
0.0
 51
90.0
  0
ARC
  5
50F
330
B
100
AcDbEntity
 67
     1
  8
1
  6
Continuous
 62
    18
100
AcDbCircle
 10
2.912950999999999
 20
3.780835999999999
 30
0.0
 40
0.028691
100
AcDbArc
 50
270.0
 51
360.0
  0
ARC
  5
510
330
B
100
AcDbEntity
 67
     1
  8
1
  6
Continuous
 62
    18
100
AcDbCircle
 10
3.018450999999999
 20
3.976836
 30
0.0
 40
0.0935
100
AcDbArc
 50
282.979294
 51
437.0207059999999
  0
CIRCLE
  5
511
330
B
100
AcDbEntity
 67
     1
  8
1
  6
Continuous
 62
    18
100
AcDbCircle
 10
2.412450999999999
 20
3.904835999999999
 30
0.0
 40
0.015
  0
ARC
  5
512
330
B
100
AcDbEntity
 67
     1
  8
1
  6
Continuous
 62
    18
100
AcDbCircle
 10
2.914950999999999
 20
6.841542999999999
 30
0.0
 40
0.045
100
AcDbArc
 50
263.62063
 51
276.37937
  0
ARC
  5
513
330
B
100
AcDbEntity
 67
     1
  8
1
  6
Continuous
 62
    18
100
AcDbCircle
 10
2.669950999999999
 20
6.636542999999999
 30
0.0
 40
0.045
100
AcDbArc
 50
186.37937
 51
353.62063
  0
CIRCLE
  5
514
330
B
100
AcDbEntity
 67
     1
  8
1
  6
Continuous
 62
    18
100
AcDbCircle
 10
2.614951
 20
6.841542999999999
 30
0.0
 40
0.055
  0
ARC
  5
515
330
B
100
AcDbEntity
 67
     1
  8
1
  6
Continuous
 62
    18
100
AcDbCircle
 10
2.764950999999999
 20
6.841542999999999
 30
0.0
 40
0.045
100
AcDbArc
 50
96.37937
 51
263.62063
  0
ARC
  5
516
330
B
100
AcDbEntity
 67
     1
  8
1
  6
Continuous
 62
    18
100
AcDbCircle
 10
2.162950999999999
 20
3.780835999999999
 30
0.0
 40
0.03
100
AcDbArc
 50
180.0
 51
270.0
  0
ARC
  5
517
330
B
100
AcDbEntity
 67
     1
  8
1
  6
Continuous
 62
    18
100
AcDbCircle
 10
2.669950999999999
 20
6.336542999999999
 30
0.0
 40
0.045
100
AcDbArc
 50
173.62063
 51
186.37937
  0
ARC
  5
518
330
B
100
AcDbEntity
 67
     1
  8
1
  6
Continuous
 62
    18
100
AcDbCircle
 10
2.034450999999999
 20
3.976836
 30
0.0
 40
0.0935
100
AcDbArc
 50
282.979294
 51
437.0207059999999
  0
CIRCLE
  5
519
330
B
100
AcDbEntity
 67
     1
  8
1
  6
Continuous
 62
    18
100
AcDbCircle
 10
2.327450999999999
 20
4.048835999999999
 30
0.0
 40
0.015
  0
ARC
  5
51A
330
B
100
AcDbEntity
 67
     1
  8
1
  6
Continuous
 62
    18
100
AcDbCircle
 10
2.764950999999999
 20
6.841542999999999
 30
0.0
 40
0.035
100
AcDbArc
 50
278.21321
 51
441.78679
  0
ARC
  5
51B
330
B
100
AcDbEntity
 67
     1
  8
1
  6
Continuous
 62
    18
100
AcDbCircle
 10
2.409950999999999
 20
6.336542999999999
 30
0.0
 40
0.045
100
AcDbArc
 50
186.37937
 51
353.62063
  0
ARC
  5
51C
330
B
100
AcDbEntity
 67
     1
  8
1
  6
Continuous
 62
    18
100
AcDbCircle
 10
2.766375
 20
3.888336
 30
0.0
 40
0.046
100
AcDbArc
 50
270.0
 51
350.000001
  0
ARC
  5
51D
330
B
100
AcDbEntity
 67
     1
  8
1
  6
Continuous
 62
    18
100
AcDbCircle
 10
2.669950999999999
 20
6.636542999999999
 30
0.0
 40
0.045
100
AcDbArc
 50
173.62063
 51
186.37937
  0
CIRCLE
  5
51E
330
B
100
AcDbEntity
 67
     1
  8
1
  6
Continuous
 62
    18
100
AcDbCircle
 10
2.764950999999999
 20
6.841542999999999
 30
0.0
 40
0.055
  0
ARC
  5
51F
330
B
100
AcDbEntity
 67
     1
  8
1
  6
Continuous
 62
    18
100
AcDbCircle
 10
2.309865999999999
 20
3.888336
 30
0.0
 40
0.068
100
AcDbArc
 50
190.0
 51
270.0
  0
ARC
  5
520
330
B
100
AcDbEntity
 67
     1
  8
1
  6
Continuous
 62
    18
100
AcDbCircle
 10
3.098951
 20
5.974042999999999
 30
0.0
 40
0.05
100
AcDbArc
 50
0.0
 51
90.0
  0
CIRCLE
  5
521
330
B
100
AcDbEntity
 67
     1
  8
1
  6
Continuous
 62
    18
100
AcDbCircle
 10
2.412450999999999
 20
4.048835999999999
 30
0.0
 40
0.015
  0
ARC
  5
522
330
B
100
AcDbEntity
 67
     1
  8
1
  6
Continuous
 62
    18
100
AcDbCircle
 10
2.614951
 20
6.841542999999999
 30
0.0
 40
0.035
100
AcDbArc
 50
278.21321
 51
441.78679
  0
ARC
  5
523
330
B
100
AcDbEntity
 67
     1
  8
1
  6
Continuous
 62
    18
100
AcDbCircle
 10
2.409950999999999
 20
6.336542999999999
 30
0.0
 40
0.035
100
AcDbArc
 50
8.21321
 51
171.78679
  0
ARC
  5
524
330
B
100
AcDbEntity
 67
     1
  8
1
  6
Continuous
 62
    18
100
AcDbCircle
 10
2.409950999999999
 20
6.336542999999999
 30
0.0
 40
0.045
100
AcDbArc
 50
173.62063
 51
186.37937
  0
ARC
  5
525
330
B
100
AcDbEntity
 67
     1
  8
1
  6
Continuous
 62
    18
100
AcDbCircle
 10
2.764950999999999
 20
6.841542999999999
 30
0.0
 40
0.035
100
AcDbArc
 50
98.21321000000001
 51
261.78679
  0
ARC
  5
526
330
B
100
AcDbEntity
 67
     1
  8
1
  6
Continuous
 62
    18
100
AcDbCircle
 10
2.669950999999999
 20
6.636542999999999
 30
0.0
 40
0.045
100
AcDbArc
 50
353.62063
 51
366.37937
  0
CIRCLE
  5
527
330
B
100
AcDbEntity
 67
     1
  8
1
  6
Continuous
 62
    18
100
AcDbCircle
 10
2.914950999999999
 20
6.841542999999999
 30
0.0
 40
0.055
  0
ARC
  5
528
330
B
100
AcDbEntity
 67
     1
  8
1
  6
Continuous
 62
    18
100
AcDbCircle
 10
2.766036
 20
3.888336
 30
0.0
 40
0.068
100
AcDbArc
 50
270.0
 51
350.0
  0
ARC
  5
529
330
B
100
AcDbEntity
 67
     1
  8
1
  6
Continuous
 62
    18
100
AcDbCircle
 10
3.018450999999999
 20
3.976836
 30
0.0
 40
0.0935
100
AcDbArc
 50
257.020706
 51
282.979294
  0
ARC
  5
52A
330
B
100
AcDbEntity
 67
     1
  8
1
  6
Continuous
 62
    18
100
AcDbCircle
 10
2.464950999999999
 20
6.841542999999999
 30
0.0
 40
0.045
100
AcDbArc
 50
276.37937
 51
443.62063
  0
ARC
  5
52B
330
B
100
AcDbEntity
 67
     1
  8
1
  6
Continuous
 62
    18
100
AcDbCircle
 10
3.018450999999999
 20
3.976836
 30
0.0
 40
0.0935
100
AcDbArc
 50
77.020706
 51
102.979294
  0
ARC
  5
52C
330
B
100
AcDbEntity
 67
     1
  8
1
  6
Continuous
 62
    18
100
AcDbCircle
 10
2.464950999999999
 20
6.841542999999999
 30
0.0
 40
0.045
100
AcDbArc
 50
96.37937
 51
263.62063
  0
ARC
  5
52D
330
B
100
AcDbEntity
 67
     1
  8
1
  6
Continuous
 62
    18
100
AcDbCircle
 10
2.409950999999999
 20
6.486543
 30
0.0
 40
0.045
100
AcDbArc
 50
6.379369999999999
 51
173.62063
  0
ARC
  5
52E
330
B
100
AcDbEntity
 67
     1
  8
1
  6
Continuous
 62
    18
100
AcDbCircle
 10
2.314950999999999
 20
6.841542999999999
 30
0.0
 40
0.045
100
AcDbArc
 50
276.37937
 51
443.62063
  0
ARC
  5
52F
330
B
100
AcDbEntity
 67
     1
  8
1
  6
Continuous
 62
    18
100
AcDbCircle
 10
2.669950999999999
 20
6.336542999999999
 30
0.0
 40
0.035
100
AcDbArc
 50
188.21321
 51
351.78679
  0
CIRCLE
  5
530
330
B
100
AcDbEntity
 67
     1
  8
1
  6
Continuous
 62
    18
100
AcDbCircle
 10
2.497450999999999
 20
4.048835999999999
 30
0.0
 40
0.015
  0
ARC
  5
531
330
B
100
AcDbEntity
 67
     1
  8
1
  6
Continuous
 62
    18
100
AcDbCircle
 10
2.034450999999999
 20
3.976836
 30
0.0
 40
0.0935
100
AcDbArc
 50
257.020706
 51
282.979294
  0
CIRCLE
  5
532
330
B
100
AcDbEntity
 67
     1
  8
1
  6
Continuous
 62
    18
100
AcDbCircle
 10
2.669950999999999
 20
6.336542999999999
 30
0.0
 40
0.055
  0
ARC
  5
533
330
B
100
AcDbEntity
 67
     1
  8
1
  6
Continuous
 62
    18
100
AcDbCircle
 10
2.280316999999999
 20
4.065336
 30
0.0
 40
0.046
100
AcDbArc
 50
90.0
 51
189.999999
  0
ARC
  5
534
330
B
100
AcDbEntity
 67
     1
  8
1
  6
Continuous
 62
    18
100
AcDbCircle
 10
2.409950999999999
 20
6.336542999999999
 30
0.0
 40
0.045
100
AcDbArc
 50
353.62063
 51
366.37937
  0
ARC
  5
535
330
B
100
AcDbEntity
 67
     1
  8
1
  6
Continuous
 62
    18
100
AcDbCircle
 10
2.998950999999999
 20
6.074042999999999
 30
0.0
 40
0.05
100
AcDbArc
 50
180.0
 51
270.0
  0
ARC
  5
536
330
B
100
AcDbEntity
 67
     1
  8
1
  6
Continuous
 62
    18
100
AcDbCircle
 10
2.669950999999999
 20
6.486543
 30
0.0
 40
0.035
100
AcDbArc
 50
188.21321
 51
351.78679
  0
ARC
  5
537
330
B
100
AcDbEntity
 67
     1
  8
1
  6
Continuous
 62
    18
100
AcDbCircle
 10
2.766036
 20
3.888336
 30
0.0
 40
0.079
100
AcDbArc
 50
270.0
 51
350.0
  0
ARC
  5
538
330
B
100
AcDbEntity
 67
     1
  8
1
  6
Continuous
 62
    18
100
AcDbCircle
 10
2.669950999999999
 20
6.336542999999999
 30
0.0
 40
0.045
100
AcDbArc
 50
186.37937
 51
353.62063
  0
CIRCLE
  5
539
330
B
100
AcDbEntity
 67
     1
  8
1
  6
Continuous
 62
    18
100
AcDbCircle
 10
2.582450999999999
 20
4.048835999999999
 30
0.0
 40
0.015
  0
ARC
  5
53A
330
B
100
AcDbEntity
 67
     1
  8
1
  6
Continuous
 62
    18
100
AcDbCircle
 10
2.080950999999999
 20
6.074042999999999
 30
0.0
 40
0.05
100
AcDbArc
 50
270.0
 51
360.0
  0
ARC
  5
53B
330
B
100
AcDbEntity
 67
     1
  8
1
  6
Continuous
 62
    18
100
AcDbCircle
 10
2.764950999999999
 20
6.841542999999999
 30
0.0
 40
0.045
100
AcDbArc
 50
83.62063
 51
96.37937
  0
ARC
  5
53C
330
B
100
AcDbEntity
 67
     1
  8
1
  6
Continuous
 62
    18
100
AcDbCircle
 10
2.797245999999999
 20
4.065336
 30
0.0
 40
0.068
100
AcDbArc
 50
350.0
 51
450.0
  0
ARC
  5
53D
330
B
100
AcDbEntity
 67
     1
  8
1
  6
Continuous
 62
    18
100
AcDbCircle
 10
2.278656
 20
4.065336
 30
0.0
 40
0.068
100
AcDbArc
 50
90.0
 51
190.0
  0
CIRCLE
  5
53E
330
B
100
AcDbEntity
 67
     1
  8
1
  6
Continuous
 62
    18
100
AcDbCircle
 10
2.669950999999999
 20
6.486543
 30
0.0
 40
0.055
  0
ARC
  5
53F
330
B
100
AcDbEntity
 67
     1
  8
1
  6
Continuous
 62
    18
100
AcDbCircle
 10
2.311526999999999
 20
3.888336
 30
0.0
 40
0.046
100
AcDbArc
 50
189.999999
 51
270.0
  0
ARC
  5
540
330
B
100
AcDbEntity
 67
     1
  8
1
  6
Continuous
 62
    18
100
AcDbCircle
 10
2.409950999999999
 20
6.486543
 30
0.0
 40
0.035
100
AcDbArc
 50
188.21321
 51
351.78679
  0
ARC
  5
541
330
B
100
AcDbEntity
 67
     1
  8
1
  6
Continuous
 62
    18
100
AcDbCircle
 10
2.314950999999999
 20
6.841542999999999
 30
0.0
 40
0.035
100
AcDbArc
 50
98.21321000000001
 51
261.78679
  0
ARC
  5
542
330
B
100
AcDbEntity
 67
     1
  8
1
  6
Continuous
 62
    18
100
AcDbCircle
 10
2.614951
 20
6.841542999999999
 30
0.0
 40
0.045
100
AcDbArc
 50
276.37937
 51
443.62063
  0
CIRCLE
  5
543
330
B
100
AcDbEntity
 67
     1
  8
1
  6
Continuous
 62
    18
100
AcDbCircle
 10
2.667450999999999
 20
4.048835999999999
 30
0.0
 40
0.015
  0
ARC
  5
544
330
B
100
AcDbEntity
 67
     1
  8
1
  6
Continuous
 62
    18
100
AcDbCircle
 10
2.764950999999999
 20
6.841542999999999
 30
0.0
 40
0.045
100
AcDbArc
 50
263.62063
 51
276.37937
  0
ARC
  5
545
330
B
100
AcDbEntity
 67
     1
  8
1
  6
Continuous
 62
    18
100
AcDbCircle
 10
2.309527
 20
3.888336
 30
0.0
 40
0.046
100
AcDbArc
 50
189.999999
 51
270.0
  0
ARC
  5
546
330
B
100
AcDbEntity
 67
     1
  8
1
  6
Continuous
 62
    18
100
AcDbCircle
 10
2.034450999999999
 20
3.976836
 30
0.0
 40
0.0935
100
AcDbArc
 50
77.020706
 51
102.979294
  0
ARC
  5
547
330
B
100
AcDbEntity
 67
     1
  8
1
  6
Continuous
 62
    18
100
AcDbCircle
 10
2.614951
 20
6.841542999999999
 30
0.0
 40
0.045
100
AcDbArc
 50
96.37937
 51
263.62063
  0
ENDSEC
  0
SECTION
  2
OBJECTS
  0
DICTIONARY
  5
19
330
0
100
AcDbDictionary
281
     1
  3
ACAD_COLOR
350
572
  3
ACAD_GROUP
350
1A
  3
ACAD_LAYOUT
350
1E
  3
ACAD_MATERIAL
350
55D
  3
ACAD_MLINESTYLE
350
1B
  3
ACAD_PLOTSETTINGS
350
22
  3
ACAD_PLOTSTYLENAME
350
1F
  3
ACAD_TABLESTYLE
350
573
  3
ACAD_VISUALSTYLE
350
561
  3
ACAD_WIPEOUT_VARS
350
23
  3
AcDbVariableDictionary
350
57C
  3
ASE_INDEX_DICTIONARY
350
579
  3
DWGPROPS
350
581
  0
DICTIONARY
  5
586
330
32
100
AcDbDictionary
280
     1
281
     1
  3
ACAD_XREC_ROUNDTRIP
360
587
  0
DICTIONARY
  5
572
102
{ACAD_REACTORS
330
19
102
}
330
19
100
AcDbDictionary
281
     1
  0
DICTIONARY
  5
1A
102
{ACAD_REACTORS
330
19
102
}
330
19
100
AcDbDictionary
281
     1
  0
DICTIONARY
  5
1E
102
{ACAD_REACTORS
330
19
102
}
330
19
100
AcDbDictionary
281
     1
  3
DRAWING1
350
548
  3
Layout1
350
21
  3
Model
350
20
  0
DICTIONARY
  5
55D
102
{ACAD_REACTORS
330
19
102
}
330
19
100
AcDbDictionary
281
     1
  3
ByBlock
350
55F
  3
ByLayer
350
55E
  3
Global
350
560
  0
DICTIONARY
  5
1B
102
{ACAD_REACTORS
330
19
102
}
330
19
100
AcDbDictionary
281
     1
  3
Standard
350
1C
  0
DICTIONARY
  5
22
102
{ACAD_REACTORS
330
19
102
}
330
19
100
AcDbDictionary
281
     1
  0
ACDBDICTIONARYWDFLT
  5
1F
102
{ACAD_REACTORS
330
19
102
}
330
19
100
AcDbDictionary
281
     1
  3
Normal
350
1D
100
AcDbDictionaryWithDefault
340
1D
  0
DICTIONARY
  5
573
102
{ACAD_REACTORS
330
19
102
}
330
19
100
AcDbDictionary
281
     1
  3
Standard
350
574
  0
DICTIONARY
  5
561
102
{ACAD_REACTORS
330
19
102
}
330
19
100
AcDbDictionary
281
     1
  3
2dWireframe
350
567
  3
3D Hidden
350
569
  3
3dWireframe
350
568
  3
Basic
350
566
  3
Brighten
350
56D
  3
ColorChange
350
571
  3
Conceptual
350
56A
  3
Dim
350
56C
  3
Facepattern
350
570
  3
Flat
350
562
  3
FlatWithEdges
350
563
  3
Gouraud
350
564
  3
GouraudWithEdges
350
565
  3
Linepattern
350
56F
  3
Realistic
350
56B
  3
Thicken
350
56E
  0
WIPEOUTVARIABLES
  5
23
330
19
100
AcDbWipeoutVariables
 70
     1
  0
DICTIONARY
  5
57C
102
{ACAD_REACTORS
330
19
102
}
330
19
100
AcDbDictionary
281
     1
  3
CTABLESTYLE
350
57D
  3
DIMASSOC
350
580
  3
INDEXCTL
350
57F
  3
SORTENTS
350
57E
  0
DICTIONARY
  5
579
102
{ACAD_REACTORS
330
19
102
}
330
19
100
AcDbDictionary
281
     1
  3
ASEBlockHierarchyIndexRecord
350
57B
1001
DCO15
1040
1721119897.903
  0
XRECORD
  5
581
102
{ACAD_REACTORS
330
19
102
}
330
19
100
AcDbXrecord
280
     1
  1
DWGPROPS COOKIE
  2

  3

  4

  6

  7

  8
bjn
  9

300
=
301
=
302
=
303
=
304
=
305
=
306
=
307
=
308
=
309
=
 40
0.0002699884259259
 41
2455723.58077507
 42
2455723.581040544
  1

 90
        0
  0
XRECORD
  5
587
102
{ACAD_REACTORS
330
586
102
}
330
586
100
AcDbXrecord
280
     1
102
SHADEPLOT
 70
     0
  0
LAYOUT
  5
548
102
{ACAD_XDICTIONARY
360
588
102
}
102
{ACAD_REACTORS
330
1E
102
}
330
1E
100
AcDbPlotSettings
  1

  2

  4

  6

 40
20.0
 41
20.0
 42
20.0
 43
20.0
 44
319.4
 45
255.9
 46
0.0
 47
0.0
 48
0.0
 49
0.0
140
319.4
141
255.9
142
1.0
143
1.0
 70
     0
 72
     0
 73
     0
 74
     1
  7

 75
     0
147
1.0
148
0.0
149
0.0
100
AcDbLayout
  1
DRAWING1
 70
     0
 71
     2
 10
0.0
 20
0.0
 11
11.0
 21
8.5
 12
0.0
 22
0.0
 32
0.0
 14
0.0
 24
0.0
 34
0.0
 15
11.0
 25
8.5
 35
0.0
146
0.0
 13
0.0
 23
0.0
 33
0.0
 16
0.0
 26
0.0
 36
0.0
 17
0.0
 27
0.0
 37
0.0
 76
     0
330
B
331
32
  0
LAYOUT
  5
21
102
{ACAD_XDICTIONARY
360
584
102
}
102
{ACAD_REACTORS
330
1E
102
}
330
1E
100
AcDbPlotSettings
  1

  2
none_device
  4
Letter_(8.50_x_11.00_Inches)
  6

 40
6.349999904632568
 41
6.349999904632568
 42
6.350006103515625
 43
6.350006103515625
 44
215.8999938964844
 45
279.3999938964844
 46
0.0
 47
0.0
 48
0.0
 49
0.0
140
0.0
141
0.0
142
1.0
143
0.4408264414944455
 70
    16
 72
     0
 73
     1
 74
     1
  7

 75
     0
147
2.268466466326068
148
-43.67330396838163
149
-89.67049625689453
100
AcDbLayout
  1
Layout1
 70
     0
 71
     1
 10
1.609214699775623
 20
3.42012788958446
 11
6.458305450285741
 21
7.167152536358464
 12
0.0
 22
0.0
 32
0.0
 14
1.719421416078017
 24
3.530334498302934
 34
-0.0004043445228632
 15
6.099304220289109
 25
7.056945820056071
 35
0.0000152657740013
146
0.0
 13
0.0
 23
0.0
 33
0.0
 16
1.0
 26
0.0
 36
0.0
 17
0.0
 27
1.0
 37
0.0
 76
     0
330
B
331
32
1001
ACAD_PSEXT
1000
None
1000
None
1000
Not applicable
1000
The layout will not be plotted unless a new plotter configuration name is selected.
1070
     0
  0
LAYOUT
  5
20
102
{ACAD_XDICTIONARY
360
582
102
}
102
{ACAD_REACTORS
330
1E
102
}
330
1E
100
AcDbPlotSettings
  1

  2

  4

  6

 40
0.0
 41
0.0
 42
0.0
 43
0.0
 44
0.0
 45
0.0
 46
0.0
 47
0.0
 48
0.0
 49
0.0
140
0.0
141
0.0
142
1.0
143
1.0
 70
  1024
 72
     0
 73
     0
 74
     0
  7

 75
     0
147
1.0
148
0.0
149
0.0
100
AcDbLayout
  1
Model
 70
     0
 71
     0
 10
0.0
 20
0.0
 11
0.0
 21
0.0
 12
0.0
 22
0.0
 32
0.0
 14
0.0
 24
0.0
 34
0.0
 15
0.0
 25
0.0
 35
0.0
146
0.0
 13
0.0
 23
0.0
 33
0.0
 16
0.0
 26
0.0
 36
0.0
 17
0.0
 27
0.0
 37
0.0
 76
     0
330
A
  0
MATERIAL
  5
55F
102
{ACAD_XDICTIONARY
360
58C
102
}
102
{ACAD_REACTORS
330
55D
102
}
330
55D
100
AcDbMaterial
  1
ByBlock
  0
MATERIAL
  5
55E
102
{ACAD_XDICTIONARY
360
58A
102
}
102
{ACAD_REACTORS
330
55D
102
}
330
55D
100
AcDbMaterial
  1
ByLayer
  0
MATERIAL
  5
560
102
{ACAD_XDICTIONARY
360
58E
102
}
102
{ACAD_REACTORS
330
55D
102
}
330
55D
100
AcDbMaterial
  1
Global
  0
MLINESTYLE
  5
1C
102
{ACAD_REACTORS
330
1B
102
}
330
1B
100
AcDbMlineStyle
  2
STANDARD
 70
     0
  3

 62
     0
 51
90.0
 52
90.0
 71
     2
 49
0.5
 62
   256
  6
BYLAYER
 49
-0.5
 62
   256
  6
BYLAYER
  0
ACDBPLACEHOLDER
  5
1D
102
{ACAD_REACTORS
330
1F
102
}
330
1F
  0
TABLESTYLE
  5
574
102
{ACAD_XDICTIONARY
360
590
102
}
102
{ACAD_REACTORS
330
573
102
}
330
573
100
AcDbTableStyle
  3
Standard
 70
     0
 71
     0
 40
0.06
 41
0.06
280
     0
281
     0
  7
Standard
140
0.18
170
     2
 62
     0
 63
     7
283
     0
274
    -2
284
     1
 64
     0
275
    -2
285
     1
 65
     0
276
    -2
286
     1
 66
     0
277
    -2
287
     1
 67
     0
278
    -2
288
     1
 68
     0
279
    -2
289
     1
 69
     0
  7
Standard
140
0.25
170
     5
 62
     0
 63
     7
283
     0
274
    -2
284
     1
 64
     0
275
    -2
285
     1
 65
     0
276
    -2
286
     1
 66
     0
277
    -2
287
     1
 67
     0
278
    -2
288
     1
 68
     0
279
    -2
289
     1
 69
     0
  7
Standard
140
0.18
170
     5
 62
     0
 63
     7
283
     0
274
    -2
284
     1
 64
     0
275
    -2
285
     1
 65
     0
276
    -2
286
     1
 66
     0
277
    -2
287
     1
 67
     0
278
    -2
288
     1
 68
     0
279
    -2
289
     1
 69
     0
  0
VISUALSTYLE
  5
567
102
{ACAD_REACTORS
330
561
102
}
330
561
100
AcDbVisualStyle
  2
2dWireframe
 70
     4
 71
     0
 72
     2
 73
     0
 90
        0
 40
-0.6
 41
-30.0
 62
     5
 63
     7
 74
     1
 91
        4
 64
     7
 65
   257
 75
     1
175
     1
 42
1.0
 92
        0
 66
   257
 43
1.0
 76
     1
 77
     6
 78
     2
 67
     7
 79
     5
170
     0
171
     0
290
     0
174
     0
 93
        1
 44
0.0
173
     0
291
     0
 45
0.0
1001
ACAD
1000
AcDbSavedByObjectVersion
1070
     0
  0
VISUALSTYLE
  5
569
102
{ACAD_REACTORS
330
561
102
}
330
561
100
AcDbVisualStyle
  2
3D Hidden
 70
     6
 71
     1
 72
     2
 73
     2
 90
        0
 40
-0.6
 41
-30.0
 62
     5
 63
     7
 74
     2
 91
        2
 64
     7
 65
   257
 75
     2
175
     1
 42
40.0
 92
        0
 66
   257
 43
1.0
 76
     1
 77
     6
 78
     2
 67
     7
 79
     3
170
     0
171
     0
290
     0
174
     0
 93
        1
 44
0.0
173
     0
291
     0
 45
0.0
1001
ACAD
1000
AcDbSavedByObjectVersion
1070
     0
  0
VISUALSTYLE
  5
568
102
{ACAD_REACTORS
330
561
102
}
330
561
100
AcDbVisualStyle
  2
3dWireframe
 70
     5
 71
     0
 72
     2
 73
     0
 90
        0
 40
-0.6
 41
-30.0
 62
     5
 63
     7
 74
     1
 91
        4
 64
     7
 65
   257
 75
     1
175
     1
 42
1.0
 92
        0
 66
   257
 43
1.0
 76
     1
 77
     6
 78
     2
 67
     7
 79
     5
170
     0
171
     0
290
     0
174
     0
 93
        1
 44
0.0
173
     0
291
     0
 45
0.0
1001
ACAD
1000
AcDbSavedByObjectVersion
1070
     0
  0
VISUALSTYLE
  5
566
102
{ACAD_REACTORS
330
561
102
}
330
561
100
AcDbVisualStyle
  2
Basic
 70
     7
 71
     1
 72
     0
 73
     1
 90
        0
 40
-0.6
 41
-30.0
 62
     5
 63
     7
 74
     0
 91
        4
 64
     7
 65
   257
 75
     1
175
     1
 42
1.0
 92
        8
 66
     7
 43
1.0
 76
     1
 77
     6
 78
     2
 67
     7
 79
     5
170
     0
171
     0
290
     0
174
     0
 93
        1
 44
0.0
173
     0
291
     1
 45
0.0
1001
ACAD
1000
AcDbSavedByObjectVersion
1070
     0
  0
VISUALSTYLE
  5
56D
102
{ACAD_REACTORS
330
561
102
}
330
561
100
AcDbVisualStyle
  2
Brighten
 70
    12
 71
     2
 72
     2
 73
     0
 90
        0
 40
-0.6
 41
-30.0
 62
     5
 63
     7
 74
     1
 91
        4
 64
     7
 65
   257
 75
     1
175
     1
 42
1.0
 92
        8
 66
     7
 43
1.0
 76
     1
 77
     6
 78
     2
 67
     7
 79
     5
170
     0
171
     0
290
     0
174
     0
 93
        1
 44
50.0
173
     0
291
     1
 45
0.0
1001
ACAD
1000
AcDbSavedByObjectVersion
1070
     0
  0
VISUALSTYLE
  5
571
102
{ACAD_REACTORS
330
561
102
}
330
561
100
AcDbVisualStyle
  2
ColorChange
 70
    16
 71
     2
 72
     2
 73
     3
 90
        0
 40
-0.6
 41
-30.0
 62
     5
 63
     8
 74
     1
 91
        4
 64
     7
 65
   257
 75
     1
175
     1
 42
1.0
 92
        8
 66
     8
 43
1.0
 76
     1
 77
     6
 78
     2
 67
     7
 79
     5
170
     0
171
     0
290
     0
174
     0
 93
        1
 44
0.0
173
     0
291
     1
 45
0.0
1001
ACAD
1000
AcDbSavedByObjectVersion
1070
     0
  0
VISUALSTYLE
  5
56A
102
{ACAD_REACTORS
330
561
102
}
330
561
100
AcDbVisualStyle
  2
Conceptual
 70
     9
 71
     3
 72
     2
 73
     0
 90
        0
 40
-0.6
 41
-30.0
 62
     5
 63
     7
 74
     2
 91
        2
 64
     7
 65
   257
 75
     1
175
     1
 42
40.0
 92
        8
 66
     7
 43
1.0
 76
     1
 77
     6
 78
     2
 67
     7
 79
     3
170
     0
171
     0
290
     0
174
     0
 93
        1
 44
0.0
173
     0
291
     0
 45
0.0
1001
ACAD
1000
AcDbSavedByObjectVersion
1070
     0
  0
VISUALSTYLE
  5
56C
102
{ACAD_REACTORS
330
561
102
}
330
561
100
AcDbVisualStyle
  2
Dim
 70
    11
 71
     2
 72
     2
 73
     0
 90
        0
 40
-0.6
 41
-30.0
 62
     5
 63
     7
 74
     1
 91
        4
 64
     7
 65
   257
 75
     1
175
     1
 42
1.0
 92
        8
 66
     7
 43
1.0
 76
     1
 77
     6
 78
     2
 67
     7
 79
     5
170
     0
171
     0
290
     0
174
     0
 93
        1
 44
-50.0
173
     0
291
     1
 45
0.0
1001
ACAD
1000
AcDbSavedByObjectVersion
1070
     0
  0
VISUALSTYLE
  5
570
102
{ACAD_REACTORS
330
561
102
}
330
561
100
AcDbVisualStyle
  2
Facepattern
 70
    15
 71
     2
 72
     2
 73
     0
 90
        0
 40
-0.6
 41
-30.0
 62
     5
 63
     7
 74
     1
 91
        4
 64
     7
 65
   257
 75
     1
175
     1
 42
1.0
 92
        8
 66
     7
 43
1.0
 76
     1
 77
     6
 78
     2
 67
     7
 79
     5
170
     0
171
     0
290
     0
174
     0
 93
        1
 44
0.0
173
     0
291
     1
 45
0.0
1001
ACAD
1000
AcDbSavedByObjectVersion
1070
     0
  0
VISUALSTYLE
  5
562
102
{ACAD_REACTORS
330
561
102
}
330
561
100
AcDbVisualStyle
  2
Flat
 70
     0
 71
     2
 72
     1
 73
     1
 90
        2
 40
-0.6
 41
30.0
 62
     5
 63
     7
 74
     0
 91
        4
 64
     7
 65
   257
 75
     1
175
     1
 42
1.0
 92
        8
 66
     7
 43
1.0
 76
     1
 77
     6
 78
     2
 67
     7
 79
     5
170
     0
171
     0
290
     0
174
     0
 93
       13
 44
0.0
173
     0
291
     1
 45
0.0
1001
ACAD
1000
AcDbSavedByObjectVersion
1070
     0
  0
VISUALSTYLE
  5
563
102
{ACAD_REACTORS
330
561
102
}
330
561
100
AcDbVisualStyle
  2
FlatWithEdges
 70
     1
 71
     2
 72
     1
 73
     1
 90
        2
 40
-0.6
 41
30.0
 62
     5
 63
     7
 74
     1
 91
        4
 64
     7
 65
   257
 75
     1
175
     1
 42
1.0
 92
        0
 66
   257
 43
1.0
 76
     1
 77
     6
 78
     2
 67
     7
 79
     5
170
     0
171
     0
290
     0
174
     0
 93
       13
 44
0.0
173
     0
291
     1
 45
0.0
1001
ACAD
1000
AcDbSavedByObjectVersion
1070
     0
  0
VISUALSTYLE
  5
564
102
{ACAD_REACTORS
330
561
102
}
330
561
100
AcDbVisualStyle
  2
Gouraud
 70
     2
 71
     2
 72
     2
 73
     1
 90
        2
 40
-0.6
 41
30.0
 62
     5
 63
     7
 74
     0
 91
        4
 64
     7
 65
   257
 75
     1
175
     1
 42
1.0
 92
        0
 66
     7
 43
1.0
 76
     1
 77
     6
 78
     2
 67
     7
 79
     5
170
     0
171
     0
290
     0
174
     0
 93
       13
 44
0.0
173
     0
291
     1
 45
0.0
1001
ACAD
1000
AcDbSavedByObjectVersion
1070
     0
  0
VISUALSTYLE
  5
565
102
{ACAD_REACTORS
330
561
102
}
330
561
100
AcDbVisualStyle
  2
GouraudWithEdges
 70
     3
 71
     2
 72
     2
 73
     1
 90
        2
 40
-0.6
 41
30.0
 62
     5
 63
     7
 74
     1
 91
        4
 64
     7
 65
   257
 75
     1
175
     1
 42
1.0
 92
        0
 66
   257
 43
1.0
 76
     1
 77
     6
 78
     2
 67
     7
 79
     5
170
     0
171
     0
290
     0
174
     0
 93
       13
 44
0.0
173
     0
291
     1
 45
0.0
1001
ACAD
1000
AcDbSavedByObjectVersion
1070
     0
  0
VISUALSTYLE
  5
56F
102
{ACAD_REACTORS
330
561
102
}
330
561
100
AcDbVisualStyle
  2
Linepattern
 70
    14
 71
     2
 72
     2
 73
     0
 90
        0
 40
-0.6
 41
-30.0
 62
     5
 63
     7
 74
     1
 91
        4
 64
     7
 65
   257
 75
     7
175
     7
 42
1.0
 92
        8
 66
     7
 43
1.0
 76
     1
 77
     6
 78
     2
 67
     7
 79
     5
170
     0
171
     0
290
     0
174
     0
 93
        1
 44
0.0
173
     0
291
     1
 45
0.0
1001
ACAD
1000
AcDbSavedByObjectVersion
1070
     0
  0
VISUALSTYLE
  5
56B
102
{ACAD_REACTORS
330
561
102
}
330
561
100
AcDbVisualStyle
  2
Realistic
 70
     8
 71
     2
 72
     2
 73
     0
 90
        0
 40
-0.6
 41
-30.0
 62
     5
 63
     7
 74
     1
 91
        0
 64
     7
 65
   257
 75
     1
175
     1
 42
1.0
 92
        8
 66
     8
 43
1.0
 76
     1
 77
     6
 78
     2
 67
     7
 79
     5
170
     0
171
     0
290
     0
174
     0
 93
       13
 44
0.0
173
     0
291
     0
 45
0.0
1001
ACAD
1000
AcDbSavedByObjectVersion
1070
     0
  0
VISUALSTYLE
  5
56E
102
{ACAD_REACTORS
330
561
102
}
330
561
100
AcDbVisualStyle
  2
Thicken
 70
    13
 71
     2
 72
     2
 73
     0
 90
        0
 40
-0.6
 41
-30.0
 62
     5
 63
     7
 74
     1
 91
        4
 64
     7
 65
   257
 75
     1
175
     1
 42
1.0
 92
       12
 66
     7
 43
1.0
 76
     1
 77
     6
 78
     2
 67
     7
 79
     5
170
     0
171
     0
290
     0
174
     0
 93
        1
 44
0.0
173
     0
291
     1
 45
0.0
1001
ACAD
1000
AcDbSavedByObjectVersion
1070
     0
  0
DICTIONARYVAR
  5
57D
102
{ACAD_REACTORS
330
57C
102
}
330
57C
100
DictionaryVariables
280
     0
  1
STANDARD
  0
DICTIONARYVAR
  5
580
102
{ACAD_REACTORS
330
57C
102
}
330
57C
100
DictionaryVariables
280
     0
  1
1
  0
DICTIONARYVAR
  5
57F
102
{ACAD_REACTORS
330
57C
102
}
330
57C
100
DictionaryVariables
280
     0
  1
0
  0
DICTIONARYVAR
  5
57E
102
{ACAD_REACTORS
330
57C
102
}
330
57C
100
DictionaryVariables
280
     0
  1
127
  0
XRECORD
  5
57B
102
{ACAD_REACTORS
330
579
102
}
330
579
100
AcDbXrecord
280
     1
  0
DICTIONARY
  5
588
330
548
100
AcDbDictionary
280
     1
281
     1
  3
ACAD_XREC_ROUNDTRIP
360
589
  0
DICTIONARY
  5
584
330
21
100
AcDbDictionary
280
     1
281
     1
  3
ACAD_XREC_ROUNDTRIP
360
585
  0
DICTIONARY
  5
582
330
20
100
AcDbDictionary
280
     1
281
     1
  3
ACAD_XREC_ROUNDTRIP
360
583
  0
DICTIONARY
  5
58C
330
55F
100
AcDbDictionary
280
     1
281
     1
  3
ACAD_XREC_ROUNDTRIP
360
58D
  0
DICTIONARY
  5
58A
330
55E
100
AcDbDictionary
280
     1
281
     1
  3
ACAD_XREC_ROUNDTRIP
360
58B
  0
DICTIONARY
  5
58E
330
560
100
AcDbDictionary
280
     1
281
     1
  3
ACAD_XREC_ROUNDTRIP
360
58F
  0
DICTIONARY
  5
590
330
574
100
AcDbDictionary
280
     1
281
     1
  3
ACAD_XREC_ROUNDTRIP
360
591
  0
XRECORD
  5
589
102
{ACAD_REACTORS
330
588
102
}
330
588
100
AcDbXrecord
280
     1
102
SHADEPLOT
 70
     0
102
SHADEPLOTRESLEVEL
 70
     2
102
SHADEPLOTCUSTOMDPI
 70
   300
  0
XRECORD
  5
585
102
{ACAD_REACTORS
330
584
102
}
330
584
100
AcDbXrecord
280
     1
102
SHADEPLOT
 70
     0
102
SHADEPLOTRESLEVEL
 70
     2
102
SHADEPLOTCUSTOMDPI
 70
   300
  0
XRECORD
  5
583
102
{ACAD_REACTORS
330
582
102
}
330
582
100
AcDbXrecord
280
     1
102
SHADEPLOT
 70
     0
102
SHADEPLOTRESLEVEL
 70
     2
102
SHADEPLOTCUSTOMDPI
 70
   300
  0
XRECORD
  5
58D
102
{ACAD_REACTORS
330
58C
102
}
330
58C
100
AcDbXrecord
280
     1
102
MATERIAL
148
0.0
149
0.0
149
0.0
 93
        0
 94
       63
282
     0
 72
     1
 77
     1
171
     1
175
     1
179
     1
273
     0
  0
XRECORD
  5
58B
102
{ACAD_REACTORS
330
58A
102
}
330
58A
100
AcDbXrecord
280
     1
102
MATERIAL
148
0.0
149
0.0
149
0.0
 93
        0
 94
       63
282
     0
 72
     1
 77
     1
171
     1
175
     1
179
     1
273
     0
  0
XRECORD
  5
58F
102
{ACAD_REACTORS
330
58E
102
}
330
58E
100
AcDbXrecord
280
     1
102
MATERIAL
148
0.0
149
0.0
149
0.0
 93
        0
 94
       63
282
     0
 72
     1
 77
     1
171
     1
175
     1
179
     1
273
     0
  0
XRECORD
  5
591
102
{ACAD_REACTORS
330
590
102
}
330
590
100
AcDbXrecord
280
     1
102
ACAD_ROUNDTRIP_PRE2007_TABLESTYLE
 90
      512
 91
        0
  1

 92
      512
 93
        0
  2

 94
      512
 95
        0
  3

  0
ENDSEC
  0
EOF
