  0
SECTION
  2
HEADER
  9
$ACADVER
  1
AC1015
  9
$ACADMAINTVER
 70
     6
  9
$DWGCODEPAGE
  3
ANSI_1252
  9
$INSBASE
 10
0.0
 20
0.0
 30
0.0
  9
$EXTMIN
 10
-0.5
 20
-0.5
 30
-0.5
  9
$EXTMAX
 10
5.0
 20
5.0
 30
5.0
  9
$LIMMIN
 10
-0.5
 20
-0.5
  9
$LIMMAX
 10
5.0
 20
5.0
  9
$ORTHOMODE
 70
     0
  9
$REGENMODE
 70
     1
  9
$FILLMODE
 70
     1
  9
$QTEXTMODE
 70
     0
  9
$MIRRTEXT
 70
     1
  9
$LTSCALE
 40
1.0
  9
$ATTMODE
 70
     1
  9
$TEXTSIZE
 40
0.2
  9
$TRACEWID
 40
0.05
  9
$TEXTSTYLE
  7
Standard
  9
$CLAYER
  8
0
  9
$CELTYPE
  6
Continuous
  9
$CECOLOR
 62
   256
  9
$CELTSCALE
 40
1.0
  9
$DISPSILH
 70
     0
  9
$DIMSCALE
 40
1.0
  9
$DIMASZ
 40
0.18
  9
$DIMEXO
 40
0.0625
  9
$DIMDLI
 40
0.38
  9
$DIMRND
 40
0.0
  9
$DIMDLE
 40
0.0
  9
$DIMEXE
 40
0.18
  9
$DIMTP
 40
0.0
  9
$DIMTM
 40
0.0
  9
$DIMTXT
 40
0.18
  9
$DIMCEN
 40
0.09
  9
$DIMTSZ
 40
0.0
  9
$DIMTOL
 70
     0
  9
$DIMLIM
 70
     0
  9
$DIMTIH
 70
     1
  9
$DIMTOH
 70
     1
  9
$DIMSE1
 70
     0
  9
$DIMSE2
 70
     0
  9
$DIMTAD
 70
     0
  9
$DIMZIN
 70
     0
  9
$DIMBLK
  1

  9
$DIMASO
 70
     1
  9
$DIMSHO
 70
     1
  9
$DIMPOST
  1

  9
$DIMAPOST
  1

  9
$DIMALT
 70
     0
  9
$DIMALTD
 70
     2
  9
$DIMALTF
 40
25.4
  9
$DIMLFAC
 40
1.0
  9
$DIMTOFL
 70
     0
  9
$DIMTVP
 40
0.0
  9
$DIMTIX
 70
     0
  9
$DIMSOXD
 70
     0
  9
$DIMSAH
 70
     0
  9
$DIMBLK1
  1

  9
$DIMBLK2
  1

  9
$DIMSTYLE
  2
Standard
  9
$DIMCLRD
 70
     0
  9
$DIMCLRE
 70
     0
  9
$DIMCLRT
 70
     0
  9
$DIMTFAC
 40
1.0
  9
$DIMGAP
 40
0.09
  9
$DIMJUST
 70
     0
  9
$DIMSD1
 70
     0
  9
$DIMSD2
 70
     0
  9
$DIMTOLJ
 70
     1
  9
$DIMTZIN
 70
     0
  9
$DIMALTZ
 70
     0
  9
$DIMALTTZ
 70
     0
  9
$DIMUPT
 70
     0
  9
$DIMDEC
 70
     4
  9
$DIMTDEC
 70
     4
  9
$DIMALTU
 70
     2
  9
$DIMALTTD
 70
     2
  9
$DIMTXSTY
  7
Standard
  9
$DIMAUNIT
 70
     0
  9
$DIMADEC
 70
     0
  9
$DIMALTRND
 40
0.0
  9
$DIMAZIN
 70
     0
  9
$DIMDSEP
 70
     0
  9
$DIMATFIT
 70
     3
  9
$DIMFRAC
 70
     0
  9
$DIMLDRBLK
  1

  9
$DIMLUNIT
 70
     2
  9
$DIMLWD
 70
     0
  9
$DIMLWE
 70
     0
  9
$DIMTMOVE
 70
     0
  9
$LUNITS
 70
     2
  9
$LUPREC
 70
     4
  9
$SKETCHINC
 40
0.1
  9
$FILLETRAD
 40
0.0
  9
$AUNITS
 70
     0
  9
$AUPREC
 70
     0
  9
$MENU
  1
acad
  9
$ELEVATION
 40
0.0
  9
$PELEVATION
 40
0.0
  9
$THICKNESS
 40
0.0
  9
$LIMCHECK
 70
     0
  9
$CHAMFERA
 40
0.0
  9
$CHAMFERB
 40
0.0
  9
$CHAMFERC
 40
0.0
  9
$CHAMFERD
 40
0.0
  9
$SKPOLY
 70
     0
  9
$TDCREATE
 40
0.000000000
  9
$TDUCREATE
 40
0.000000000
  9
$TDUPDATE
 40
0.000000000
  9
$TDUUPDATE
 40
0.000000000
  9
$TDINDWG
 40
0.0000000000
  9
$TDUSRTIMER
 40
0.0000000000
  9
$USRTIMER
 70
     1
  9
$ANGBASE
 50
0.0
  9
$ANGDIR
 70
     0
  9
$PDMODE
 70
     0
  9
$PDSIZE
 40
0.0
  9
$PLINEWID
 40
0.0
  9
$SPLFRAME
 70
     0
  9
$SPLINETYPE
 70
     6
  9
$SPLINESEGS
 70
     8
  9
$HANDSEED
  5
2EF
  9
$SURFTAB1
 70
     6
  9
$SURFTAB2
 70
     6
  9
$SURFTYPE
 70
     6
  9
$SURFU
 70
     6
  9
$SURFV
 70
     6
  9
$UCSBASE
  2

  9
$UCSNAME
  2

  9
$UCSORG
 10
0.0
 20
0.0
 30
0.0
  9
$UCSXDIR
 10
1.0
 20
0.0
 30
0.0
  9
$UCSYDIR
 10
0.0
 20
1.0
 30
0.0
  9
$UCSORTHOREF
  2

  9
$UCSORTHOVIEW
 70
     0
  9
$UCSORGTOP
 10
0.0
 20
0.0
 30
0.0
  9
$UCSORGBOTTOM
 10
0.0
 20
0.0
 30
0.0
  9
$UCSORGLEFT
 10
0.0
 20
0.0
 30
0.0
  9
$UCSORGRIGHT
 10
0.0
 20
0.0
 30
0.0
  9
$UCSORGFRONT
 10
0.0
 20
0.0
 30
0.0
  9
$UCSORGBACK
 10
0.0
 20
0.0
 30
0.0
  9
$PUCSBASE
  2

  9
$PUCSNAME
  2

  9
$PUCSORG
 10
0.0
 20
0.0
 30
0.0
  9
$PUCSXDIR
 10
1.0
 20
0.0
 30
0.0
  9
$PUCSYDIR
 10
0.0
 20
1.0
 30
0.0
  9
$PUCSORTHOREF
  2

  9
$PUCSORTHOVIEW
 70
     0
  9
$PUCSORGTOP
 10
0.0
 20
0.0
 30
0.0
  9
$PUCSORGBOTTOM
 10
0.0
 20
0.0
 30
0.0
  9
$PUCSORGLEFT
 10
0.0
 20
0.0
 30
0.0
  9
$PUCSORGRIGHT
 10
0.0
 20
0.0
 30
0.0
  9
$PUCSORGFRONT
 10
0.0
 20
0.0
 30
0.0
  9
$PUCSORGBACK
 10
0.0
 20
0.0
 30
0.0
  9
$USERI1
 70
     0
  9
$USERI2
 70
     0
  9
$USERI3
 70
     0
  9
$USERI4
 70
     0
  9
$USERI5
 70
     0
  9
$USERR1
 40
0.0
  9
$USERR2
 40
0.0
  9
$USERR3
 40
0.0
  9
$USERR4
 40
0.0
  9
$USERR5
 40
0.0
  9
$WORLDVIEW
 70
     1
  9
$SHADEDGE
 70
     3
  9
$SHADEDIF
 70
    70
  9
$TILEMODE
 70
     0
  9
$MAXACTVP
 70
    16
  9
$PINSBASE
 10
0.0
 20
0.0
 30
0.0
  9
$PLIMCHECK
 70
     0
  9
$PEXTMIN
 10
-0.5
 20
-0.5
 30
-0.5
  9
$PEXTMAX
 10
11.219986
 20
8.669998
 30
5.0
  9
$PLIMMIN
 10
-0.5
 20
-0.5
  9
$PLIMMAX
 10
11.219986
 20
8.669998
  9
$UNITMODE
 70
     0
  9
$VISRETAIN
 70
     0
  9
$PLINEGEN
 70
     1
  9
$PSLTSCALE
 70
     0
  9
$TREEDEPTH
 70
  3020
  9
$CMLSTYLE
  2
Standard
  9
$CMLJUST
 70
     0
  9
$CMLSCALE
 40
1.0
  9
$PROXYGRAPHICS
 70
     0
  9
$MEASUREMENT
 70
     0
  9
$CELWEIGHT
370
     0
  9
$ENDCAPS
280
     0
  9
$JOINSTYLE
280
     0
  9
$LWDISPLAY
290
     0
  9
$INSUNITS
 70
     0
  9
$HYPERLINKBASE
  1

  9
$XEDIT
290
     1
  9
$CEPSNTYPE
380
     0
  9
$PSTYLEMODE
290
     1
  9
$FINGERPRINTGUID
  2

  9
$VERSIONGUID
  2

  9
$EXTNAMES
290
     1
  9
$PSVPSCALE
 40
0.0
  0
ENDSEC
  0
SECTION
  2
CLASSES
  0
CLASS
  1
LWPOLYLINE
  2
AcDbPolyline
  3
"AutoCAD"
 90
        0
280
     0
281
     1
  0
CLASS
  1
IMAGE
  2
AcDbRasterImage
  3
ISM
 90
      127
280
     0
281
     1
  0
CLASS
  1
OLE2FRAME
  2
AcDbOle2Frame
  3
""
 90
        0
280
     0
281
     1
  0
CLASS
  1
HATCH
  2
AcDbHatch
  3
"ACAD_SEDONA"
 90
        0
280
     0
281
     1
  0
CLASS
  1
DICTIONARYVAR
  2
AcDbDictionaryVar
  3
"AutoCAD"
 90
        0
280
     0
281
     0
  0
CLASS
  1
RASTERVARIABLES
  2
AcDbRasterVariables
  3
ISM
 90
        0
280
     0
281
     0
  0
CLASS
  1
IMAGEDEF
  2
AcDbRasterImageDef
  3
ISM
 90
        0
280
     0
281
     0
  0
CLASS
  1
IMAGEDEF_REACTOR
  2
AcDbRasterImageDefReactor
  3
ISM
 90
        1
280
     0
281
     0
  0
CLASS
  1
IDBUFFER
  2
AcDbIdBuffer
  3
"Acad"
 90
        0
280
     0
281
     0
  0
CLASS
  1
SPATIAL_FILTER
  2
AcDbSpatialFilter
  3
"Acad"
 90
        0
280
     0
281
     0
  0
CLASS
  1
XRECORD
  2
AcDbXrecord
  3
"<Built In>"
 90
        0
280
     0
281
     0
  0
CLASS
  1
SORTENTSTABLE
  2
AcDbSortentsTable
  3
"AutoCAD"
 90
        0
280
     0
281
     0
  0
CLASS
  1
LAYER_INDEX
  2
AcDbLayerIndex
  3
"Acad"
 90
        0
280
     0
281
     0
  0
CLASS
  1
SPATIAL_INDEX
  2
AcDbSpatialIndex
  3
"Acad"
 90
        0
280
     0
281
     0
  0
CLASS
  1
OBJECT_PTR
  2
CAseDLPNTableRecord
  3
"ASE-LPNTableRecord"
 90
        1
280
     0
281
     0
  0
CLASS
  1
LAYOUT
  2
AcDbLayout
  3
"AutoCAD 2000"
 90
        1
280
     0
281
     0
  0
CLASS
  1
PLOTSETTINGS
  2
AcDbPlotSettings
  3
"AutoCAD 2000"
 90
        1
280
     0
281
     0
  0
CLASS
  1
ACDBDICTIONARYWDFLT
  2
AcDbDictionaryWithDefault
  3
"AutoCAD 2000"
 90
        1
280
     0
281
     0
  0
CLASS
  1
ACDBPLACEHOLDER
  2
AcDbPlaceHolder
  3
"AutoCAD 2000"
 90
        1
280
     0
281
     0
  0
CLASS
  1
VBA_PROJECT
  2
AcDbVbaProject
  3
"acadvba"
 90
        1
280
     0
281
     0
  0
CLASS
  1
RTEXT
  2
RText
  3
RText|AutoCAD Express Tool|expresstools@autodesk.com
 90
        0
280
     0
281
     1
  0
CLASS
  1
ARCALIGNEDTEXT
  2
AcDbArcAlignedText
  3
ATEXT|AutoCAD Express Tool|expresstools@autodesk.com
 90
        0
280
     0
281
     1
  0
ENDSEC
  0
SECTION
  2
TABLES
  0
TABLE
  2
VPORT
  5
7
100
AcDbSymbolTable
 70
    16
  0
VPORT
  5
2DF
100
AcDbSymbolTableRecord
100
AcDbViewportTableRecord
  2
*ACTIVE
 70
     0
 10
0.0
 20
0.0
 11
1.0
 21
1.0
 12
0.0
 22
0.0
 13
0.0
 23
0.0
 14
1.0
 24
1.0
 15
0.0
 25
0.0
 16
0.0
 26
0.0
 36
1.0
 17
0.0
 27
0.0
 37
0.0
 40
7.621801
 41
0.688564
 42
50.0
 43
22.281721
 44
-22.281721
 50
0.0
 51
0.0
 71
    16
 72
   100
 73
     1
 74
     1
 75
     0
 76
     0
 77
     0
 78
     0
281
     0
 65
     0
110
0.0
120
0.0
130
0.0
111
1.0
121
0.0
131
0.0
112
0.0
122
1.0
132
0.0
345
0
346
0
 79
     0
146
0.0
  0
VPORT
  5
2E0
100
AcDbSymbolTableRecord
100
AcDbViewportTableRecord
  2
L1
 70
     0
 10
0.0
 20
0.0
 11
1.0
 21
1.0
 12
0.0
 22
0.0
 13
0.0
 23
0.0
 14
1.0
 24
1.0
 15
0.0
 25
0.0
 16
0.0
 26
0.0
 36
1.0
 17
0.0
 27
0.0
 37
0.0
 40
7.621801
 41
0.688564
 42
50.0
 43
22.281721
 44
-22.281721
 50
0.0
 51
0.0
 71
    16
 72
   100
 73
     1
 74
     1
 75
     0
 76
     0
 77
     0
 78
     0
281
     0
 65
     0
110
0.0
120
0.0
130
0.0
111
1.0
121
0.0
131
0.0
112
0.0
122
1.0
132
0.0
345
0
346
0
 79
     0
146
0.0
  0
VPORT
  5
2E1
100
AcDbSymbolTableRecord
100
AcDbViewportTableRecord
  2
L2
 70
     0
 10
0.0
 20
0.0
 11
0.5
 21
1.0
 12
0.0
 22
0.0
 13
0.0
 23
0.0
 14
1.0
 24
1.0
 15
0.0
 25
0.0
 16
0.0
 26
-1.0
 36
0.0
 17
0.0
 27
0.0
 37
0.0
 40
44.563442
 41
0.688564
 42
50.0
 43
22.860294
 44
-22.860294
 50
0.0
 51
0.0
 71
    16
 72
   100
 73
     1
 74
     1
 75
     0
 76
     0
 77
     0
 78
     0
281
     0
 65
     0
110
0.0
120
0.0
130
0.0
111
1.0
121
0.0
131
0.0
112
0.0
122
1.0
132
0.0
345
0
346
0
 79
     0
146
0.0
  0
VPORT
  5
2E2
100
AcDbSymbolTableRecord
100
AcDbViewportTableRecord
  2
L2
 70
     0
 10
0.5
 20
0.0
 11
1.0
 21
1.0
 12
0.0
 22
0.0
 13
0.0
 23
0.0
 14
1.0
 24
1.0
 15
0.0
 25
0.0
 16
1.0
 26
0.0
 36
0.0
 17
0.0
 27
0.0
 37
0.0
 40
44.563442
 41
0.688564
 42
50.0
 43
22.605266
 44
-22.605266
 50
0.0
 51
0.0
 71
    16
 72
   100
 73
     1
 74
     1
 75
     0
 76
     0
 77
     0
 78
     0
281
     0
 65
     0
110
0.0
120
0.0
130
0.0
111
1.0
121
0.0
131
0.0
112
0.0
122
1.0
132
0.0
345
0
346
0
 79
     0
146
0.0
  0
VPORT
  5
2E3
100
AcDbSymbolTableRecord
100
AcDbViewportTableRecord
  2
L3
 70
     0
 10
0.0
 20
0.5
 11
1.0
 21
1.0
 12
0.0
 22
0.0
 13
0.0
 23
0.0
 14
1.0
 24
1.0
 15
0.0
 25
0.0
 16
0.0
 26
0.0
 36
1.0
 17
0.0
 27
0.0
 37
0.0
 40
7.621801
 41
0.688564
 42
50.0
 43
22.281721
 44
-22.281721
 50
0.0
 51
0.0
 71
    16
 72
   100
 73
     1
 74
     1
 75
     0
 76
     0
 77
     0
 78
     0
281
     0
 65
     0
110
0.0
120
0.0
130
0.0
111
1.0
121
0.0
131
0.0
112
0.0
122
1.0
132
0.0
345
0
346
0
 79
     0
146
0.0
  0
VPORT
  5
2E4
100
AcDbSymbolTableRecord
100
AcDbViewportTableRecord
  2
L3
 70
     0
 10
0.0
 20
0.0
 11
1.0
 21
0.5
 12
0.0
 22
0.0
 13
0.0
 23
0.0
 14
1.0
 24
1.0
 15
0.0
 25
0.0
 16
0.0
 26
-1.0
 36
0.0
 17
0.0
 27
0.0
 37
0.0
 40
44.563442
 41
0.688564
 42
50.0
 43
22.860294
 44
-22.860294
 50
0.0
 51
0.0
 71
    16
 72
   100
 73
     1
 74
     1
 75
     0
 76
     0
 77
     0
 78
     0
281
     0
 65
     0
110
0.0
120
0.0
130
0.0
111
1.0
121
0.0
131
0.0
112
0.0
122
1.0
132
0.0
345
0
346
0
 79
     0
146
0.0
  0
VPORT
  5
2E5
100
AcDbSymbolTableRecord
100
AcDbViewportTableRecord
  2
L4
 70
     0
 10
0.0
 20
0.5
 11
0.5
 21
1.0
 12
0.0
 22
0.0
 13
0.0
 23
0.0
 14
1.0
 24
1.0
 15
0.0
 25
0.0
 16
0.0
 26
0.0
 36
1.0
 17
0.0
 27
0.0
 37
0.0
 40
7.621801
 41
0.688564
 42
50.0
 43
22.281721
 44
-22.281721
 50
0.0
 51
0.0
 71
    16
 72
   100
 73
     1
 74
     1
 75
     0
 76
     0
 77
     0
 78
     0
281
     0
 65
     0
110
0.0
120
0.0
130
0.0
111
1.0
121
0.0
131
0.0
112
0.0
122
1.0
132
0.0
345
0
346
0
 79
     0
146
0.0
  0
VPORT
  5
2E6
100
AcDbSymbolTableRecord
100
AcDbViewportTableRecord
  2
L4
 70
     0
 10
0.0
 20
0.0
 11
0.5
 21
0.5
 12
0.0
 22
0.0
 13
0.0
 23
0.0
 14
1.0
 24
1.0
 15
0.0
 25
0.0
 16
0.0
 26
-1.0
 36
0.0
 17
0.0
 27
0.0
 37
0.0
 40
44.563442
 41
0.688564
 42
50.0
 43
22.860294
 44
-22.860294
 50
0.0
 51
0.0
 71
    16
 72
   100
 73
     1
 74
     1
 75
     0
 76
     0
 77
     0
 78
     0
281
     0
 65
     0
110
0.0
120
0.0
130
0.0
111
1.0
121
0.0
131
0.0
112
0.0
122
1.0
132
0.0
345
0
346
0
 79
     0
146
0.0
  0
VPORT
  5
2E7
100
AcDbSymbolTableRecord
100
AcDbViewportTableRecord
  2
L4
 70
     0
 10
0.5
 20
0.0
 11
1.0
 21
0.5
 12
0.0
 22
0.0
 13
0.0
 23
0.0
 14
1.0
 24
1.0
 15
0.0
 25
0.0
 16
1.0
 26
0.0
 36
0.0
 17
0.0
 27
0.0
 37
0.0
 40
44.563442
 41
0.688564
 42
50.0
 43
22.605266
 44
-22.605266
 50
0.0
 51
0.0
 71
    16
 72
   100
 73
     1
 74
     1
 75
     0
 76
     0
 77
     0
 78
     0
281
     0
 65
     0
110
0.0
120
0.0
130
0.0
111
1.0
121
0.0
131
0.0
112
0.0
122
1.0
132
0.0
345
0
346
0
 79
     0
146
0.0
  0
VPORT
  5
2E8
100
AcDbSymbolTableRecord
100
AcDbViewportTableRecord
  2
L4
 70
     0
 10
0.5
 20
0.5
 11
1.0
 21
1.0
 12
0.0
 22
0.0
 13
0.0
 23
0.0
 14
1.0
 24
1.0
 15
0.0
 25
0.0
 16
0.57735
 26
-0.57735
 36
0.57735
 17
0.0
 27
0.0
 37
0.0
 40
43.670252
 41
0.688564
 42
50.0
 43
22.728156
 44
-22.728156
 50
0.0
 51
0.0
 71
    16
 72
   100
 73
     1
 74
     1
 75
     0
 76
     0
 77
     0
 78
     0
281
     0
 65
     0
110
0.0
120
0.0
130
0.0
111
1.0
121
0.0
131
0.0
112
0.0
122
1.0
132
0.0
345
0
346
0
 79
     0
146
0.0
  0
VPORT
  5
2E9
100
AcDbSymbolTableRecord
100
AcDbViewportTableRecord
  2
L6
 70
     0
 10
0.0
 20
0.5
 11
0.333333
 21
1.0
 12
0.0
 22
0.0
 13
0.0
 23
0.0
 14
1.0
 24
1.0
 15
0.0
 25
0.0
 16
0.718873
 26
-0.585049
 36
0.375419
 17
0.0
 27
0.0
 37
0.0
 40
46.086168
 41
0.688564
 42
50.0
 43
23.857838
 44
-23.857838
 50
0.0
 51
0.0
 71
    16
 72
   100
 73
     1
 74
     1
 75
     0
 76
     0
 77
     0
 78
     0
281
     0
 65
     0
110
0.0
120
0.0
130
0.0
111
1.0
121
0.0
131
0.0
112
0.0
122
1.0
132
0.0
345
0
346
0
 79
     0
146
0.0
  0
VPORT
  5
2EA
100
AcDbSymbolTableRecord
100
AcDbViewportTableRecord
  2
L6
 70
     0
 10
0.0
 20
0.0
 11
0.333333
 21
0.5
 12
0.0
 22
0.0
 13
0.0
 23
0.0
 14
1.0
 24
1.0
 15
0.0
 25
0.0
 16
-1.0
 26
0.0
 36
0.0
 17
0.0
 27
0.0
 37
0.0
 40
44.563442
 41
0.688564
 42
50.0
 43
22.605266
 44
-22.605266
 50
0.0
 51
0.0
 71
    16
 72
   100
 73
     1
 74
     1
 75
     0
 76
     0
 77
     0
 78
     0
281
     0
 65
     0
110
0.0
120
0.0
130
0.0
111
1.0
121
0.0
131
0.0
112
0.0
122
1.0
132
0.0
345
0
346
0
 79
     0
146
0.0
  0
VPORT
  5
2EB
100
AcDbSymbolTableRecord
100
AcDbViewportTableRecord
  2
L6
 70
     0
 10
0.333333
 20
0.5
 11
0.666667
 21
1.0
 12
0.0
 22
0.0
 13
0.0
 23
0.0
 14
1.0
 24
1.0
 15
0.0
 25
0.0
 16
0.0
 26
0.0
 36
1.0
 17
0.0
 27
0.0
 37
0.0
 40
7.621801
 41
0.688564
 42
50.0
 43
22.281721
 44
-22.281721
 50
0.0
 51
0.0
 71
    16
 72
   100
 73
     1
 74
     1
 75
     0
 76
     0
 77
     0
 78
     0
281
     0
 65
     0
110
0.0
120
0.0
130
0.0
111
1.0
121
0.0
131
0.0
112
0.0
122
1.0
132
0.0
345
0
346
0
 79
     0
146
0.0
  0
VPORT
  5
2EC
100
AcDbSymbolTableRecord
100
AcDbViewportTableRecord
  2
L6
 70
     0
 10
0.333333
 20
0.0
 11
0.666667
 21
0.5
 12
0.0
 22
0.0
 13
0.0
 23
0.0
 14
1.0
 24
1.0
 15
0.0
 25
0.0
 16
0.0
 26
-1.0
 36
0.0
 17
0.0
 27
0.0
 37
0.0
 40
44.563442
 41
0.688564
 42
50.0
 43
22.860294
 44
-22.860294
 50
0.0
 51
0.0
 71
    16
 72
   100
 73
     1
 74
     1
 75
     0
 76
     0
 77
     0
 78
     0
281
     0
 65
     0
110
0.0
120
0.0
130
0.0
111
1.0
121
0.0
131
0.0
112
0.0
122
1.0
132
0.0
345
0
346
0
 79
     0
146
0.0
  0
VPORT
  5
2ED
100
AcDbSymbolTableRecord
100
AcDbViewportTableRecord
  2
L6
 70
     0
 10
0.666667
 20
0.5
 11
1.0
 21
1.0
 12
0.0
 22
0.0
 13
0.0
 23
0.0
 14
1.0
 24
1.0
 15
0.0
 25
0.0
 16
0.57735
 26
-0.57735
 36
0.57735
 17
0.0
 27
0.0
 37
0.0
 40
43.670252
 41
0.688564
 42
50.0
 43
22.728156
 44
-22.728156
 50
0.0
 51
0.0
 71
    16
 72
   100
 73
     1
 74
     1
 75
     0
 76
     0
 77
     0
 78
     0
281
     0
 65
     0
110
0.0
120
0.0
130
0.0
111
1.0
121
0.0
131
0.0
112
0.0
122
1.0
132
0.0
345
0
346
0
 79
     0
146
0.0
  0
VPORT
  5
2EE
100
AcDbSymbolTableRecord
100
AcDbViewportTableRecord
  2
L6
 70
     0
 10
0.666667
 20
0.0
 11
1.0
 21
0.5
 12
0.0
 22
0.0
 13
0.0
 23
0.0
 14
1.0
 24
1.0
 15
0.0
 25
0.0
 16
1.0
 26
0.0
 36
0.0
 17
0.0
 27
0.0
 37
0.0
 40
44.563442
 41
0.688564
 42
50.0
 43
22.605266
 44
-22.605266
 50
0.0
 51
0.0
 71
    16
 72
   100
 73
     1
 74
     1
 75
     0
 76
     0
 77
     0
 78
     0
281
     0
 65
     0
110
0.0
120
0.0
130
0.0
111
1.0
121
0.0
131
0.0
112
0.0
122
1.0
132
0.0
345
0
346
0
 79
     0
146
0.0
  0
ENDTAB
  0
TABLE
  2
LTYPE
  5
4
100
AcDbSymbolTable
 70
     9
  0
LTYPE
  5
11
100
AcDbSymbolTableRecord
100
AcDbLinetypeTableRecord
  2
ByBlock
 70
    64
  3

 72
    65
 73
     0
 40
0.0
  0
LTYPE
  5
12
100
AcDbSymbolTableRecord
100
AcDbLinetypeTableRecord
  2
ByLayer
 70
    64
  3

 72
    65
 73
     0
 40
0.0
  0
LTYPE
  5
13
100
AcDbSymbolTableRecord
100
AcDbLinetypeTableRecord
  2
Continuous
 70
    64
  3
Solid line
 72
    65
 73
     0
 40
0.0
  0
LTYPE
  5
22
100
AcDbSymbolTableRecord
100
AcDbLinetypeTableRecord
  2
DASHED
 70
    64
  3
__ __ __ __ __ __ __ __ __
 72
    65
 73
     2
 40
0.75
 49
0.5
 74
     0
 49
-0.25
 74
     0
  0
LTYPE
  5
23
100
AcDbSymbolTableRecord
100
AcDbLinetypeTableRecord
  2
HIDDEN
 70
    64
  3
_ _ _ _ _ _ _ _ _ _ _ _ _ _ _
 72
    65
 73
     2
 40
0.5
 49
0.25
 74
     0
 49
-0.25
 74
     0
  0
LTYPE
  5
24
100
AcDbSymbolTableRecord
100
AcDbLinetypeTableRecord
  2
PHANTOM
 70
    64
  3
____ _ _ ____ _ _ _____ _ _ ____
 72
    65
 73
     6
 40
2.5
 49
1.25
 74
     0
 49
-0.25
 74
     0
 49
0.25
 74
     0
 49
-0.25
 74
     0
 49
0.25
 74
     0
 49
-0.25
 74
     0
  0
LTYPE
  5
25
100
AcDbSymbolTableRecord
100
AcDbLinetypeTableRecord
  2
CENTER
 70
    64
  3
____ _ ____ _ ____ _ ____
 72
    65
 73
     4
 40
2.0
 49
1.25
 74
     0
 49
-0.25
 74
     0
 49
0.25
 74
     0
 49
-0.25
 74
     0
  0
LTYPE
  5
26
100
AcDbSymbolTableRecord
100
AcDbLinetypeTableRecord
  2
DOT
 70
    64
  3
.........................
 72
    65
 73
     2
 40
0.25
 49
0.0
 74
     0
 49
-0.25
 74
     0
  0
LTYPE
  5
27
100
AcDbSymbolTableRecord
100
AcDbLinetypeTableRecord
  2
DASHDOT
 70
    64
  3
_._._._._._._._._._._._._._._._.
 72
    65
 73
     4
 40
1.0
 49
0.5
 74
     0
 49
-0.25
 74
     0
 49
0.0
 74
     0
 49
-0.25
 74
     0
  0
ENDTAB
  0
TABLE
  2
LAYER
  5
2
100
AcDbSymbolTable
 70
     2
  0
LAYER
  5
14
100
AcDbSymbolTableRecord
100
AcDbLayerTableRecord
  2
0
 70
     0
 62
     7
  6
Continuous
290
     1
370
    -3
390
1D
  0
LAYER
  5
32
100
AcDbSymbolTableRecord
100
AcDbLayerTableRecord
  2
1
 70
     0
 62
     7
  6
Continuous
290
     1
370
    -3
390
1F
  0
ENDTAB
  0
TABLE
  2
STYLE
  5
3
100
AcDbSymbolTable
 70
     2
  0
STYLE
  5
17
100
AcDbSymbolTableRecord
100
AcDbTextStyleTableRecord
  2
Standard
 70
     0
 40
0.0
 41
1.0
 50
0.0
 71
     0
 42
0.0
  3
txt
  4

  0
STYLE
  5
2A7
100
AcDbSymbolTableRecord
100
AcDbTextStyleTableRecord
  2
blockfont
 70
     0
 40
0.0
 41
1.0
 50
0.0
 71
     0
 42
0.0
  3
simplex.shx
  4
bigfont
  0
ENDTAB
  0
TABLE
  2
VIEW
  5
5
100
AcDbSymbolTable
 70
     8
  0
VIEW
  5
28
100
AcDbSymbolTableRecord
100
AcDbViewTableRecord
  2
TOP
 70
     0
 40
7.621801
 10
0.0
 20
0.0
 41
10.221149
 11
0.0
 21
0.0
 31
1.0
 12
0.0
 22
0.0
 32
0.0
 42
50.0
 43
22.281721
 44
-22.281721
 50
0.0
 71
    16
281
     0
 72
     0
110
0.0
120
0.0
130
0.0
111
1.0
121
0.0
131
0.0
112
0.0
122
1.0
132
0.0
  0
VIEW
  5
29
100
AcDbSymbolTableRecord
100
AcDbViewTableRecord
  2
FRONT
 70
     0
 40
44.563442
 10
0.0
 20
0.0
 41
10.221149
 11
0.0
 21
-1.0
 31
0.0
 12
0.0
 22
0.0
 32
0.0
 42
50.0
 43
22.860294
 44
-22.860294
 50
0.0
 71
    16
281
     0
 72
     0
110
0.0
120
0.0
130
0.0
111
1.0
121
0.0
131
0.0
112
0.0
122
1.0
132
0.0
  0
VIEW
  5
2A
100
AcDbSymbolTableRecord
100
AcDbViewTableRecord
  2
RIGHT
 70
     0
 40
44.563442
 10
0.0
 20
0.0
 41
7.621801
 11
1.0
 21
0.0
 31
0.0
 12
0.0
 22
0.0
 32
0.0
 42
50.0
 43
22.605266
 44
-22.605266
 50
0.0
 71
    16
281
     0
 72
     0
110
0.0
120
0.0
130
0.0
111
1.0
121
0.0
131
0.0
112
0.0
122
1.0
132
0.0
  0
VIEW
  5
2B
100
AcDbSymbolTableRecord
100
AcDbViewTableRecord
  2
BACK
 70
     0
 40
44.563442
 10
0.0
 20
0.0
 41
10.221149
 11
0.0
 21
1.0
 31
0.0
 12
0.0
 22
0.0
 32
0.0
 42
50.0
 43
22.860294
 44
-22.860294
 50
0.0
 71
    16
281
     0
 72
     0
110
0.0
120
0.0
130
0.0
111
1.0
121
0.0
131
0.0
112
0.0
122
1.0
132
0.0
  0
VIEW
  5
2C
100
AcDbSymbolTableRecord
100
AcDbViewTableRecord
  2
BOTTOM
 70
     0
 40
7.621801
 10
0.0
 20
0.0
 41
10.221149
 11
0.0
 21
0.0
 31
-1.0
 12
0.0
 22
0.0
 32
0.0
 42
50.0
 43
22.281721
 44
-22.281721
 50
180.0
 71
    16
281
     0
 72
     0
110
0.0
120
0.0
130
0.0
111
1.0
121
0.0
131
0.0
112
0.0
122
1.0
132
0.0
  0
VIEW
  5
2D
100
AcDbSymbolTableRecord
100
AcDbViewTableRecord
  2
LEFT
 70
     0
 40
44.563442
 10
0.0
 20
0.0
 41
7.621801
 11
-1.0
 21
0.0
 31
0.0
 12
0.0
 22
0.0
 32
0.0
 42
50.0
 43
22.605266
 44
-22.605266
 50
0.0
 71
    16
281
     0
 72
     0
110
0.0
120
0.0
130
0.0
111
1.0
121
0.0
131
0.0
112
0.0
122
1.0
132
0.0
  0
VIEW
  5
2E
100
AcDbSymbolTableRecord
100
AcDbViewTableRecord
  2
TFR-ISO
 70
     0
 40
43.670252
 10
0.0
 20
0.0
 41
12.616871
 11
0.57735
 21
-0.57735
 31
0.57735
 12
0.0
 22
0.0
 32
0.0
 42
50.0
 43
22.728156
 44
-22.728156
 50
0.0
 71
    16
281
     0
 72
     0
110
0.0
120
0.0
130
0.0
111
1.0
121
0.0
131
0.0
112
0.0
122
1.0
132
0.0
  0
VIEW
  5
2F
100
AcDbSymbolTableRecord
100
AcDbViewTableRecord
  2
TFR-TRI
 70
     0
 40
46.086168
 10
0.0
 20
0.0
 41
12.363288
 11
0.718873
 21
-0.585049
 31
0.375419
 12
0.0
 22
0.0
 32
0.0
 42
50.0
 43
23.857838
 44
-23.857838
 50
0.0
 71
    16
281
     0
 72
     0
110
0.0
120
0.0
130
0.0
111
1.0
121
0.0
131
0.0
112
0.0
122
1.0
132
0.0
  0
ENDTAB
  0
TABLE
  2
UCS
  5
6
100
AcDbSymbolTable
 70
     0
  0
ENDTAB
  0
TABLE
  2
APPID
  5
8
100
AcDbSymbolTable
 70
     1
  0
APPID
  5
16
100
AcDbSymbolTableRecord
100
AcDbRegAppTableRecord
  2
ACAD
 70
     0
  0
ENDTAB
  0
TABLE
  2
DIMSTYLE
  5
9
100
AcDbSymbolTable
 70
     1
100
AcDbDimStyleTable
 71
     0
  0
DIMSTYLE
105
18
100
AcDbSymbolTableRecord
100
AcDbDimStyleTableRecord
  2
Standard
 70
     0
  3

  4

 40
1.0
 41
0.18
 42
0.0625
 43
0.38
 44
0.18
 45
0.0
 46
0.0
 47
0.0
 48
0.0
 71
     0
 72
     0
 73
     1
 74
     1
 75
     0
 76
     0
 77
     0
 78
     0
 79
     0
140
0.18
141
0.09
142
0.0
143
25.4
144
1.0
145
0.0
146
1.0
147
0.09
148
0.0
170
     0
171
     2
172
     0
173
     0
174
     0
175
     0
176
     0
177
     0
178
     0
179
     0
271
     4
272
     4
273
     2
274
     2
275
     0
276
     0
277
     2
278
    46
279
     0
280
     0
281
     0
282
     0
283
     1
284
     0
285
     0
286
     0
288
     0
340
17
341
0
342
0
343
0
344
0
371
    -2
372
    -2
  0
ENDTAB
  0
TABLE
  2
BLOCK_RECORD
  5
1
100
AcDbSymbolTable
 70
     0
  0
BLOCK_RECORD
  5
A
100
AcDbSymbolTableRecord
100
AcDbBlockTableRecord
  2
*MODEL_SPACE
340
20
  0
BLOCK_RECORD
  5
B
100
AcDbSymbolTableRecord
100
AcDbBlockTableRecord
  2
*PAPER_SPACE
340
0
  0
ENDTAB
  0
ENDSEC
  0
SECTION
  2
BLOCKS
  0
BLOCK
  5
D
100
AcDbEntity
  8
0
100
AcDbBlockBegin
  2
*MODEL_SPACE
 70
     0
 10
0.0
 20
0.0
 30
0.0
  3
*MODEL_SPACE
  1

  0
ENDBLK
  5
E
100
AcDbEntity
  8
0
100
AcDbBlockEnd
  0
BLOCK
  5
F
100
AcDbEntity
 67
     1
  8
0
100
AcDbBlockBegin
  2
*PAPER_SPACE
 70
     0
 10
0.0
 20
0.0
 30
0.0
  3
*PAPER_SPACE
  1

  0
ENDBLK
  5
10
100
AcDbEntity
 67
     1
  8
0
100
AcDbBlockEnd
  0
ENDSEC
  0
SECTION
  2
ENTITIES
  0
VIEWPORT
  5
30
100
AcDbEntity
 67
     1
  8
0
100
AcDbViewport
 10
5.609993
 20
4.334999
 30
0.0
 40
11.219986
 41
8.669998
 68
     1
 69
     1
 12
5.609993
 22
4.334999
 13
0.0
 23
0.0
 14
0.0
 24
0.0
 15
0.0
 25
0.0
 16
0.0
 26
0.0
 36
1.0
 17
0.0
 27
0.0
 37
0.0
 42
42.882959
 43
0.0
 44
0.0
 45
8.669998
 50
0.0
 51
0.0
 72
   100
 90
    32800
340
0
  1

281
     0
 71
     0
 74
     1
110
0.0
120
0.0
130
0.0
111
1.0
121
0.0
131
0.0
112
0.0
122
1.0
132
0.0
345
0
346
0
 79
     0
146
0.0
  0
LINE
  5
31
100
AcDbEntity
 67
     1
  8
1
  6
Continuous
 62
     7
100
AcDbLine
 10
6.970021
 20
4.432153
 30
0.0
 11
6.970451
 21
4.432153
 31
0.0
  0
LINE
  5
33
100
AcDbEntity
 67
     1
  8
1
  6
Continuous
 62
     7
100
AcDbLine
 10
1.877563
 20
4.986936
 30
0.0
 11
1.877562
 21
4.984007
 31
0.0
  0
LINE
  5
34
100
AcDbEntity
 67
     1
  8
1
  6
Continuous
 62
     7
100
AcDbLine
 10
1.944972
 20
5.441048
 30
0.0
 11
1.940637
 21
5.436498
 31
0.0
  0
LINE
  5
35
100
AcDbEntity
 67
     1
  8
1
  6
Continuous
 62
     7
100
AcDbLine
 10
4.618243
 20
5.764625
 30
0.0
 11
4.618243
 21
5.77252
 31
0.0
  0
LINE
  5
36
100
AcDbEntity
 67
     1
  8
1
  6
Continuous
 62
     7
100
AcDbLine
 10
1.976374
 20
6.572547
 30
0.0
 11
1.961015
 21
6.572547
 31
0.0
  0
LINE
  5
37
100
AcDbEntity
 67
     1
  8
1
  6
Continuous
 62
     7
100
AcDbLine
 10
4.634243
 20
5.764625
 30
0.0
 11
4.634243
 21
5.832232
 31
0.0
  0
LINE
  5
38
100
AcDbEntity
 67
     1
  8
1
  6
Continuous
 62
     7
100
AcDbLine
 10
6.596283
 20
1.861926
 30
0.0
 11
0.3125
 21
1.861926
 31
0.0
  0
LINE
  5
39
100
AcDbEntity
 67
     1
  8
1
  6
Continuous
 62
     7
100
AcDbLine
 10
6.47859
 20
5.462567
 30
0.0
 11
6.481449
 21
5.463817
 31
0.0
  0
LINE
  5
3A
100
AcDbEntity
 67
     1
  8
1
  6
Continuous
 62
     7
100
AcDbLine
 10
6.96202
 20
5.435728
 30
0.0
 11
6.962496
 21
5.441048
 31
0.0
  0
LINE
  5
3B
100
AcDbEntity
 67
     1
  8
1
  6
Continuous
 62
     7
100
AcDbLine
 10
4.088442
 20
4.983994
 30
0.0
 11
4.088441
 21
4.986923
 31
0.0
  0
LINE
  5
3C
100
AcDbEntity
 67
     1
  8
1
  6
Continuous
 62
     7
100
AcDbLine
 10
3.985202
 20
5.605187
 30
0.0
 11
3.985195
 21
5.605358
 31
0.0
  0
LINE
  5
3D
100
AcDbEntity
 67
     1
  8
1
  6
Continuous
 62
     7
100
AcDbLine
 10
4.046374
 20
6.532547
 30
0.0
 11
4.061733
 21
6.532547
 31
0.0
  0
LINE
  5
3E
100
AcDbEntity
 67
     1
  8
1
  6
Continuous
 62
     7
100
AcDbLine
 10
7.557752
 20
5.364442
 30
0.0
 11
7.586882
 21
5.320746
 31
0.0
  0
LINE
  5
3F
100
AcDbEntity
 67
     1
  8
1
  6
Continuous
 62
     7
100
AcDbLine
 10
4.652243
 20
4.834625
 30
0.0
 11
4.652243
 21
4.789409
 31
0.0
  0
LINE
  5
40
100
AcDbEntity
 67
     1
  8
1
  6
Continuous
 62
     7
100
AcDbLine
 10
1.886374
 20
6.552547
 30
0.0
 11
2.500936
 21
6.552547
 31
0.0
  0
LINE
  5
41
100
AcDbEntity
 67
     1
  8
1
  6
Continuous
 62
     7
100
AcDbLine
 10
6.96282
 20
5.442621
 30
0.0
 11
6.96202
 21
5.435742
 31
0.0
  0
LINE
  5
42
100
AcDbEntity
 67
     1
  8
1
  6
Continuous
 62
     7
100
AcDbLine
 10
7.49719
 20
5.471983
 30
0.0
 11
7.494648
 21
5.470329
 31
0.0
  0
LINE
  5
43
100
AcDbEntity
 67
     1
  8
1
  6
Continuous
 62
     7
100
AcDbLine
 10
6.122851
 20
5.471983
 30
0.0
 11
6.49719
 21
5.471983
 31
0.0
  0
LINE
  5
44
100
AcDbEntity
 67
     1
  8
1
  6
Continuous
 62
     7
100
AcDbLine
 10
7.06002
 20
4.408153
 30
0.0
 11
6.970021
 21
4.432269
 31
0.0
  0
LINE
  5
45
100
AcDbEntity
 67
     1
  8
1
  6
Continuous
 62
     7
100
AcDbLine
 10
2.119438
 20
5.595181
 30
0.0
 11
2.11568
 21
5.587564
 31
0.0
  0
LINE
  5
46
100
AcDbEntity
 67
     1
  8
1
  6
Continuous
 62
     7
100
AcDbLine
 10
4.664359
 20
5.764625
 30
0.0
 11
4.640244
 21
5.854625
 31
0.0
  0
LINE
  5
47
100
AcDbEntity
 67
     1
  8
1
  6
Continuous
 62
     7
100
AcDbLine
 10
4.067679
 20
5.62348
 30
0.0
 11
4.003547
 21
5.615037
 31
0.0
  0
LINE
  5
48
100
AcDbEntity
 67
     1
  8
1
  6
Continuous
 62
     7
100
AcDbLine
 10
1.976374
 20
6.576548
 30
0.0
 11
1.975943
 21
6.576548
 31
0.0
  0
LINE
  5
49
100
AcDbEntity
 67
     1
  8
1
  6
Continuous
 62
     7
100
AcDbLine
 10
4.055233
 20
4.358294
 30
0.0
 11
4.08552
 21
4.358294
 31
0.0
  0
LINE
  5
4A
100
AcDbEntity
 67
     1
  8
1
  6
Continuous
 62
     7
100
AcDbLine
 10
4.628243
 20
5.764625
 30
0.0
 11
4.628243
 21
5.80984
 31
0.0
  0
LINE
  5
4B
100
AcDbEntity
 67
     1
  8
1
  6
Continuous
 62
     7
100
AcDbLine
 10
4.522731
 20
0.3125
 30
0.0
 11
4.522731
 21
2.635795
 31
0.0
  0
LINE
  5
4C
100
AcDbEntity
 67
     1
  8
1
  6
Continuous
 62
     7
100
AcDbLine
 10
6.465175
 20
5.449133
 30
0.0
 11
6.466498
 21
5.45151
 31
0.0
  0
LINE
  5
4D
100
AcDbEntity
 67
     1
  8
1
  6
Continuous
 62
     7
100
AcDbLine
 10
6.982802
 20
5.464342
 30
0.0
 11
6.981449
 21
5.463817
 31
0.0
  0
LINE
  5
4E
100
AcDbEntity
 67
     1
  8
1
  6
Continuous
 62
     7
100
AcDbLine
 10
6.970021
 20
4.404153
 30
0.0
 11
7.045093
 21
4.404153
 31
0.0
  0
LINE
  5
4F
100
AcDbEntity
 67
     1
  8
1
  6
Continuous
 62
     7
100
AcDbLine
 10
3.99047
 20
5.594445
 30
0.0
 11
3.989677
 21
5.595169
 31
0.0
  0
LINE
  5
50
100
AcDbEntity
 67
     1
  8
1
  6
Continuous
 62
     7
100
AcDbLine
 10
4.051018
 20
5.463797
 30
0.0
 11
4.141238
 21
5.463817
 31
0.0
  0
LINE
  5
51
100
AcDbEntity
 67
     1
  8
1
  6
Continuous
 62
     7
100
AcDbLine
 10
4.640244
 20
4.744625
 30
0.0
 11
4.640244
 21
5.06275
 31
0.0
  0
LINE
  5
52
100
AcDbEntity
 67
     1
  8
1
  6
Continuous
 62
     7
100
AcDbLine
 10
4.658243
 20
4.834625
 30
0.0
 11
4.658243
 21
4.811801
 31
0.0
  0
LINE
  5
53
100
AcDbEntity
 67
     1
  8
1
  6
Continuous
 62
     7
100
AcDbLine
 10
3.897214
 20
5.716794
 30
0.0
 11
3.891243
 21
5.70395
 31
0.0
  0
LINE
  5
54
100
AcDbEntity
 67
     1
  8
1
  6
Continuous
 62
     7
100
AcDbLine
 10
6.96495
 20
4.986936
 30
0.0
 11
6.972021
 21
4.984007
 31
0.0
  0
LINE
  5
55
100
AcDbEntity
 67
     1
  8
1
  6
Continuous
 62
     7
100
AcDbLine
 10
7.466498
 20
5.45151
 30
0.0
 11
7.471318
 21
5.457454
 31
0.0
  0
LINE
  5
56
100
AcDbEntity
 67
     1
  8
1
  6
Continuous
 62
     7
100
AcDbLine
 10
6.46202
 20
5.435728
 30
0.0
 11
6.462496
 21
5.441048
 31
0.0
  0
LINE
  5
57
100
AcDbEntity
 67
     1
  8
1
  6
Continuous
 62
     7
100
AcDbLine
 10
4.145185
 20
4.984007
 30
0.0
 11
4.145233
 21
4.774632
 31
0.0
  0
LINE
  5
58
100
AcDbEntity
 67
     1
  8
1
  6
Continuous
 62
     7
100
AcDbLine
 10
2.131873
 20
5.694531
 30
0.0
 11
2.121237
 21
5.605339
 31
0.0
  0
LINE
  5
59
100
AcDbEntity
 67
     1
  8
1
  6
Continuous
 62
     7
100
AcDbLine
 10
1.976374
 20
6.548548
 30
0.0
 11
1.901302
 21
6.548548
 31
0.0
  0
LINE
  5
5A
100
AcDbEntity
 67
     1
  8
1
  6
Continuous
 62
     7
100
AcDbLine
 10
7.120856
 20
5.473366
 30
0.0
 11
7.138592
 21
5.463797
 31
0.0
  0
LINE
  5
5B
100
AcDbEntity
 67
     1
  8
1
  6
Continuous
 62
     7
100
AcDbLine
 10
4.059359
 20
5.675117
 30
0.0
 11
4.055916
 21
5.703987
 31
0.0
  0
LINE
  5
5C
100
AcDbEntity
 67
     1
  8
1
  6
Continuous
 62
     7
100
AcDbLine
 10
1.137175
 20
0.3125
 30
0.0
 11
1.137175
 21
2.635795
 31
0.0
  0
LINE
  5
5D
100
AcDbEntity
 67
     1
  8
1
  6
Continuous
 62
     7
100
AcDbLine
 10
6.97859
 20
5.462567
 30
0.0
 11
6.981449
 21
5.463817
 31
0.0
  0
LINE
  5
5E
100
AcDbEntity
 67
     1
  8
1
  6
Continuous
 62
     7
100
AcDbLine
 10
6.970021
 20
4.398153
 30
0.0
 11
7.0227
 21
4.398153
 31
0.0
  0
LINE
  5
5F
100
AcDbEntity
 67
     1
  8
1
  6
Continuous
 62
     7
100
AcDbLine
 10
1.934306
 20
4.986923
 30
0.0
 11
1.934308
 21
4.993995
 31
0.0
  0
LINE
  5
60
100
AcDbEntity
 67
     1
  8
1
  6
Continuous
 62
     7
100
AcDbLine
 10
4.188874
 20
5.854625
 30
0.0
 11
4.765244
 21
5.854625
 31
0.0
  0
LINE
  5
61
100
AcDbEntity
 67
     1
  8
1
  6
Continuous
 62
     7
100
AcDbLine
 10
4.664243
 20
4.834625
 30
0.0
 11
4.664243
 21
4.834194
 31
0.0
  0
LINE
  5
62
100
AcDbEntity
 67
     1
  8
1
  6
Continuous
 62
     7
100
AcDbLine
 10
7.155092
 20
4.986936
 30
0.0
 11
7.15802
 21
4.994007
 31
0.0
  0
LINE
  5
63
100
AcDbEntity
 67
     1
  8
1
  6
Continuous
 62
     7
100
AcDbLine
 10
7.154608
 20
5.449638
 30
0.0
 11
7.154866
 21
5.449133
 31
0.0
  0
LINE
  5
64
100
AcDbEntity
 67
     1
  8
1
  6
Continuous
 62
     7
100
AcDbLine
 10
6.06002
 20
5.851696
 30
0.0
 11
6.06002
 21
5.854625
 31
0.0
  0
LINE
  5
65
100
AcDbEntity
 67
     1
  8
1
  6
Continuous
 62
     7
100
AcDbLine
 10
6.650021
 20
4.418153
 30
0.0
 11
6.597341
 21
4.418153
 31
0.0
  0
LINE
  5
66
100
AcDbEntity
 67
     1
  8
1
  6
Continuous
 62
     7
100
AcDbLine
 10
2.608436
 20
6.417548
 30
0.0
 11
2.563436
 21
6.417548
 31
0.0
  0
LINE
  5
67
100
AcDbEntity
 67
     1
  8
1
  6
Continuous
 62
     7
100
AcDbLine
 10
4.145183
 20
4.994007
 30
0.0
 11
4.145083
 21
5.435742
 31
0.0
  0
LINE
  5
68
100
AcDbEntity
 67
     1
  8
1
  6
Continuous
 62
     7
100
AcDbLine
 10
1.946374
 20
5.784625
 30
0.0
 11
1.946374
 21
5.633394
 31
0.0
  0
LINE
  5
69
100
AcDbEntity
 67
     1
  8
1
  6
Continuous
 62
     7
100
AcDbLine
 10
1.976374
 20
6.542548
 30
0.0
 11
1.923694
 21
6.542548
 31
0.0
  0
LINE
  5
6A
100
AcDbEntity
 67
     1
  8
1
  6
Continuous
 62
     7
100
AcDbLine
 10
7.468969
 20
5.454923
 30
0.0
 11
7.481449
 21
5.463797
 31
0.0
  0
LINE
  5
6B
100
AcDbEntity
 67
     1
  8
1
  6
Continuous
 62
     7
100
AcDbLine
 10
7.06002
 20
4.921507
 30
0.0
 11
7.06002
 21
4.283153
 31
0.0
  0
LINE
  5
6C
100
AcDbEntity
 67
     1
  8
1
  6
Continuous
 62
     7
100
AcDbLine
 10
2.131504
 20
5.70395
 30
0.0
 11
1.966831
 21
5.703987
 31
0.0
  0
LINE
  5
6D
100
AcDbEntity
 67
     1
  8
1
  6
Continuous
 62
     7
100
AcDbLine
 10
6.137239
 20
5.464342
 30
0.0
 11
6.138592
 21
5.463817
 31
0.0
  0
LINE
  5
6E
100
AcDbEntity
 67
     1
  8
1
  6
Continuous
 62
     7
100
AcDbLine
 10
6.965175
 20
5.449133
 30
0.0
 11
6.966498
 21
5.45151
 31
0.0
  0
LINE
  5
6F
100
AcDbEntity
 67
     1
  8
1
  6
Continuous
 62
     7
100
AcDbLine
 10
6.970021
 20
4.392153
 30
0.0
 11
7.000308
 21
4.392153
 31
0.0
  0
LINE
  5
70
100
AcDbEntity
 67
     1
  8
1
  6
Continuous
 62
     7
100
AcDbLine
 10
1.934306
 20
4.983994
 30
0.0
 11
1.934269
 21
4.820782
 31
0.0
  0
LINE
  5
71
100
AcDbEntity
 67
     1
  8
1
  6
Continuous
 62
     7
100
AcDbLine
 10
3.902321
 20
5.59906
 30
0.0
 11
3.902033
 21
5.60096
 31
0.0
  0
LINE
  5
72
100
AcDbEntity
 67
     1
  8
1
  6
Continuous
 62
     7
100
AcDbLine
 10
4.046374
 20
6.562548
 30
0.0
 11
4.099053
 21
6.562548
 31
0.0
  0
LINE
  5
73
100
AcDbEntity
 67
     1
  8
1
  6
Continuous
 62
     7
100
AcDbLine
 10
4.914649
 20
5.12525
 30
0.0
 11
4.95965
 21
5.12525
 31
0.0
  0
LINE
  5
74
100
AcDbEntity
 67
     1
  8
1
  6
Continuous
 62
     7
100
AcDbLine
 10
4.664359
 20
4.834625
 30
0.0
 11
4.616128
 21
4.834625
 31
0.0
  0
LINE
  5
75
100
AcDbEntity
 67
     1
  8
1
  6
Continuous
 62
     7
100
AcDbLine
 10
7.157221
 20
5.442621
 30
0.0
 11
7.154866
 21
5.449133
 31
0.0
  0
LINE
  5
76
100
AcDbEntity
 67
     1
  8
1
  6
Continuous
 62
     7
100
AcDbLine
 10
7.138592
 20
5.463817
 30
0.0
 11
7.141959
 21
5.462307
 31
0.0
  0
LINE
  5
77
100
AcDbEntity
 67
     1
  8
1
  6
Continuous
 62
     7
100
AcDbLine
 10
1.967515
 20
4.394294
 30
0.0
 11
1.952156
 21
4.394294
 31
0.0
  0
LINE
  5
78
100
AcDbEntity
 67
     1
  8
1
  6
Continuous
 62
     7
100
AcDbLine
 10
6.650021
 20
4.424153
 30
0.0
 11
6.619733
 21
4.424153
 31
0.0
  0
LINE
  5
79
100
AcDbEntity
 67
     1
  8
1
  6
Continuous
 62
     7
100
AcDbLine
 10
4.145076
 20
5.449638
 30
0.0
 11
4.145081
 21
5.449133
 31
0.0
  0
LINE
  5
7A
100
AcDbEntity
 67
     1
  8
1
  6
Continuous
 62
     7
100
AcDbLine
 10
2.037553
 20
5.605358
 30
0.0
 11
2.036056
 21
5.599323
 31
0.0
  0
LINE
  5
7B
100
AcDbEntity
 67
     1
  8
1
  6
Continuous
 62
     7
100
AcDbLine
 10
1.976374
 20
6.536548
 30
0.0
 11
1.946087
 21
6.536548
 31
0.0
  0
LINE
  5
7C
100
AcDbEntity
 67
     1
  8
1
  6
Continuous
 62
     7
100
AcDbLine
 10
1.967515
 20
4.396294
 30
0.0
 11
1.95962
 21
4.396294
 31
0.0
  0
LINE
  5
7D
100
AcDbEntity
 67
     1
  8
1
  6
Continuous
 62
     7
100
AcDbLine
 10
4.055233
 20
4.398294
 30
0.0
 11
4.055664
 21
4.398294
 31
0.0
  0
LINE
  5
7E
100
AcDbEntity
 67
     1
  8
1
  6
Continuous
 62
     7
100
AcDbLine
 10
4.055233
 20
4.380294
 30
0.0
 11
4.12284
 21
4.380294
 31
0.0
  0
LINE
  5
7F
100
AcDbEntity
 67
     1
  8
1
  6
Continuous
 62
     7
100
AcDbLine
 10
8.022583
 20
4.104403
 30
0.0
 11
8.022583
 21
4.273153
 31
0.0
  0
LINE
  5
80
100
AcDbEntity
 67
     1
  8
1
  6
Continuous
 62
     7
100
AcDbLine
 10
4.638243
 20
4.834625
 30
0.0
 11
4.638243
 21
4.752089
 31
0.0
  0
LINE
  5
81
100
AcDbEntity
 67
     1
  8
1
  6
Continuous
 62
     7
100
AcDbLine
 10
10.760845
 20
1.60597
 30
0.0
 11
6.596283
 21
1.60597
 31
0.0
  0
LINE
  5
82
100
AcDbEntity
 67
     1
  8
1
  6
Continuous
 62
     7
100
AcDbLine
 10
4.055233
 20
4.398294
 30
0.0
 11
4.055664
 21
4.398294
 31
0.0
  0
LINE
  5
83
100
AcDbEntity
 67
     1
  8
1
  6
Continuous
 62
     7
100
AcDbLine
 10
6.638592
 20
5.463797
 30
0.0
 11
6.638592
 21
5.463817
 31
0.0
  0
LINE
  5
84
100
AcDbEntity
 67
     1
  8
1
  6
Continuous
 62
     7
100
AcDbLine
 10
6.151072
 20
5.454923
 30
0.0
 11
6.157545
 21
5.441048
 31
0.0
  0
LINE
  5
85
100
AcDbEntity
 67
     1
  8
1
  6
Continuous
 62
     7
100
AcDbLine
 10
6.649606
 20
5.456576
 30
0.0
 11
6.654608
 21
5.449638
 31
0.0
  0
LINE
  5
86
100
AcDbEntity
 67
     1
  8
1
  6
Continuous
 62
     7
100
AcDbLine
 10
6.970021
 20
4.386153
 30
0.0
 11
6.977915
 21
4.386153
 31
0.0
  0
LINE
  5
87
100
AcDbEntity
 67
     1
  8
1
  6
Continuous
 62
     7
100
AcDbLine
 10
2.090058
 20
5.564397
 30
0.0
 11
2.110358
 21
5.581656
 31
0.0
  0
LINE
  5
88
100
AcDbEntity
 67
     1
  8
1
  6
Continuous
 62
     7
100
AcDbLine
 10
7.141959
 20
5.462307
 30
0.0
 11
7.149606
 21
5.456576
 31
0.0
  0
LINE
  5
89
100
AcDbEntity
 67
     1
  8
1
  6
Continuous
 62
     7
100
AcDbLine
 10
3.91239
 20
5.581656
 30
0.0
 11
3.909796
 21
5.584144
 31
0.0
  0
LINE
  5
8A
100
AcDbEntity
 67
     1
  8
1
  6
Continuous
 62
     7
100
AcDbLine
 10
3.123499
 20
4.239295
 30
0.0
 11
3.078499
 21
4.239295
 31
0.0
  0
LINE
  5
8B
100
AcDbEntity
 67
     1
  8
1
  6
Continuous
 62
     7
100
AcDbLine
 10
4.046374
 20
6.568548
 30
0.0
 11
4.076661
 21
6.568548
 31
0.0
  0
LINE
  5
8C
100
AcDbEntity
 67
     1
  8
1
  6
Continuous
 62
     7
100
AcDbLine
 10
1.967515
 20
4.362294
 30
0.0
 11
1.9223
 21
4.362294
 31
0.0
  0
LINE
  5
8D
100
AcDbEntity
 67
     1
  8
1
  6
Continuous
 62
     7
100
AcDbLine
 10
4.642243
 20
5.764625
 30
0.0
 11
4.642243
 21
5.84716
 31
0.0
  0
LINE
  5
8E
100
AcDbEntity
 67
     1
  8
1
  6
Continuous
 62
     7
100
AcDbLine
 10
7.465175
 20
5.449133
 30
0.0
 11
7.46282
 21
5.442621
 31
0.0
  0
LINE
  5
8F
100
AcDbEntity
 67
     1
  8
1
  6
Continuous
 62
     7
100
AcDbLine
 10
7.122851
 20
5.471983
 30
0.0
 11
7.125392
 21
5.470329
 31
0.0
  0
LINE
  5
90
100
AcDbEntity
 67
     1
  8
1
  6
Continuous
 62
     7
100
AcDbLine
 10
6.06002
 20
5.519625
 30
0.0
 11
6.06002
 21
5.508644
 31
0.0
  0
LINE
  5
91
100
AcDbEntity
 67
     1
  8
1
  6
Continuous
 62
     7
100
AcDbLine
 10
6.650021
 20
4.430153
 30
0.0
 11
6.642126
 21
4.430153
 31
0.0
  0
LINE
  5
92
100
AcDbEntity
 67
     1
  8
1
  6
Continuous
 62
     7
100
AcDbLine
 10
1.966442
 20
5.538473
 30
0.0
 11
1.991617
 21
5.559876
 31
0.0
  0
LINE
  5
93
100
AcDbEntity
 67
     1
  8
1
  6
Continuous
 62
     7
100
AcDbLine
 10
4.055233
 20
4.390294
 30
0.0
 11
4.08552
 21
4.390294
 31
0.0
  0
LINE
  5
94
100
AcDbEntity
 67
     1
  8
1
  6
Continuous
 62
     7
100
AcDbLine
 10
1.886374
 20
5.844625
 30
0.0
 11
1.886374
 21
5.534625
 31
0.0
  0
LINE
  5
95
100
AcDbEntity
 67
     1
  8
1
  6
Continuous
 62
     7
100
AcDbLine
 10
1.976374
 20
6.530548
 30
0.0
 11
1.968479
 21
6.530548
 31
0.0
  0
LINE
  5
96
100
AcDbEntity
 67
     1
  8
1
  6
Continuous
 62
     7
100
AcDbLine
 10
7.462521
 20
4.273153
 30
0.0
 11
7.462521
 21
4.104403
 31
0.0
  0
LINE
  5
97
100
AcDbEntity
 67
     1
  8
1
  6
Continuous
 62
     7
100
AcDbLine
 10
4.632243
 20
4.834625
 30
0.0
 11
4.632243
 21
4.774481
 31
0.0
  0
LINE
  5
98
100
AcDbEntity
 67
     1
  8
1
  6
Continuous
 62
     7
100
AcDbLine
 10
9.16729
 20
0.847101
 30
0.0
 11
10.760845
 21
0.847101
 31
0.0
  0
LINE
  5
99
100
AcDbEntity
 67
     1
  8
1
  6
Continuous
 62
     7
100
AcDbLine
 10
7.481449
 20
5.463797
 30
0.0
 11
7.481449
 21
5.463817
 31
0.0
  0
LINE
  5
9A
100
AcDbEntity
 67
     1
  8
1
  6
Continuous
 62
     7
100
AcDbLine
 10
6.462496
 20
5.441048
 30
0.0
 11
6.468969
 21
5.454923
 31
0.0
  0
LINE
  5
9B
100
AcDbEntity
 67
     1
  8
1
  6
Continuous
 62
     7
100
AcDbLine
 10
4.055233
 20
4.386294
 30
0.0
 11
4.100448
 21
4.386294
 31
0.0
  0
LINE
  5
9C
100
AcDbEntity
 67
     1
  8
1
  6
Continuous
 62
     7
100
AcDbLine
 10
6.637239
 20
5.464342
 30
0.0
 11
6.638592
 21
5.463817
 31
0.0
  0
LINE
  5
9D
100
AcDbEntity
 67
     1
  8
1
  6
Continuous
 62
     7
100
AcDbLine
 10
6.970021
 20
4.408153
 30
0.0
 11
7.06002
 21
4.408153
 31
0.0
  0
LINE
  5
9E
100
AcDbEntity
 67
     1
  8
1
  6
Continuous
 62
     7
100
AcDbLine
 10
2.020215
 20
5.505018
 30
0.0
 11
2.043273
 21
5.524621
 31
0.0
  0
LINE
  5
9F
100
AcDbEntity
 67
     1
  8
1
  6
Continuous
 62
     7
100
AcDbLine
 10
4.077776
 20
5.441048
 30
0.0
 11
4.082111
 21
5.436498
 31
0.0
  0
LINE
  5
A0
100
AcDbEntity
 67
     1
  8
1
  6
Continuous
 62
     7
100
AcDbLine
 10
2.563436
 20
4.070544
 30
0.0
 11
2.608436
 21
4.070544
 31
0.0
  0
LINE
  5
A1
100
AcDbEntity
 67
     1
  8
1
  6
Continuous
 62
     7
100
AcDbLine
 10
4.046374
 20
6.574548
 30
0.0
 11
4.054269
 21
6.574548
 31
0.0
  0
LINE
  5
A2
100
AcDbEntity
 67
     1
  8
1
  6
Continuous
 62
     7
100
AcDbLine
 10
6.970021
 20
4.384037
 30
0.0
 11
7.06002
 21
4.408153
 31
0.0
  0
LINE
  5
A3
100
AcDbEntity
 67
     1
  8
1
  6
Continuous
 62
     7
100
AcDbLine
 10
1.967515
 20
4.356294
 30
0.0
 11
1.944692
 21
4.356294
 31
0.0
  0
LINE
  5
A4
100
AcDbEntity
 67
     1
  8
1
  6
Continuous
 62
     7
100
AcDbLine
 10
4.648243
 20
5.764625
 30
0.0
 11
4.648243
 21
5.824768
 31
0.0
  0
LINE
  5
A5
100
AcDbEntity
 67
     1
  8
1
  6
Continuous
 62
     7
100
AcDbLine
 10
7.138592
 20
5.463797
 30
0.0
 11
7.151072
 21
5.454923
 31
0.0
  0
LINE
  5
A6
100
AcDbEntity
 67
     1
  8
1
  6
Continuous
 62
     7
100
AcDbLine
 10
6.06002
 20
5.504625
 30
0.0
 11
7.557752
 21
5.504625
 31
0.0
  0
LINE
  5
A7
100
AcDbEntity
 67
     1
  8
1
  6
Continuous
 62
     7
100
AcDbLine
 10
6.650021
 20
4.408153
 30
0.0
 11
6.56002
 21
4.408153
 31
0.0
  0
LINE
  5
A8
100
AcDbEntity
 67
     1
  8
1
  6
Continuous
 62
     7
100
AcDbLine
 10
4.134512
 20
5.471983
 30
0.0
 11
4.136304
 21
5.470329
 31
0.0
  0
LINE
  5
A9
100
AcDbEntity
 67
     1
  8
1
  6
Continuous
 62
     7
100
AcDbLine
 10
1.888235
 20
5.471983
 30
0.0
 11
1.907133
 21
5.488049
 31
0.0
  0
LINE
  5
AA
100
AcDbEntity
 67
     1
  8
1
  6
Continuous
 62
     7
100
AcDbLine
 10
1.976374
 20
6.576663
 30
0.0
 11
1.886374
 21
6.552547
 31
0.0
  0
LINE
  5
AB
100
AcDbEntity
 67
     1
  8
1
  6
Continuous
 62
     7
100
AcDbLine
 10
4.055233
 20
4.378294
 30
0.0
 11
4.130304
 21
4.378294
 31
0.0
  0
LINE
  5
AC
100
AcDbEntity
 67
     1
  8
1
  6
Continuous
 62
     7
100
AcDbLine
 10
1.967515
 20
4.398294
 30
0.0
 11
1.967084
 21
4.398294
 31
0.0
  0
LINE
  5
AD
100
AcDbEntity
 67
     1
  8
1
  6
Continuous
 62
     7
100
AcDbLine
 10
4.055233
 20
4.392294
 30
0.0
 11
4.078056
 21
4.392294
 31
0.0
  0
LINE
  5
AE
100
AcDbEntity
 67
     1
  8
1
  6
Continuous
 62
     7
100
AcDbLine
 10
1.967515
 20
4.376294
 30
0.0
 11
1.884979
 21
4.376294
 31
0.0
  0
LINE
  5
AF
100
AcDbEntity
 67
     1
  8
1
  6
Continuous
 62
     7
100
AcDbLine
 10
6.99719
 20
5.471983
 30
0.0
 11
6.994648
 21
5.470329
 31
0.0
  0
LINE
  5
B0
100
AcDbEntity
 67
     1
  8
1
  6
Continuous
 62
     7
100
AcDbLine
 10
4.626243
 20
4.834625
 30
0.0
 11
4.626243
 21
4.796874
 31
0.0
  0
LINE
  5
B1
100
AcDbEntity
 67
     1
  8
1
  6
Continuous
 62
     7
100
AcDbLine
 10
7.368841
 20
0.3125
 30
0.0
 11
7.368841
 21
1.100058
 31
0.0
  0
LINE
  5
B2
100
AcDbEntity
 67
     1
  8
1
  6
Continuous
 62
     7
100
AcDbLine
 10
4.055233
 20
4.376294
 30
0.0
 11
4.137768
 21
4.376294
 31
0.0
  0
LINE
  5
B3
100
AcDbEntity
 67
     1
  8
1
  6
Continuous
 62
     7
100
AcDbLine
 10
6.06002
 20
4.748645
 30
0.0
 11
6.06002
 21
4.759628
 31
0.0
  0
LINE
  5
B4
100
AcDbEntity
 67
     1
  8
1
  6
Continuous
 62
     7
100
AcDbLine
 10
6.524039
 20
5.504625
 30
0.0
 11
6.513732
 21
5.487311
 31
0.0
  0
LINE
  5
B5
100
AcDbEntity
 67
     1
  8
1
  6
Continuous
 62
     7
100
AcDbLine
 10
0.3125
 20
1.100058
 30
0.0
 11
10.760845
 21
1.100058
 31
0.0
  0
LINE
  5
B6
100
AcDbEntity
 67
     1
  8
1
  6
Continuous
 62
     7
100
AcDbLine
 10
6.622851
 20
5.471983
 30
0.0
 11
6.99719
 21
5.471983
 31
0.0
  0
LINE
  5
B7
100
AcDbEntity
 67
     1
  8
1
  6
Continuous
 62
     7
100
AcDbLine
 10
6.970021
 20
4.414153
 30
0.0
 11
7.037628
 21
4.414153
 31
0.0
  0
LINE
  5
B8
100
AcDbEntity
 67
     1
  8
1
  6
Continuous
 62
     7
100
AcDbLine
 10
1.97173
 20
5.463797
 30
0.0
 11
1.983084
 21
5.47345
 31
0.0
  0
LINE
  5
B9
100
AcDbEntity
 67
     1
  8
1
  6
Continuous
 62
     7
100
AcDbLine
 10
4.045548
 20
5.721148
 30
0.0
 11
3.922339
 21
5.728036
 31
0.0
  0
LINE
  5
BA
100
AcDbEntity
 67
     1
  8
1
  6
Continuous
 62
     7
100
AcDbLine
 10
1.976374
 20
6.552547
 30
0.0
 11
1.886374
 21
6.552547
 31
0.0
  0
LINE
  5
BB
100
AcDbEntity
 67
     1
  8
1
  6
Continuous
 62
     7
100
AcDbLine
 10
4.046374
 20
6.528432
 30
0.0
 11
4.136374
 21
6.552547
 31
0.0
  0
LINE
  5
BC
100
AcDbEntity
 67
     1
  8
1
  6
Continuous
 62
     7
100
AcDbLine
 10
4.115615
 20
5.488049
 30
0.0
 11
4.134512
 21
5.471983
 31
0.0
  0
LINE
  5
BD
100
AcDbEntity
 67
     1
  8
1
  6
Continuous
 62
     7
100
AcDbLine
 10
1.967515
 20
4.350294
 30
0.0
 11
1.967084
 21
4.350294
 31
0.0
  0
LINE
  5
BE
100
AcDbEntity
 67
     1
  8
1
  6
Continuous
 62
     7
100
AcDbLine
 10
4.654243
 20
5.764625
 30
0.0
 11
4.654243
 21
5.802376
 31
0.0
  0
LINE
  5
BF
100
AcDbEntity
 67
     1
  8
1
  6
Continuous
 62
     7
100
AcDbLine
 10
6.06002
 20
4.984007
 30
0.0
 11
6.06002
 21
4.774632
 31
0.0
  0
LINE
  5
C0
100
AcDbEntity
 67
     1
  8
1
  6
Continuous
 62
     7
100
AcDbLine
 10
1.967515
 20
4.370294
 30
0.0
 11
1.892443
 21
4.370294
 31
0.0
  0
LINE
  5
C1
100
AcDbEntity
 67
     1
  8
1
  6
Continuous
 62
     7
100
AcDbLine
 10
6.650021
 20
4.402153
 30
0.0
 11
6.582413
 21
4.402153
 31
0.0
  0
LINE
  5
C2
100
AcDbEntity
 67
     1
  8
1
  6
Continuous
 62
     7
100
AcDbLine
 10
4.039664
 20
5.47345
 30
0.0
 11
4.051018
 21
5.463797
 31
0.0
  0
LINE
  5
C3
100
AcDbEntity
 67
     1
  8
1
  6
Continuous
 62
     7
100
AcDbLine
 10
2.125534
 20
5.716794
 30
0.0
 11
2.114337
 21
5.725466
 31
0.0
  0
LINE
  5
C4
100
AcDbEntity
 67
     1
  8
1
  6
Continuous
 62
     7
100
AcDbLine
 10
5.838152
 20
0.3125
 30
0.0
 11
5.838152
 21
2.635795
 31
0.0
  0
LINE
  5
C5
100
AcDbEntity
 67
     1
  8
1
  6
Continuous
 62
     7
100
AcDbLine
 10
1.967515
 20
4.372294
 30
0.0
 11
1.884979
 21
4.372294
 31
0.0
  0
LINE
  5
C6
100
AcDbEntity
 67
     1
  8
1
  6
Continuous
 62
     7
100
AcDbLine
 10
1.967515
 20
4.382294
 30
0.0
 11
1.907372
 21
4.382294
 31
0.0
  0
LINE
  5
C7
100
AcDbEntity
 67
     1
  8
1
  6
Continuous
 62
     7
100
AcDbLine
 10
4.620244
 20
4.834625
 30
0.0
 11
4.620244
 21
4.819266
 31
0.0
  0
LINE
  5
C8
100
AcDbEntity
 67
     1
  8
1
  6
Continuous
 62
     7
100
AcDbLine
 10
1.967515
 20
4.374294
 30
0.0
 11
1.877515
 21
4.374294
 31
0.0
  0
LINE
  5
C9
100
AcDbEntity
 67
     1
  8
1
  6
Continuous
 62
     7
100
AcDbLine
 10
4.055233
 20
4.356294
 30
0.0
 11
4.078056
 21
4.356294
 31
0.0
  0
LINE
  5
CA
100
AcDbEntity
 67
     1
  8
1
  6
Continuous
 62
     7
100
AcDbLine
 10
7.524031
 20
5.504627
 30
0.0
 11
7.512959
 21
5.486375
 31
0.0
  0
LINE
  5
CB
100
AcDbEntity
 67
     1
  8
1
  6
Continuous
 62
     7
100
AcDbLine
 10
6.465175
 20
5.449133
 30
0.0
 11
6.46282
 21
5.442621
 31
0.0
  0
LINE
  5
CC
100
AcDbEntity
 67
     1
  8
1
  6
Continuous
 62
     7
100
AcDbLine
 10
6.096002
 20
5.504625
 30
0.0
 11
6.106309
 21
5.487311
 31
0.0
  0
LINE
  5
CD
100
AcDbEntity
 67
     1
  8
1
  6
Continuous
 62
     7
100
AcDbLine
 10
5.136612
 20
0.3125
 30
0.0
 11
5.136612
 21
2.635795
 31
0.0
  0
LINE
  5
CE
100
AcDbEntity
 67
     1
  8
1
  6
Continuous
 62
     7
100
AcDbLine
 10
6.968969
 20
5.454923
 30
0.0
 11
6.981449
 21
5.463797
 31
0.0
  0
LINE
  5
CF
100
AcDbEntity
 67
     1
  8
1
  6
Continuous
 62
     7
100
AcDbLine
 10
6.970021
 20
4.420153
 30
0.0
 11
7.015236
 21
4.420153
 31
0.0
  0
LINE
  5
D0
100
AcDbEntity
 67
     1
  8
1
  6
Continuous
 62
     7
100
AcDbLine
 10
1.967515
 20
4.398294
 30
0.0
 11
1.967084
 21
4.398294
 31
0.0
  0
LINE
  5
D1
100
AcDbEntity
 67
     1
  8
1
  6
Continuous
 62
     7
100
AcDbLine
 10
4.646244
 20
5.764625
 30
0.0
 11
4.646244
 21
5.832232
 31
0.0
  0
LINE
  5
D2
100
AcDbEntity
 67
     1
  8
1
  6
Continuous
 62
     7
100
AcDbLine
 10
1.878215
 20
5.454833
 30
0.0
 11
1.877667
 21
5.449133
 31
0.0
  0
LINE
  5
D3
100
AcDbEntity
 67
     1
  8
1
  6
Continuous
 62
     7
100
AcDbLine
 10
1.976374
 20
6.558547
 30
0.0
 11
1.908766
 21
6.558547
 31
0.0
  0
LINE
  5
D4
100
AcDbEntity
 67
     1
  8
1
  6
Continuous
 62
     7
100
AcDbLine
 10
10.358371
 20
0.847101
 30
0.0
 11
10.358371
 21
0.3125
 31
0.0
  0
LINE
  5
D5
100
AcDbEntity
 67
     1
  8
1
  6
Continuous
 62
     7
100
AcDbLine
 10
4.055233
 20
4.360294
 30
0.0
 11
4.092984
 21
4.360294
 31
0.0
  0
LINE
  5
D6
100
AcDbEntity
 67
     1
  8
1
  6
Continuous
 62
     7
100
AcDbLine
 10
4.660244
 20
5.764625
 30
0.0
 11
4.660244
 21
5.779984
 31
0.0
  0
LINE
  5
D7
100
AcDbEntity
 67
     1
  8
1
  6
Continuous
 62
     7
100
AcDbLine
 10
4.055233
 20
4.384295
 30
0.0
 11
4.107912
 21
4.384295
 31
0.0
  0
LINE
  5
D8
100
AcDbEntity
 67
     1
  8
1
  6
Continuous
 62
     7
100
AcDbLine
 10
6.148021
 20
4.984007
 30
0.0
 11
6.155092
 21
4.986936
 31
0.0
  0
LINE
  5
D9
100
AcDbEntity
 67
     1
  8
1
  6
Continuous
 62
     7
100
AcDbLine
 10
6.06002
 20
4.744625
 30
0.0
 11
6.06002
 21
4.748645
 31
0.0
  0
LINE
  5
DA
100
AcDbEntity
 67
     1
  8
1
  6
Continuous
 62
     7
100
AcDbLine
 10
6.650021
 20
4.396153
 30
0.0
 11
6.604805
 21
4.396153
 31
0.0
  0
LINE
  5
DB
100
AcDbEntity
 67
     1
  8
1
  6
Continuous
 62
     7
100
AcDbLine
 10
4.023098
 20
5.487534
 30
0.0
 11
4.039664
 21
5.47345
 31
0.0
  0
LINE
  5
DC
100
AcDbEntity
 67
     1
  8
1
  6
Continuous
 62
     7
100
AcDbLine
 10
4.055233
 20
4.364295
 30
0.0
 11
4.107912
 21
4.364295
 31
0.0
  0
LINE
  5
DD
100
AcDbEntity
 67
     1
  8
1
  6
Continuous
 62
     7
100
AcDbLine
 10
1.966831
 20
5.703987
 30
0.0
 11
1.963389
 21
5.675117
 31
0.0
  0
LINE
  5
DE
100
AcDbEntity
 67
     1
  8
1
  6
Continuous
 62
     7
100
AcDbLine
 10
4.046374
 20
6.546547
 30
0.0
 11
4.113982
 21
6.546547
 31
0.0
  0
LINE
  5
DF
100
AcDbEntity
 67
     1
  8
1
  6
Continuous
 62
     7
100
AcDbLine
 10
1.967515
 20
4.366294
 30
0.0
 11
1.907372
 21
4.366294
 31
0.0
  0
LINE
  5
E0
100
AcDbEntity
 67
     1
  8
1
  6
Continuous
 62
     7
100
AcDbLine
 10
4.055233
 20
4.39841
 30
0.0
 11
4.055233
 21
4.350179
 31
0.0
  0
LINE
  5
E1
100
AcDbEntity
 67
     1
  8
1
  6
Continuous
 62
     7
100
AcDbLine
 10
1.967515
 20
4.388294
 30
0.0
 11
1.929764
 21
4.388294
 31
0.0
  0
LINE
  5
E2
100
AcDbEntity
 67
     1
  8
1
  6
Continuous
 62
     7
100
AcDbLine
 10
4.055233
 20
4.366294
 30
0.0
 11
4.115376
 21
4.366294
 31
0.0
  0
LINE
  5
E3
100
AcDbEntity
 67
     1
  8
1
  6
Continuous
 62
     7
100
AcDbLine
 10
4.616243
 20
4.834625
 30
0.0
 11
4.616243
 21
4.834194
 31
0.0
  0
LINE
  5
E4
100
AcDbEntity
 67
     1
  8
1
  6
Continuous
 62
     7
100
AcDbLine
 10
7.107083
 20
5.486375
 30
0.0
 11
7.122851
 21
5.471983
 31
0.0
  0
LINE
  5
E5
100
AcDbEntity
 67
     1
  8
1
  6
Continuous
 62
     7
100
AcDbLine
 10
6.202504
 20
0.3125
 30
0.0
 11
6.202504
 21
2.635795
 31
0.0
  0
LINE
  5
E6
100
AcDbEntity
 67
     1
  8
1
  6
Continuous
 62
     7
100
AcDbLine
 10
7.013732
 20
5.487311
 30
0.0
 11
6.999185
 21
5.473366
 31
0.0
  0
LINE
  5
E7
100
AcDbEntity
 67
     1
  8
1
  6
Continuous
 62
     7
100
AcDbLine
 10
6.970021
 20
4.426153
 30
0.0
 11
6.992844
 21
4.426153
 31
0.0
  0
LINE
  5
E8
100
AcDbEntity
 67
     1
  8
1
  6
Continuous
 62
     7
100
AcDbLine
 10
4.145185
 20
4.984007
 30
0.0
 11
4.088442
 21
4.983994
 31
0.0
  0
LINE
  5
E9
100
AcDbEntity
 67
     1
  8
1
  6
Continuous
 62
     7
100
AcDbLine
 10
2.100409
 20
5.728036
 30
0.0
 11
1.9772
 21
5.721148
 31
0.0
  0
LINE
  5
EA
100
AcDbEntity
 67
     1
  8
1
  6
Continuous
 62
     7
100
AcDbLine
 10
3.123499
 20
6.417548
 30
0.0
 11
3.078499
 21
6.417548
 31
0.0
  0
LINE
  5
EB
100
AcDbEntity
 67
     1
  8
1
  6
Continuous
 62
     7
100
AcDbLine
 10
3.922339
 20
5.728036
 30
0.0
 11
3.908411
 21
5.725466
 31
0.0
  0
LINE
  5
EC
100
AcDbEntity
 67
     1
  8
1
  6
Continuous
 62
     7
100
AcDbLine
 10
1.976374
 20
6.564548
 30
0.0
 11
1.931159
 21
6.564548
 31
0.0
  0
LINE
  5
ED
100
AcDbEntity
 67
     1
  8
1
  6
Continuous
 62
     7
100
AcDbLine
 10
4.664243
 20
5.764625
 30
0.0
 11
4.664243
 21
5.765055
 31
0.0
  0
LINE
  5
EE
100
AcDbEntity
 67
     1
  8
1
  6
Continuous
 62
     7
100
AcDbLine
 10
4.055233
 20
4.372294
 30
0.0
 11
4.137768
 21
4.372294
 31
0.0
  0
LINE
  5
EF
100
AcDbEntity
 67
     1
  8
1
  6
Continuous
 62
     7
100
AcDbLine
 10
4.624243
 20
5.764625
 30
0.0
 11
4.624243
 21
5.794912
 31
0.0
  0
LINE
  5
F0
100
AcDbEntity
 67
     1
  8
1
  6
Continuous
 62
     7
100
AcDbLine
 10
6.15802
 20
5.435742
 30
0.0
 11
6.157221
 21
5.442621
 31
0.0
  0
LINE
  5
F1
100
AcDbEntity
 67
     1
  8
1
  6
Continuous
 62
     7
100
AcDbLine
 10
7.012959
 20
5.486375
 30
0.0
 11
6.99719
 21
5.471983
 31
0.0
  0
LINE
  5
F2
100
AcDbEntity
 67
     1
  8
1
  6
Continuous
 62
     7
100
AcDbLine
 10
6.650021
 20
4.390153
 30
0.0
 11
6.627197
 21
4.390153
 31
0.0
  0
LINE
  5
F3
100
AcDbEntity
 67
     1
  8
1
  6
Continuous
 62
     7
100
AcDbLine
 10
3.91239
 20
5.581656
 30
0.0
 11
3.93269
 21
5.564397
 31
0.0
  0
LINE
  5
F4
100
AcDbEntity
 67
     1
  8
1
  6
Continuous
 62
     7
100
AcDbLine
 10
4.056306
 20
5.538473
 30
0.0
 11
4.08193
 21
5.516688
 31
0.0
  0
LINE
  5
F5
100
AcDbEntity
 67
     1
  8
1
  6
Continuous
 62
     7
100
AcDbLine
 10
1.877515
 20
4.374294
 30
0.0
 11
1.967515
 21
4.350179
 31
0.0
  0
LINE
  5
F6
100
AcDbEntity
 67
     1
  8
1
  6
Continuous
 62
     7
100
AcDbLine
 10
4.046374
 20
6.540547
 30
0.0
 11
4.091589
 21
6.540547
 31
0.0
  0
LINE
  5
F7
100
AcDbEntity
 67
     1
  8
1
  6
Continuous
 62
     7
100
AcDbLine
 10
7.528621
 20
5.233355
 30
0.0
 11
7.586882
 21
5.320746
 31
0.0
  0
LINE
  5
F8
100
AcDbEntity
 67
     1
  8
1
  6
Continuous
 62
     7
100
AcDbLine
 10
4.644243
 20
4.834625
 30
0.0
 11
4.644243
 21
4.759553
 31
0.0
  0
LINE
  5
F9
100
AcDbEntity
 67
     1
  8
1
  6
Continuous
 62
     7
100
AcDbLine
 10
1.967515
 20
4.350179
 30
0.0
 11
1.967515
 21
4.39841
 31
0.0
  0
LINE
  5
FA
100
AcDbEntity
 67
     1
  8
1
  6
Continuous
 62
     7
100
AcDbLine
 10
6.648021
 20
4.984007
 30
0.0
 11
6.655092
 21
4.986936
 31
0.0
  0
LINE
  5
FB
100
AcDbEntity
 67
     1
  8
1
  6
Continuous
 62
     7
100
AcDbLine
 10
7.15801
 20
5.436498
 30
0.0
 11
7.15802
 21
5.435728
 31
0.0
  0
LINE
  5
FC
100
AcDbEntity
 67
     1
  8
1
  6
Continuous
 62
     7
100
AcDbLine
 10
6.970021
 20
4.432153
 30
0.0
 11
6.970451
 21
4.432153
 31
0.0
  0
LINE
  5
FD
100
AcDbEntity
 67
     1
  8
1
  6
Continuous
 62
     7
100
AcDbLine
 10
1.877565
 20
4.994007
 30
0.0
 11
1.877664
 21
5.435742
 31
0.0
  0
LINE
  5
FE
100
AcDbEntity
 67
     1
  8
1
  6
Continuous
 62
     7
100
AcDbLine
 10
1.940637
 20
5.436498
 30
0.0
 11
1.940063
 21
5.435728
 31
0.0
  0
LINE
  5
FF
100
AcDbEntity
 67
     1
  8
1
  6
Continuous
 62
     7
100
AcDbLine
 10
6.56002
 20
4.921507
 30
0.0
 11
6.56002
 21
4.283153
 31
0.0
  0
LINE
  5
100
100
AcDbEntity
 67
     1
  8
1
  6
Continuous
 62
     7
100
AcDbLine
 10
4.620244
 20
5.764625
 30
0.0
 11
4.620244
 21
5.779984
 31
0.0
  0
LINE
  5
101
100
AcDbEntity
 67
     1
  8
1
  6
Continuous
 62
     7
100
AcDbLine
 10
4.136374
 20
5.844625
 30
0.0
 11
4.136374
 21
5.534625
 31
0.0
  0
LINE
  5
102
100
AcDbEntity
 67
     1
  8
1
  6
Continuous
 62
     7
100
AcDbLine
 10
1.976374
 20
6.570548
 30
0.0
 11
1.953551
 21
6.570548
 31
0.0
  0
LINE
  5
103
100
AcDbEntity
 67
     1
  8
1
  6
Continuous
 62
     7
100
AcDbLine
 10
4.636243
 20
5.764625
 30
0.0
 11
4.636243
 21
5.839696
 31
0.0
  0
LINE
  5
104
100
AcDbEntity
 67
     1
  8
1
  6
Continuous
 62
     7
100
AcDbLine
 10
10.760845
 20
2.866795
 30
0.0
 11
6.596283
 21
2.866795
 31
0.0
  0
LINE
  5
105
100
AcDbEntity
 67
     1
  8
1
  6
Continuous
 62
     7
100
AcDbLine
 10
6.596283
 20
2.119882
 30
0.0
 11
0.3125
 21
2.119882
 31
0.0
  0
LINE
  5
106
100
AcDbEntity
 67
     1
  8
1
  6
Continuous
 62
     7
100
AcDbLine
 10
6.49719
 20
5.471983
 30
0.0
 11
6.494648
 21
5.470329
 31
0.0
  0
LINE
  5
107
100
AcDbEntity
 67
     1
  8
1
  6
Continuous
 62
     7
100
AcDbLine
 10
6.59601
 20
5.504627
 30
0.0
 11
6.607083
 21
5.486375
 31
0.0
  0
LINE
  5
108
100
AcDbEntity
 67
     1
  8
1
  6
Continuous
 62
     7
100
AcDbLine
 10
6.650021
 20
4.384153
 30
0.0
 11
6.64959
 21
4.384153
 31
0.0
  0
LINE
  5
109
100
AcDbEntity
 67
     1
  8
1
  6
Continuous
 62
     7
100
AcDbLine
 10
4.088441
 20
4.986923
 30
0.0
 11
4.08844
 21
4.993994
 31
0.0
  0
LINE
  5
10A
100
AcDbEntity
 67
     1
  8
1
  6
Continuous
 62
     7
100
AcDbLine
 10
3.99047
 20
5.594445
 30
0.0
 11
4.008545
 21
5.579078
 31
0.0
  0
LINE
  5
10B
100
AcDbEntity
 67
     1
  8
1
  6
Continuous
 62
     7
100
AcDbLine
 10
4.046374
 20
6.534547
 30
0.0
 11
4.069197
 21
6.534547
 31
0.0
  0
LINE
  5
10C
100
AcDbEntity
 67
     1
  8
1
  6
Continuous
 62
     7
100
AcDbLine
 10
4.136374
 20
6.552547
 30
0.0
 11
4.046374
 21
6.576663
 31
0.0
  0
LINE
  5
10D
100
AcDbEntity
 67
     1
  8
1
  6
Continuous
 62
     7
100
AcDbLine
 10
4.650243
 20
4.834625
 30
0.0
 11
4.650243
 21
4.781945
 31
0.0
  0
LINE
  5
10E
100
AcDbEntity
 67
     1
  8
1
  6
Continuous
 62
     7
100
AcDbLine
 10
7.494648
 20
5.470329
 30
0.0
 11
7.482802
 21
5.464342
 31
0.0
  0
LINE
  5
10F
100
AcDbEntity
 67
     1
  8
1
  6
Continuous
 62
     7
100
AcDbLine
 10
6.970021
 20
4.432269
 30
0.0
 11
6.970021
 21
4.384037
 31
0.0
  0
LINE
  5
110
100
AcDbEntity
 67
     1
  8
1
  6
Continuous
 62
     7
100
AcDbLine
 10
6.154608
 20
5.449638
 30
0.0
 11
6.154866
 21
5.449133
 31
0.0
  0
LINE
  5
111
100
AcDbEntity
 67
     1
  8
1
  6
Continuous
 62
     7
100
AcDbLine
 10
1.877562
 20
4.984007
 30
0.0
 11
1.877515
 21
4.774632
 31
0.0
  0
LINE
  5
112
100
AcDbEntity
 67
     1
  8
1
  6
Continuous
 62
     7
100
AcDbLine
 10
2.11568
 20
5.587564
 30
0.0
 11
2.110358
 21
5.581656
 31
0.0
  0
LINE
  5
113
100
AcDbEntity
 67
     1
  8
1
  6
Continuous
 62
     7
100
AcDbLine
 10
4.616243
 20
5.764625
 30
0.0
 11
4.616243
 21
5.765055
 31
0.0
  0
LINE
  5
114
100
AcDbEntity
 67
     1
  8
1
  6
Continuous
 62
     7
100
AcDbLine
 10
1.976374
 20
6.576548
 30
0.0
 11
1.975943
 21
6.576548
 31
0.0
  0
LINE
  5
115
100
AcDbEntity
 67
     1
  8
1
  6
Continuous
 62
     7
100
AcDbLine
 10
6.56002
 20
4.408153
 30
0.0
 11
6.650021
 21
4.384037
 31
0.0
  0
LINE
  5
116
100
AcDbEntity
 67
     1
  8
1
  6
Continuous
 62
     7
100
AcDbLine
 10
4.630243
 20
5.764625
 30
0.0
 11
4.630243
 21
5.817304
 31
0.0
  0
LINE
  5
117
100
AcDbEntity
 67
     1
  8
1
  6
Continuous
 62
     7
100
AcDbLine
 10
9.16729
 20
1.57597
 30
0.0
 11
9.16729
 21
0.3125
 31
0.0
  0
LINE
  5
118
100
AcDbEntity
 67
     1
  8
1
  6
Continuous
 62
     7
100
AcDbLine
 10
6.657545
 20
5.441048
 30
0.0
 11
6.65801
 21
5.436498
 31
0.0
  0
LINE
  5
119
100
AcDbEntity
 67
     1
  8
1
  6
Continuous
 62
     7
100
AcDbLine
 10
6.970021
 20
4.406153
 30
0.0
 11
7.052557
 21
4.406153
 31
0.0
  0
LINE
  5
11A
100
AcDbEntity
 67
     1
  8
1
  6
Continuous
 62
     7
100
AcDbLine
 10
6.650021
 20
4.432269
 30
0.0
 11
6.56002
 21
4.408153
 31
0.0
  0
LINE
  5
11B
100
AcDbEntity
 67
     1
  8
1
  6
Continuous
 62
     7
100
AcDbLine
 10
6.650021
 20
4.384037
 30
0.0
 11
6.650021
 21
4.432269
 31
0.0
  0
LINE
  5
11C
100
AcDbEntity
 67
     1
  8
1
  6
Continuous
 62
     7
100
AcDbLine
 10
4.102121
 20
4.822408
 30
0.0
 11
4.102125
 21
4.804625
 31
0.0
  0
LINE
  5
11D
100
AcDbEntity
 67
     1
  8
1
  6
Continuous
 62
     7
100
AcDbLine
 10
3.989677
 20
5.595169
 30
0.0
 11
3.986724
 21
5.599257
 31
0.0
  0
LINE
  5
11E
100
AcDbEntity
 67
     1
  8
1
  6
Continuous
 62
     7
100
AcDbLine
 10
4.046374
 20
6.528548
 30
0.0
 11
4.046804
 21
6.528548
 31
0.0
  0
LINE
  5
11F
100
AcDbEntity
 67
     1
  8
1
  6
Continuous
 62
     7
100
AcDbLine
 10
6.650021
 20
4.384153
 30
0.0
 11
6.64959
 21
4.384153
 31
0.0
  0
LINE
  5
120
100
AcDbEntity
 67
     1
  8
1
  6
Continuous
 62
     7
100
AcDbLine
 10
4.082685
 20
5.435728
 30
0.0
 11
4.145083
 21
5.435742
 31
0.0
  0
LINE
  5
121
100
AcDbEntity
 67
     1
  8
1
  6
Continuous
 62
     7
100
AcDbLine
 10
6.466498
 20
5.45151
 30
0.0
 11
6.471318
 21
5.457454
 31
0.0
  0
LINE
  5
122
100
AcDbEntity
 67
     1
  8
1
  6
Continuous
 62
     7
100
AcDbLine
 10
4.656243
 20
4.834625
 30
0.0
 11
4.656243
 21
4.804338
 31
0.0
  0
LINE
  5
123
100
AcDbEntity
 67
     1
  8
1
  6
Continuous
 62
     7
100
AcDbLine
 10
6.96202
 20
4.994007
 30
0.0
 11
6.96202
 21
5.435742
 31
0.0
  0
LINE
  5
124
100
AcDbEntity
 67
     1
  8
1
  6
Continuous
 62
     7
100
AcDbLine
 10
7.471318
 20
5.457454
 30
0.0
 11
7.47859
 21
5.462567
 31
0.0
  0
LINE
  5
125
100
AcDbEntity
 67
     1
  8
1
  6
Continuous
 62
     7
100
AcDbLine
 10
6.09601
 20
5.504627
 30
0.0
 11
6.107083
 21
5.486375
 31
0.0
  0
LINE
  5
126
100
AcDbEntity
 67
     1
  8
1
  6
Continuous
 62
     7
100
AcDbLine
 10
4.136374
 20
5.907125
 30
0.0
 11
4.136374
 21
6.677547
 31
0.0
  0
LINE
  5
127
100
AcDbEntity
 67
     1
  8
1
  6
Continuous
 62
     7
100
AcDbLine
 10
0.3125
 20
0.3125
 30
0.0
 11
10.760845
 21
0.3125
 31
0.0
  0
LINE
  5
128
100
AcDbEntity
 67
     1
  8
1
  6
Continuous
 62
     7
100
AcDbLine
 10
2.121237
 20
5.605339
 30
0.0
 11
2.120715
 21
5.60096
 31
0.0
  0
LINE
  5
129
100
AcDbEntity
 67
     1
  8
1
  6
Continuous
 62
     7
100
AcDbLine
 10
4.640244
 20
5.854625
 30
0.0
 11
4.616128
 21
5.764625
 31
0.0
  0
LINE
  5
12A
100
AcDbEntity
 67
     1
  8
1
  6
Continuous
 62
     7
100
AcDbLine
 10
4.076374
 20
5.784625
 30
0.0
 11
4.076374
 21
5.633394
 31
0.0
  0
LINE
  5
12B
100
AcDbEntity
 67
     1
  8
1
  6
Continuous
 62
     7
100
AcDbLine
 10
1.940063
 20
5.435728
 30
0.0
 11
1.877664
 21
5.435742
 31
0.0
  0
LINE
  5
12C
100
AcDbEntity
 67
     1
  8
1
  6
Continuous
 62
     7
100
AcDbLine
 10
4.055233
 20
4.352294
 30
0.0
 11
4.063128
 21
4.352294
 31
0.0
  0
LINE
  5
12D
100
AcDbEntity
 67
     1
  8
1
  6
Continuous
 62
     7
100
AcDbLine
 10
1.441247
 20
0.3125
 30
0.0
 11
1.441247
 21
2.635795
 31
0.0
  0
LINE
  5
12E
100
AcDbEntity
 67
     1
  8
1
  6
Continuous
 62
     7
100
AcDbLine
 10
1.934308
 20
4.993995
 30
0.0
 11
1.877565
 21
4.994007
 31
0.0
  0
LINE
  5
12F
100
AcDbEntity
 67
     1
  8
1
  6
Continuous
 62
     7
100
AcDbLine
 10
4.046374
 20
6.564548
 30
0.0
 11
4.091589
 21
6.564548
 31
0.0
  0
LINE
  5
130
100
AcDbEntity
 67
     1
  8
1
  6
Continuous
 62
     7
100
AcDbLine
 10
6.970021
 20
4.400153
 30
0.0
 11
7.030164
 21
4.400153
 31
0.0
  0
LINE
  5
131
100
AcDbEntity
 67
     1
  8
1
  6
Continuous
 62
     7
100
AcDbLine
 10
1.920627
 20
4.822408
 30
0.0
 11
1.934269
 21
4.820782
 31
0.0
  0
LINE
  5
132
100
AcDbEntity
 67
     1
  8
1
  6
Continuous
 62
     7
100
AcDbLine
 10
3.901511
 20
5.605339
 30
0.0
 11
3.985195
 21
5.605358
 31
0.0
  0
LINE
  5
133
100
AcDbEntity
 67
     1
  8
1
  6
Continuous
 62
     7
100
AcDbLine
 10
4.046374
 20
6.554547
 30
0.0
 11
4.12891
 21
6.554547
 31
0.0
  0
LINE
  5
134
100
AcDbEntity
 67
     1
  8
1
  6
Continuous
 62
     7
100
AcDbLine
 10
4.177732
 20
4.744625
 30
0.0
 11
4.765244
 21
4.744625
 31
0.0
  0
LINE
  5
135
100
AcDbEntity
 67
     1
  8
1
  6
Continuous
 62
     7
100
AcDbLine
 10
4.662243
 20
4.834625
 30
0.0
 11
4.662243
 21
4.82673
 31
0.0
  0
LINE
  5
136
100
AcDbEntity
 67
     1
  8
1
  6
Continuous
 62
     7
100
AcDbLine
 10
6.122851
 20
5.471983
 30
0.0
 11
6.125392
 21
5.470329
 31
0.0
  0
LINE
  5
137
100
AcDbEntity
 67
     1
  8
1
  6
Continuous
 62
     7
100
AcDbLine
 10
7.154866
 20
5.449133
 30
0.0
 11
7.465175
 21
5.449133
 31
0.0
  0
LINE
  5
138
100
AcDbEntity
 67
     1
  8
1
  6
Continuous
 62
     7
100
AcDbLine
 10
6.157545
 20
5.441048
 30
0.0
 11
6.15801
 21
5.436498
 31
0.0
  0
LINE
  5
139
100
AcDbEntity
 67
     1
  8
1
  6
Continuous
 62
     7
100
AcDbLine
 10
6.650021
 20
4.416153
 30
0.0
 11
6.589877
 21
4.416153
 31
0.0
  0
LINE
  5
13A
100
AcDbEntity
 67
     1
  8
1
  6
Continuous
 62
     7
100
AcDbLine
 10
4.145185
 20
4.984007
 30
0.0
 11
4.145185
 21
4.986936
 31
0.0
  0
LINE
  5
13B
100
AcDbEntity
 67
     1
  8
1
  6
Continuous
 62
     7
100
AcDbLine
 10
1.967328
 20
5.665926
 30
0.0
 11
2.031547
 21
5.617884
 31
0.0
  0
LINE
  5
13C
100
AcDbEntity
 67
     1
  8
1
  6
Continuous
 62
     7
100
AcDbLine
 10
1.976374
 20
6.544548
 30
0.0
 11
1.91623
 21
6.544548
 31
0.0
  0
LINE
  5
13D
100
AcDbEntity
 67
     1
  8
1
  6
Continuous
 62
     7
100
AcDbLine
 10
4.046374
 20
6.556548
 30
0.0
 11
4.121446
 21
6.556548
 31
0.0
  0
LINE
  5
13E
100
AcDbEntity
 67
     1
  8
1
  6
Continuous
 62
     7
100
AcDbLine
 10
4.055233
 20
4.350294
 30
0.0
 11
4.055664
 21
4.350294
 31
0.0
  0
LINE
  5
13F
100
AcDbEntity
 67
     1
  8
1
  6
Continuous
 62
     7
100
AcDbLine
 10
7.150021
 20
4.408153
 30
0.0
 11
7.400021
 21
4.408153
 31
0.0
  0
LINE
  5
140
100
AcDbEntity
 67
     1
  8
1
  6
Continuous
 62
     7
100
AcDbLine
 10
1.976374
 20
6.560547
 30
0.0
 11
1.91623
 21
6.560547
 31
0.0
  0
LINE
  5
141
100
AcDbEntity
 67
     1
  8
1
  6
Continuous
 62
     7
100
AcDbLine
 10
10.760845
 20
8.26636
 30
0.0
 11
10.760845
 21
0.3125
 31
0.0
  0
LINE
  5
142
100
AcDbEntity
 67
     1
  8
1
  6
Continuous
 62
     7
100
AcDbLine
 10
6.138592
 20
5.463817
 30
0.0
 11
6.141959
 21
5.462307
 31
0.0
  0
LINE
  5
143
100
AcDbEntity
 67
     1
  8
1
  6
Continuous
 62
     7
100
AcDbLine
 10
6.966498
 20
5.45151
 30
0.0
 11
6.971318
 21
5.457454
 31
0.0
  0
LINE
  5
144
100
AcDbEntity
 67
     1
  8
1
  6
Continuous
 62
     7
100
AcDbLine
 10
6.970021
 20
4.394153
 30
0.0
 11
7.007772
 21
4.394153
 31
0.0
  0
LINE
  5
145
100
AcDbEntity
 67
     1
  8
1
  6
Continuous
 62
     7
100
AcDbLine
 10
4.055233
 20
4.374294
 30
0.0
 11
4.145233
 21
4.374294
 31
0.0
  0
LINE
  5
146
100
AcDbEntity
 67
     1
  8
1
  6
Continuous
 62
     7
100
AcDbLine
 10
1.934404
 20
5.418198
 30
0.0
 11
1.934308
 21
4.993995
 31
0.0
  0
LINE
  5
147
100
AcDbEntity
 67
     1
  8
1
  6
Continuous
 62
     7
100
AcDbLine
 10
3.902033
 20
5.60096
 30
0.0
 11
3.901511
 21
5.605339
 31
0.0
  0
LINE
  5
148
100
AcDbEntity
 67
     1
  8
1
  6
Continuous
 62
     7
100
AcDbLine
 10
4.046374
 20
6.560547
 30
0.0
 11
4.106517
 21
6.560547
 31
0.0
  0
LINE
  5
149
100
AcDbEntity
 67
     1
  8
1
  6
Continuous
 62
     7
100
AcDbLine
 10
7.557752
 20
4.579255
 30
0.0
 11
7.557752
 21
5.189659
 31
0.0
  0
LINE
  5
14A
100
AcDbEntity
 67
     1
  8
1
  6
Continuous
 62
     7
100
AcDbLine
 10
4.046374
 20
6.528548
 30
0.0
 11
4.046804
 21
6.528548
 31
0.0
  0
LINE
  5
14B
100
AcDbEntity
 67
     1
  8
1
  6
Continuous
 62
     7
100
AcDbLine
 10
1.97173
 20
5.463797
 30
0.0
 11
1.88151
 21
5.463817
 31
0.0
  0
LINE
  5
14C
100
AcDbEntity
 67
     1
  8
1
  6
Continuous
 62
     7
100
AcDbLine
 10
4.95965
 20
5.12525
 30
0.0
 11
4.95965
 21
5.294
 31
0.0
  0
LINE
  5
14D
100
AcDbEntity
 67
     1
  8
1
  6
Continuous
 62
     7
100
AcDbLine
 10
4.616128
 20
4.834625
 30
0.0
 11
4.640244
 21
4.744625
 31
0.0
  0
LINE
  5
14E
100
AcDbEntity
 67
     1
  8
1
  6
Continuous
 62
     7
100
AcDbLine
 10
7.528621
 20
5.233355
 30
0.0
 11
7.557752
 21
5.189659
 31
0.0
  0
LINE
  5
14F
100
AcDbEntity
 67
     1
  8
1
  6
Continuous
 62
     7
100
AcDbLine
 10
7.15802
 20
4.994007
 30
0.0
 11
7.15802
 21
5.435742
 31
0.0
  0
LINE
  5
150
100
AcDbEntity
 67
     1
  8
1
  6
Continuous
 62
     7
100
AcDbLine
 10
6.650021
 20
4.422153
 30
0.0
 11
6.612269
 21
4.422153
 31
0.0
  0
LINE
  5
151
100
AcDbEntity
 67
     1
  8
1
  6
Continuous
 62
     7
100
AcDbLine
 10
4.145084
 20
5.435742
 30
0.0
 11
4.145082
 21
5.442621
 31
0.0
  0
LINE
  5
152
100
AcDbEntity
 67
     1
  8
1
  6
Continuous
 62
     7
100
AcDbLine
 10
2.036056
 20
5.599323
 30
0.0
 11
2.034101
 21
5.59629
 31
0.0
  0
LINE
  5
153
100
AcDbEntity
 67
     1
  8
1
  6
Continuous
 62
     7
100
AcDbLine
 10
1.955069
 20
5.62348
 30
0.0
 11
2.0192
 21
5.615037
 31
0.0
  0
LINE
  5
154
100
AcDbEntity
 67
     1
  8
1
  6
Continuous
 62
     7
100
AcDbLine
 10
1.976374
 20
6.538548
 30
0.0
 11
1.938623
 21
6.538548
 31
0.0
  0
LINE
  5
155
100
AcDbEntity
 67
     1
  8
1
  6
Continuous
 62
     7
100
AcDbLine
 10
1.976374
 20
6.546547
 30
0.0
 11
1.908766
 21
6.546547
 31
0.0
  0
LINE
  5
156
100
AcDbEntity
 67
     1
  8
1
  6
Continuous
 62
     7
100
AcDbLine
 10
7.46202
 20
4.994007
 30
0.0
 11
7.46495
 21
4.986936
 31
0.0
  0
LINE
  5
157
100
AcDbEntity
 67
     1
  8
1
  6
Continuous
 62
     7
100
AcDbLine
 10
8.022583
 20
4.273153
 30
0.0
 11
7.977583
 21
4.273153
 31
0.0
  0
LINE
  5
158
100
AcDbEntity
 67
     1
  8
1
  6
Continuous
 62
     7
100
AcDbLine
 10
4.640244
 20
4.834625
 30
0.0
 11
4.640244
 21
4.744625
 31
0.0
  0
LINE
  5
159
100
AcDbEntity
 67
     1
  8
1
  6
Continuous
 62
     7
100
AcDbLine
 10
6.596283
 20
2.119882
 30
0.0
 11
10.760845
 21
2.119882
 31
0.0
  0
LINE
  5
15A
100
AcDbEntity
 67
     1
  8
1
  6
Continuous
 62
     7
100
AcDbLine
 10
6.481449
 20
5.463797
 30
0.0
 11
6.481449
 21
5.463817
 31
0.0
  0
LINE
  5
15B
100
AcDbEntity
 67
     1
  8
1
  6
Continuous
 62
     7
100
AcDbLine
 10
6.654608
 20
5.449638
 30
0.0
 11
6.654866
 21
5.449133
 31
0.0
  0
LINE
  5
15C
100
AcDbEntity
 67
     1
  8
1
  6
Continuous
 62
     7
100
AcDbLine
 10
6.970021
 20
4.388153
 30
0.0
 11
6.98538
 21
4.388153
 31
0.0
  0
LINE
  5
15D
100
AcDbEntity
 67
     1
  8
1
  6
Continuous
 62
     7
100
AcDbLine
 10
1.97173
 20
5.463797
 30
0.0
 11
1.961293
 21
5.454923
 31
0.0
  0
LINE
  5
15E
100
AcDbEntity
 67
     1
  8
1
  6
Continuous
 62
     7
100
AcDbLine
 10
3.909796
 20
5.584144
 30
0.0
 11
3.905437
 21
5.590234
 31
0.0
  0
LINE
  5
15F
100
AcDbEntity
 67
     1
  8
1
  6
Continuous
 62
     7
100
AcDbLine
 10
4.145233
 20
4.712132
 30
0.0
 11
4.145233
 21
4.249294
 31
0.0
  0
LINE
  5
160
100
AcDbEntity
 67
     1
  8
1
  6
Continuous
 62
     7
100
AcDbLine
 10
4.046374
 20
6.566547
 30
0.0
 11
4.084125
 21
6.566547
 31
0.0
  0
LINE
  5
161
100
AcDbEntity
 67
     1
  8
1
  6
Continuous
 62
     7
100
AcDbLine
 10
4.444587
 20
5.294
 30
0.0
 11
4.399587
 21
5.294
 31
0.0
  0
LINE
  5
162
100
AcDbEntity
 67
     1
  8
1
  6
Continuous
 62
     7
100
AcDbLine
 10
1.967515
 20
4.364295
 30
0.0
 11
1.914836
 21
4.364295
 31
0.0
  0
LINE
  5
163
100
AcDbEntity
 67
     1
  8
1
  6
Continuous
 62
     7
100
AcDbLine
 10
2.563436
 20
6.248797
 30
0.0
 11
2.608436
 21
6.248797
 31
0.0
  0
LINE
  5
164
100
AcDbEntity
 67
     1
  8
1
  6
Continuous
 62
     7
100
AcDbLine
 10
4.399587
 20
5.294
 30
0.0
 11
4.399587
 21
5.12525
 31
0.0
  0
LINE
  5
165
100
AcDbEntity
 67
     1
  8
1
  6
Continuous
 62
     7
100
AcDbLine
 10
4.640244
 20
5.764625
 30
0.0
 11
4.640244
 21
5.854625
 31
0.0
  0
LINE
  5
166
100
AcDbEntity
 67
     1
  8
1
  6
Continuous
 62
     7
100
AcDbLine
 10
7.46282
 20
5.442621
 30
0.0
 11
7.46202
 21
5.435742
 31
0.0
  0
LINE
  5
167
100
AcDbEntity
 67
     1
  8
1
  6
Continuous
 62
     7
100
AcDbLine
 10
7.125392
 20
5.470329
 30
0.0
 11
7.137239
 21
5.464342
 31
0.0
  0
LINE
  5
168
100
AcDbEntity
 67
     1
  8
1
  6
Continuous
 62
     7
100
AcDbLine
 10
6.650021
 20
4.428153
 30
0.0
 11
6.634662
 21
4.428153
 31
0.0
  0
LINE
  5
169
100
AcDbEntity
 67
     1
  8
1
  6
Continuous
 62
     7
100
AcDbLine
 10
4.14203
 20
5.462307
 30
0.0
 11
4.144141
 21
5.456576
 31
0.0
  0
LINE
  5
16A
100
AcDbEntity
 67
     1
  8
1
  6
Continuous
 62
     7
100
AcDbLine
 10
1.991617
 20
5.559876
 30
0.0
 11
2.014203
 21
5.579078
 31
0.0
  0
LINE
  5
16B
100
AcDbEntity
 67
     1
  8
1
  6
Continuous
 62
     7
100
AcDbLine
 10
1.976374
 20
6.532547
 30
0.0
 11
1.961015
 21
6.532547
 31
0.0
  0
LINE
  5
16C
100
AcDbEntity
 67
     1
  8
1
  6
Continuous
 62
     7
100
AcDbLine
 10
7.462521
 20
4.104403
 30
0.0
 11
7.507521
 21
4.104403
 31
0.0
  0
LINE
  5
16D
100
AcDbEntity
 67
     1
  8
1
  6
Continuous
 62
     7
100
AcDbLine
 10
4.638243
 20
5.764625
 30
0.0
 11
4.638243
 21
5.84716
 31
0.0
  0
LINE
  5
16E
100
AcDbEntity
 67
     1
  8
1
  6
Continuous
 62
     7
100
AcDbLine
 10
6.494648
 20
5.470329
 30
0.0
 11
6.482802
 21
5.464342
 31
0.0
  0
LINE
  5
16F
100
AcDbEntity
 67
     1
  8
1
  6
Continuous
 62
     7
100
AcDbLine
 10
6.607083
 20
5.486375
 30
0.0
 11
6.622851
 21
5.471983
 31
0.0
  0
LINE
  5
170
100
AcDbEntity
 67
     1
  8
1
  6
Continuous
 62
     7
100
AcDbLine
 10
6.650021
 20
4.386153
 30
0.0
 11
6.642126
 21
4.386153
 31
0.0
  0
LINE
  5
171
100
AcDbEntity
 67
     1
  8
1
  6
Continuous
 62
     7
100
AcDbLine
 10
4.08844
 20
4.993994
 30
0.0
 11
4.088344
 21
5.418198
 31
0.0
  0
LINE
  5
172
100
AcDbEntity
 67
     1
  8
1
  6
Continuous
 62
     7
100
AcDbLine
 10
4.008545
 20
5.579078
 30
0.0
 11
4.03113
 21
5.559876
 31
0.0
  0
LINE
  5
173
100
AcDbEntity
 67
     1
  8
1
  6
Continuous
 62
     7
100
AcDbLine
 10
4.046374
 20
6.536548
 30
0.0
 11
4.076661
 21
6.536548
 31
0.0
  0
LINE
  5
174
100
AcDbEntity
 67
     1
  8
1
  6
Continuous
 62
     7
100
AcDbLine
 10
4.648243
 20
4.834625
 30
0.0
 11
4.648243
 21
4.774481
 31
0.0
  0
LINE
  5
175
100
AcDbEntity
 67
     1
  8
1
  6
Continuous
 62
     7
100
AcDbLine
 10
6.657221
 20
5.442621
 30
0.0
 11
6.654866
 21
5.449133
 31
0.0
  0
LINE
  5
176
100
AcDbEntity
 67
     1
  8
1
  6
Continuous
 62
     7
100
AcDbLine
 10
7.482802
 20
5.464342
 30
0.0
 11
7.481449
 21
5.463817
 31
0.0
  0
LINE
  5
177
100
AcDbEntity
 67
     1
  8
1
  6
Continuous
 62
     7
100
AcDbLine
 10
6.512959
 20
5.486375
 30
0.0
 11
6.49719
 21
5.471983
 31
0.0
  0
LINE
  5
178
100
AcDbEntity
 67
     1
  8
1
  6
Continuous
 62
     7
100
AcDbLine
 10
1.877564
 20
4.994007
 30
0.0
 11
1.877563
 21
4.986936
 31
0.0
  0
LINE
  5
179
100
AcDbEntity
 67
     1
  8
1
  6
Continuous
 62
     7
100
AcDbLine
 10
4.616243
 20
5.764625
 30
0.0
 11
4.616243
 21
5.765055
 31
0.0
  0
LINE
  5
17A
100
AcDbEntity
 67
     1
  8
1
  6
Continuous
 62
     7
100
AcDbLine
 10
4.08501
 20
5.513564
 30
0.0
 11
3.998749
 21
5.601065
 31
0.0
  0
LINE
  5
17B
100
AcDbEntity
 67
     1
  8
1
  6
Continuous
 62
     7
100
AcDbLine
 10
1.976374
 20
6.574548
 30
0.0
 11
1.968479
 21
6.574548
 31
0.0
  0
LINE
  5
17C
100
AcDbEntity
 67
     1
  8
1
  6
Continuous
 62
     7
100
AcDbLine
 10
4.055233
 20
4.362294
 30
0.0
 11
4.100448
 21
4.362294
 31
0.0
  0
LINE
  5
17D
100
AcDbEntity
 67
     1
  8
1
  6
Continuous
 62
     7
100
AcDbLine
 10
4.632243
 20
5.764625
 30
0.0
 11
4.632243
 21
5.824768
 31
0.0
  0
LINE
  5
17E
100
AcDbEntity
 67
     1
  8
1
  6
Continuous
 62
     7
100
AcDbLine
 10
0.3125
 20
1.60597
 30
0.0
 11
6.596283
 21
1.60597
 31
0.0
  0
LINE
  5
17F
100
AcDbEntity
 67
     1
  8
1
  6
Continuous
 62
     7
100
AcDbLine
 10
6.65801
 20
5.436498
 30
0.0
 11
6.65802
 21
5.435728
 31
0.0
  0
LINE
  5
180
100
AcDbEntity
 67
     1
  8
1
  6
Continuous
 62
     7
100
AcDbLine
 10
6.970021
 20
4.408153
 30
0.0
 11
7.06002
 21
4.408153
 31
0.0
  0
LINE
  5
181
100
AcDbEntity
 67
     1
  8
1
  6
Continuous
 62
     7
100
AcDbLine
 10
4.102121
 20
4.822408
 30
0.0
 11
4.088479
 21
4.820782
 31
0.0
  0
LINE
  5
182
100
AcDbEntity
 67
     1
  8
1
  6
Continuous
 62
     7
100
AcDbLine
 10
3.986724
 20
5.599257
 30
0.0
 11
3.985202
 21
5.605187
 31
0.0
  0
LINE
  5
183
100
AcDbEntity
 67
     1
  8
1
  6
Continuous
 62
     7
100
AcDbLine
 10
4.046374
 20
6.530548
 30
0.0
 11
4.054269
 21
6.530548
 31
0.0
  0
LINE
  5
184
100
AcDbEntity
 67
     1
  8
1
  6
Continuous
 62
     7
100
AcDbLine
 10
6.965175
 20
5.449133
 30
0.0
 11
6.96282
 21
5.442621
 31
0.0
  0
LINE
  5
185
100
AcDbEntity
 67
     1
  8
1
  6
Continuous
 62
     7
100
AcDbLine
 10
7.47859
 20
5.462567
 30
0.0
 11
7.481449
 21
5.463817
 31
0.0
  0
LINE
  5
186
100
AcDbEntity
 67
     1
  8
1
  6
Continuous
 62
     7
100
AcDbLine
 10
6.107083
 20
5.486375
 30
0.0
 11
6.122851
 21
5.471983
 31
0.0
  0
LINE
  5
187
100
AcDbEntity
 67
     1
  8
1
  6
Continuous
 62
     7
100
AcDbLine
 10
6.650021
 20
4.408153
 30
0.0
 11
6.56002
 21
4.408153
 31
0.0
  0
LINE
  5
188
100
AcDbEntity
 67
     1
  8
1
  6
Continuous
 62
     7
100
AcDbLine
 10
4.115232
 20
4.744625
 30
0.0
 11
1.907515
 21
4.744625
 31
0.0
  0
LINE
  5
189
100
AcDbEntity
 67
     1
  8
1
  6
Continuous
 62
     7
100
AcDbLine
 10
2.120715
 20
5.60096
 30
0.0
 11
2.119438
 21
5.595181
 31
0.0
  0
LINE
  5
18A
100
AcDbEntity
 67
     1
  8
1
  6
Continuous
 62
     7
100
AcDbLine
 10
4.616128
 20
5.764625
 30
0.0
 11
4.664359
 21
5.764625
 31
0.0
  0
LINE
  5
18B
100
AcDbEntity
 67
     1
  8
1
  6
Continuous
 62
     7
100
AcDbLine
 10
1.976374
 20
6.552547
 30
0.0
 11
1.886374
 21
6.552547
 31
0.0
  0
LINE
  5
18C
100
AcDbEntity
 67
     1
  8
1
  6
Continuous
 62
     7
100
AcDbLine
 10
4.626243
 20
5.764625
 30
0.0
 11
4.626243
 21
5.802376
 31
0.0
  0
LINE
  5
18D
100
AcDbEntity
 67
     1
  8
1
  6
Continuous
 62
     7
100
AcDbLine
 10
1.74527
 20
0.3125
 30
0.0
 11
1.74527
 21
2.635795
 31
0.0
  0
LINE
  5
18E
100
AcDbEntity
 67
     1
  8
1
  6
Continuous
 62
     7
100
AcDbLine
 10
6.154866
 20
5.449133
 30
0.0
 11
6.465175
 21
5.449133
 31
0.0
  0
LINE
  5
18F
100
AcDbEntity
 67
     1
  8
1
  6
Continuous
 62
     7
100
AcDbLine
 10
6.994648
 20
5.470329
 30
0.0
 11
6.982802
 21
5.464342
 31
0.0
  0
LINE
  5
190
100
AcDbEntity
 67
     1
  8
1
  6
Continuous
 62
     7
100
AcDbLine
 10
6.970021
 20
4.402153
 30
0.0
 11
7.037628
 21
4.402153
 31
0.0
  0
LINE
  5
191
100
AcDbEntity
 67
     1
  8
1
  6
Continuous
 62
     7
100
AcDbLine
 10
1.920627
 20
4.822408
 30
0.0
 11
1.920623
 21
4.804625
 31
0.0
  0
LINE
  5
192
100
AcDbEntity
 67
     1
  8
1
  6
Continuous
 62
     7
100
AcDbLine
 10
4.046374
 20
6.552547
 30
0.0
 11
4.136374
 21
6.552547
 31
0.0
  0
LINE
  5
193
100
AcDbEntity
 67
     1
  8
1
  6
Continuous
 62
     7
100
AcDbLine
 10
4.640244
 20
5.854625
 30
0.0
 11
4.640244
 21
5.5365
 31
0.0
  0
LINE
  5
194
100
AcDbEntity
 67
     1
  8
1
  6
Continuous
 62
     7
100
AcDbLine
 10
6.96202
 20
4.994007
 30
0.0
 11
6.96495
 21
4.986936
 31
0.0
  0
LINE
  5
195
100
AcDbEntity
 67
     1
  8
1
  6
Continuous
 62
     7
100
AcDbLine
 10
6.15801
 20
5.436498
 30
0.0
 11
6.15802
 21
5.435728
 31
0.0
  0
LINE
  5
196
100
AcDbEntity
 67
     1
  8
1
  6
Continuous
 62
     7
100
AcDbLine
 10
6.650021
 20
4.414153
 30
0.0
 11
6.582413
 21
4.414153
 31
0.0
  0
LINE
  5
197
100
AcDbEntity
 67
     1
  8
1
  6
Continuous
 62
     7
100
AcDbLine
 10
0.3125
 20
8.26636
 30
0.0
 11
10.760845
 21
8.26636
 31
0.0
  0
LINE
  5
198
100
AcDbEntity
 67
     1
  8
1
  6
Continuous
 62
     7
100
AcDbLine
 10
4.145185
 20
4.986936
 30
0.0
 11
4.145183
 21
4.994007
 31
0.0
  0
LINE
  5
199
100
AcDbEntity
 67
     1
  8
1
  6
Continuous
 62
     7
100
AcDbLine
 10
1.956374
 20
5.794625
 30
0.0
 11
4.066374
 21
5.794625
 31
0.0
  0
LINE
  5
19A
100
AcDbEntity
 67
     1
  8
1
  6
Continuous
 62
     7
100
AcDbLine
 10
4.055233
 20
4.350294
 30
0.0
 11
4.055664
 21
4.350294
 31
0.0
  0
LINE
  5
19B
100
AcDbEntity
 67
     1
  8
1
  6
Continuous
 62
     7
100
AcDbLine
 10
6.56002
 20
4.408153
 30
0.0
 11
7.150021
 21
4.408153
 31
0.0
  0
LINE
  5
19C
100
AcDbEntity
 67
     1
  8
1
  6
Continuous
 62
     7
100
AcDbLine
 10
0.657427
 20
0.3125
 30
0.0
 11
0.657427
 21
2.635795
 31
0.0
  0
LINE
  5
19D
100
AcDbEntity
 67
     1
  8
1
  6
Continuous
 62
     7
100
AcDbLine
 10
6.141959
 20
5.462307
 30
0.0
 11
6.149606
 21
5.456576
 31
0.0
  0
LINE
  5
19E
100
AcDbEntity
 67
     1
  8
1
  6
Continuous
 62
     7
100
AcDbLine
 10
6.971318
 20
5.457454
 30
0.0
 11
6.97859
 21
5.462567
 31
0.0
  0
LINE
  5
19F
100
AcDbEntity
 67
     1
  8
1
  6
Continuous
 62
     7
100
AcDbLine
 10
6.970021
 20
4.396153
 30
0.0
 11
7.015236
 21
4.396153
 31
0.0
  0
LINE
  5
1A0
100
AcDbEntity
 67
     1
  8
1
  6
Continuous
 62
     7
100
AcDbLine
 10
1.934306
 20
4.983994
 30
0.0
 11
1.934306
 21
4.986923
 31
0.0
  0
LINE
  5
1A1
100
AcDbEntity
 67
     1
  8
1
  6
Continuous
 62
     7
100
AcDbLine
 10
3.901511
 20
5.605339
 30
0.0
 11
3.890875
 21
5.694531
 31
0.0
  0
LINE
  5
1A2
100
AcDbEntity
 67
     1
  8
1
  6
Continuous
 62
     7
100
AcDbLine
 10
4.046374
 20
6.558547
 30
0.0
 11
4.113982
 21
6.558547
 31
0.0
  0
LINE
  5
1A3
100
AcDbEntity
 67
     1
  8
1
  6
Continuous
 62
     7
100
AcDbLine
 10
4.95965
 20
5.294
 30
0.0
 11
4.914649
 21
5.294
 31
0.0
  0
LINE
  5
1A4
100
AcDbEntity
 67
     1
  8
1
  6
Continuous
 62
     7
100
AcDbLine
 10
4.664243
 20
4.834625
 30
0.0
 11
4.664243
 21
4.834194
 31
0.0
  0
LINE
  5
1A5
100
AcDbEntity
 67
     1
  8
1
  6
Continuous
 62
     7
100
AcDbLine
 10
7.148021
 20
4.984007
 30
0.0
 11
7.155092
 21
4.986936
 31
0.0
  0
LINE
  5
1A6
100
AcDbEntity
 67
     1
  8
1
  6
Continuous
 62
     7
100
AcDbLine
 10
7.149606
 20
5.456576
 30
0.0
 11
7.154608
 21
5.449638
 31
0.0
  0
LINE
  5
1A7
100
AcDbEntity
 67
     1
  8
1
  6
Continuous
 62
     7
100
AcDbLine
 10
6.06002
 20
5.844625
 30
0.0
 11
6.06002
 21
5.851696
 31
0.0
  0
LINE
  5
1A8
100
AcDbEntity
 67
     1
  8
1
  6
Continuous
 62
     7
100
AcDbLine
 10
6.650021
 20
4.420153
 30
0.0
 11
6.604805
 21
4.420153
 31
0.0
  0
LINE
  5
1A9
100
AcDbEntity
 67
     1
  8
1
  6
Continuous
 62
     7
100
AcDbLine
 10
4.145082
 20
5.442621
 30
0.0
 11
4.145081
 21
5.449133
 31
0.0
  0
LINE
  5
1AA
100
AcDbEntity
 67
     1
  8
1
  6
Continuous
 62
     7
100
AcDbLine
 10
2.034101
 20
5.59629
 30
0.0
 11
2.032278
 21
5.594445
 31
0.0
  0
LINE
  5
1AB
100
AcDbEntity
 67
     1
  8
1
  6
Continuous
 62
     7
100
AcDbLine
 10
1.976374
 20
6.540547
 30
0.0
 11
1.931159
 21
6.540547
 31
0.0
  0
LINE
  5
1AC
100
AcDbEntity
 67
     1
  8
1
  6
Continuous
 62
     7
100
AcDbLine
 10
6.596283
 20
2.866795
 30
0.0
 11
6.596283
 21
0.3125
 31
0.0
  0
LINE
  5
1AD
100
AcDbEntity
 67
     1
  8
1
  6
Continuous
 62
     7
100
AcDbLine
 10
6.138592
 20
5.463797
 30
0.0
 11
6.138592
 21
5.463817
 31
0.0
  0
LINE
  5
1AE
100
AcDbEntity
 67
     1
  8
1
  6
Continuous
 62
     7
100
AcDbLine
 10
6.654866
 20
5.449133
 30
0.0
 11
6.965175
 21
5.449133
 31
0.0
  0
LINE
  5
1AF
100
AcDbEntity
 67
     1
  8
1
  6
Continuous
 62
     7
100
AcDbLine
 10
6.970021
 20
4.390153
 30
0.0
 11
6.992844
 21
4.390153
 31
0.0
  0
LINE
  5
1B0
100
AcDbEntity
 67
     1
  8
1
  6
Continuous
 62
     7
100
AcDbLine
 10
1.961293
 20
5.454923
 30
0.0
 11
1.944972
 21
5.441048
 31
0.0
  0
LINE
  5
1B1
100
AcDbEntity
 67
     1
  8
1
  6
Continuous
 62
     7
100
AcDbLine
 10
3.905437
 20
5.590234
 30
0.0
 11
3.902321
 21
5.59906
 31
0.0
  0
LINE
  5
1B2
100
AcDbEntity
 67
     1
  8
1
  6
Continuous
 62
     7
100
AcDbLine
 10
1.877515
 20
4.712132
 30
0.0
 11
1.877515
 21
4.249294
 31
0.0
  0
LINE
  5
1B3
100
AcDbEntity
 67
     1
  8
1
  6
Continuous
 62
     7
100
AcDbLine
 10
10.760845
 20
2.635795
 30
0.0
 11
0.3125
 21
2.635795
 31
0.0
  0
LINE
  5
1B4
100
AcDbEntity
 67
     1
  8
1
  6
Continuous
 62
     7
100
AcDbLine
 10
4.399587
 20
5.12525
 30
0.0
 11
4.444587
 21
5.12525
 31
0.0
  0
LINE
  5
1B5
100
AcDbEntity
 67
     1
  8
1
  6
Continuous
 62
     7
100
AcDbLine
 10
4.640244
 20
4.744625
 30
0.0
 11
4.664359
 21
4.834625
 31
0.0
  0
LINE
  5
1B6
100
AcDbEntity
 67
     1
  8
1
  6
Continuous
 62
     7
100
AcDbLine
 10
7.15802
 20
5.435742
 30
0.0
 11
7.157221
 21
5.442621
 31
0.0
  0
LINE
  5
1B7
100
AcDbEntity
 67
     1
  8
1
  6
Continuous
 62
     7
100
AcDbLine
 10
7.137239
 20
5.464342
 30
0.0
 11
7.138592
 21
5.463817
 31
0.0
  0
LINE
  5
1B8
100
AcDbEntity
 67
     1
  8
1
  6
Continuous
 62
     7
100
AcDbLine
 10
6.06002
 20
5.844625
 30
0.0
 11
7.557752
 21
5.844625
 31
0.0
  0
LINE
  5
1B9
100
AcDbEntity
 67
     1
  8
1
  6
Continuous
 62
     7
100
AcDbLine
 10
6.650021
 20
4.426153
 30
0.0
 11
6.627197
 21
4.426153
 31
0.0
  0
LINE
  5
1BA
100
AcDbEntity
 67
     1
  8
1
  6
Continuous
 62
     7
100
AcDbLine
 10
4.144141
 20
5.456576
 30
0.0
 11
4.145076
 21
5.449638
 31
0.0
  0
LINE
  5
1BB
100
AcDbEntity
 67
     1
  8
1
  6
Continuous
 62
     7
100
AcDbLine
 10
2.014203
 20
5.579078
 30
0.0
 11
2.032278
 21
5.594445
 31
0.0
  0
LINE
  5
1BC
100
AcDbEntity
 67
     1
  8
1
  6
Continuous
 62
     7
100
AcDbLine
 10
1.937738
 20
5.513564
 30
0.0
 11
2.023999
 21
5.601065
 31
0.0
  0
LINE
  5
1BD
100
AcDbEntity
 67
     1
  8
1
  6
Continuous
 62
     7
100
AcDbLine
 10
1.976374
 20
6.534547
 30
0.0
 11
1.953551
 21
6.534547
 31
0.0
  0
LINE
  5
1BE
100
AcDbEntity
 67
     1
  8
1
  6
Continuous
 62
     7
100
AcDbLine
 10
7.977583
 20
4.104403
 30
0.0
 11
8.022583
 21
4.104403
 31
0.0
  0
LINE
  5
1BF
100
AcDbEntity
 67
     1
  8
1
  6
Continuous
 62
     7
100
AcDbLine
 10
4.636243
 20
4.834625
 30
0.0
 11
4.636243
 21
4.759553
 31
0.0
  0
LINE
  5
1C0
100
AcDbEntity
 67
     1
  8
1
  6
Continuous
 62
     7
100
AcDbLine
 10
6.981449
 20
5.463797
 30
0.0
 11
6.981449
 21
5.463817
 31
0.0
  0
LINE
  5
1C1
100
AcDbEntity
 67
     1
  8
1
  6
Continuous
 62
     7
100
AcDbLine
 10
6.138592
 20
5.463797
 30
0.0
 11
6.151072
 21
5.454923
 31
0.0
  0
LINE
  5
1C2
100
AcDbEntity
 67
     1
  8
1
  6
Continuous
 62
     7
100
AcDbLine
 10
6.970021
 20
4.384153
 30
0.0
 11
6.970451
 21
4.384153
 31
0.0
  0
LINE
  5
1C3
100
AcDbEntity
 67
     1
  8
1
  6
Continuous
 62
     7
100
AcDbLine
 10
2.067137
 20
5.54491
 30
0.0
 11
2.090058
 21
5.564397
 31
0.0
  0
LINE
  5
1C4
100
AcDbEntity
 67
     1
  8
1
  6
Continuous
 62
     7
100
AcDbLine
 10
3.123499
 20
4.070544
 30
0.0
 11
3.123499
 21
4.239295
 31
0.0
  0
LINE
  5
1C5
100
AcDbEntity
 67
     1
  8
1
  6
Continuous
 62
     7
100
AcDbLine
 10
7.46202
 20
4.994007
 30
0.0
 11
7.46202
 21
5.435742
 31
0.0
  0
LINE
  5
1C6
100
AcDbEntity
 67
     1
  8
1
  6
Continuous
 62
     7
100
AcDbLine
 10
7.122851
 20
5.471983
 30
0.0
 11
7.49719
 21
5.471983
 31
0.0
  0
LINE
  5
1C7
100
AcDbEntity
 67
     1
  8
1
  6
Continuous
 62
     7
100
AcDbLine
 10
6.06002
 20
5.534625
 30
0.0
 11
6.06002
 21
5.519625
 31
0.0
  0
LINE
  5
1C8
100
AcDbEntity
 67
     1
  8
1
  6
Continuous
 62
     7
100
AcDbLine
 10
6.650021
 20
4.432153
 30
0.0
 11
6.64959
 21
4.432153
 31
0.0
  0
LINE
  5
1C9
100
AcDbEntity
 67
     1
  8
1
  6
Continuous
 62
     7
100
AcDbLine
 10
4.140936
 20
5.464342
 30
0.0
 11
4.141238
 21
5.463817
 31
0.0
  0
LINE
  5
1CA
100
AcDbEntity
 67
     1
  8
1
  6
Continuous
 62
     7
100
AcDbLine
 10
1.940818
 20
5.516688
 30
0.0
 11
1.966442
 21
5.538473
 31
0.0
  0
LINE
  5
1CB
100
AcDbEntity
 67
     1
  8
1
  6
Continuous
 62
     7
100
AcDbLine
 10
1.976374
 20
6.528548
 30
0.0
 11
1.975943
 21
6.528548
 31
0.0
  0
LINE
  5
1CC
100
AcDbEntity
 67
     1
  8
1
  6
Continuous
 62
     7
100
AcDbLine
 10
4.055233
 20
4.388294
 30
0.0
 11
4.092984
 21
4.388294
 31
0.0
  0
LINE
  5
1CD
100
AcDbEntity
 67
     1
  8
1
  6
Continuous
 62
     7
100
AcDbLine
 10
7.507521
 20
4.273153
 30
0.0
 11
7.462521
 21
4.273153
 31
0.0
  0
LINE
  5
1CE
100
AcDbEntity
 67
     1
  8
1
  6
Continuous
 62
     7
100
AcDbLine
 10
4.630243
 20
4.834625
 30
0.0
 11
4.630243
 21
4.781945
 31
0.0
  0
LINE
  5
1CF
100
AcDbEntity
 67
     1
  8
1
  6
Continuous
 62
     7
100
AcDbLine
 10
6.06002
 20
4.744625
 30
0.0
 11
7.557752
 21
4.744625
 31
0.0
  0
LINE
  5
1D0
100
AcDbEntity
 67
     1
  8
1
  6
Continuous
 62
     7
100
AcDbLine
 10
6.499185
 20
5.473366
 30
0.0
 11
6.481449
 21
5.463797
 31
0.0
  0
LINE
  5
1D1
100
AcDbEntity
 67
     1
  8
1
  6
Continuous
 62
     7
100
AcDbLine
 10
6.625392
 20
5.470329
 30
0.0
 11
6.637239
 21
5.464342
 31
0.0
  0
LINE
  5
1D2
100
AcDbEntity
 67
     1
  8
1
  6
Continuous
 62
     7
100
AcDbLine
 10
6.970021
 20
4.410153
 30
0.0
 11
7.052557
 21
4.410153
 31
0.0
  0
LINE
  5
1D3
100
AcDbEntity
 67
     1
  8
1
  6
Continuous
 62
     7
100
AcDbLine
 10
2.0
 20
5.487534
 30
0.0
 11
2.020215
 21
5.505018
 31
0.0
  0
LINE
  5
1D4
100
AcDbEntity
 67
     1
  8
1
  6
Continuous
 62
     7
100
AcDbLine
 10
4.051836
 20
5.718453
 30
0.0
 11
4.045548
 21
5.721148
 31
0.0
  0
LINE
  5
1D5
100
AcDbEntity
 67
     1
  8
1
  6
Continuous
 62
     7
100
AcDbLine
 10
2.563436
 20
4.239295
 30
0.0
 11
2.563436
 21
4.070544
 31
0.0
  0
LINE
  5
1D6
100
AcDbEntity
 67
     1
  8
1
  6
Continuous
 62
     7
100
AcDbLine
 10
4.046374
 20
6.576548
 30
0.0
 11
4.046804
 21
6.576548
 31
0.0
  0
LINE
  5
1D7
100
AcDbEntity
 67
     1
  8
1
  6
Continuous
 62
     7
100
AcDbLine
 10
1.967515
 20
4.354294
 30
0.0
 11
1.952156
 21
4.354294
 31
0.0
  0
LINE
  5
1D8
100
AcDbEntity
 67
     1
  8
1
  6
Continuous
 62
     7
100
AcDbLine
 10
4.650243
 20
5.764625
 30
0.0
 11
4.650243
 21
5.817304
 31
0.0
  0
LINE
  5
1D9
100
AcDbEntity
 67
     1
  8
1
  6
Continuous
 62
     7
100
AcDbLine
 10
7.472021
 20
4.984007
 30
0.0
 11
7.557752
 21
4.984007
 31
0.0
  0
LINE
  5
1DA
100
AcDbEntity
 67
     1
  8
1
  6
Continuous
 62
     7
100
AcDbLine
 10
6.650021
 20
4.406153
 30
0.0
 11
6.567485
 21
4.406153
 31
0.0
  0
LINE
  5
1DB
100
AcDbEntity
 67
     1
  8
1
  6
Continuous
 62
     7
100
AcDbLine
 10
4.061455
 20
5.454923
 30
0.0
 11
4.077776
 21
5.441048
 31
0.0
  0
LINE
  5
1DC
100
AcDbEntity
 67
     1
  8
1
  6
Continuous
 62
     7
100
AcDbLine
 10
1.976374
 20
6.528432
 30
0.0
 11
1.976374
 21
6.576663
 31
0.0
  0
LINE
  5
1DD
100
AcDbEntity
 67
     1
  8
1
  6
Continuous
 62
     7
100
AcDbLine
 10
4.055233
 20
4.394294
 30
0.0
 11
4.070591
 21
4.394294
 31
0.0
  0
LINE
  5
1DE
100
AcDbEntity
 67
     1
  8
1
  6
Continuous
 62
     7
100
AcDbLine
 10
1.967515
 20
4.378294
 30
0.0
 11
1.892443
 21
4.378294
 31
0.0
  0
LINE
  5
1DF
100
AcDbEntity
 67
     1
  8
1
  6
Continuous
 62
     7
100
AcDbLine
 10
1.886374
 20
5.907125
 30
0.0
 11
1.886374
 21
6.677547
 31
0.0
  0
LINE
  5
1E0
100
AcDbEntity
 67
     1
  8
1
  6
Continuous
 62
     7
100
AcDbLine
 10
4.624243
 20
4.834625
 30
0.0
 11
4.624243
 21
4.804338
 31
0.0
  0
LINE
  5
1E1
100
AcDbEntity
 67
     1
  8
1
  6
Continuous
 62
     7
100
AcDbLine
 10
0.3125
 20
8.26636
 30
0.0
 11
0.3125
 21
0.3125
 31
0.0
  0
LINE
  5
1E2
100
AcDbEntity
 67
     1
  8
1
  6
Continuous
 62
     7
100
AcDbLine
 10
4.644243
 20
5.764625
 30
0.0
 11
4.644243
 21
5.839696
 31
0.0
  0
LINE
  5
1E3
100
AcDbEntity
 67
     1
  8
1
  6
Continuous
 62
     7
100
AcDbLine
 10
6.120856
 20
5.473366
 30
0.0
 11
6.138592
 21
5.463797
 31
0.0
  0
LINE
  5
1E4
100
AcDbEntity
 67
     1
  8
1
  6
Continuous
 62
     7
100
AcDbLine
 10
0.3125
 20
0.847101
 30
0.0
 11
7.368841
 21
0.847101
 31
0.0
  0
LINE
  5
1E5
100
AcDbEntity
 67
     1
  8
1
  6
Continuous
 62
     7
100
AcDbLine
 10
6.651072
 20
5.454923
 30
0.0
 11
6.657545
 21
5.441048
 31
0.0
  0
LINE
  5
1E6
100
AcDbEntity
 67
     1
  8
1
  6
Continuous
 62
     7
100
AcDbLine
 10
6.970021
 20
4.416153
 30
0.0
 11
7.030164
 21
4.416153
 31
0.0
  0
LINE
  5
1E7
100
AcDbEntity
 67
     1
  8
1
  6
Continuous
 62
     7
100
AcDbLine
 10
1.886283
 20
5.470168
 30
0.0
 11
1.888235
 21
5.471983
 31
0.0
  0
LINE
  5
1E8
100
AcDbEntity
 67
     1
  8
1
  6
Continuous
 62
     7
100
AcDbLine
 10
1.976374
 20
6.554547
 30
0.0
 11
1.893838
 21
6.554547
 31
0.0
  0
LINE
  5
1E9
100
AcDbEntity
 67
     1
  8
1
  6
Continuous
 62
     7
100
AcDbLine
 10
4.656243
 20
5.764625
 30
0.0
 11
4.656243
 21
5.794912
 31
0.0
  0
LINE
  5
1EA
100
AcDbEntity
 67
     1
  8
1
  6
Continuous
 62
     7
100
AcDbLine
 10
6.06002
 20
4.984007
 30
0.0
 11
6.148021
 21
4.984007
 31
0.0
  0
LINE
  5
1EB
100
AcDbEntity
 67
     1
  8
1
  6
Continuous
 62
     7
100
AcDbLine
 10
7.513732
 20
5.487311
 30
0.0
 11
7.499185
 21
5.473366
 31
0.0
  0
LINE
  5
1EC
100
AcDbEntity
 67
     1
  8
1
  6
Continuous
 62
     7
100
AcDbLine
 10
6.650021
 20
4.400153
 30
0.0
 11
6.589877
 21
4.400153
 31
0.0
  0
LINE
  5
1ED
100
AcDbEntity
 67
     1
  8
1
  6
Continuous
 62
     7
100
AcDbLine
 10
2.131504
 20
5.70395
 30
0.0
 11
2.125534
 21
5.716794
 31
0.0
  0
LINE
  5
1EE
100
AcDbEntity
 67
     1
  8
1
  6
Continuous
 62
     7
100
AcDbLine
 10
4.046374
 20
6.550548
 30
0.0
 11
4.12891
 21
6.550548
 31
0.0
  0
LINE
  5
1EF
100
AcDbEntity
 67
     1
  8
1
  6
Continuous
 62
     7
100
AcDbLine
 10
1.967515
 20
4.384295
 30
0.0
 11
1.914836
 21
4.384295
 31
0.0
  0
LINE
  5
1F0
100
AcDbEntity
 67
     1
  8
1
  6
Continuous
 62
     7
100
AcDbLine
 10
4.618243
 20
4.834625
 30
0.0
 11
4.618243
 21
4.82673
 31
0.0
  0
LINE
  5
1F1
100
AcDbEntity
 67
     1
  8
1
  6
Continuous
 62
     7
100
AcDbLine
 10
4.136374
 20
6.552547
 30
0.0
 11
3.521811
 21
6.552547
 31
0.0
  0
LINE
  5
1F2
100
AcDbEntity
 67
     1
  8
1
  6
Continuous
 62
     7
100
AcDbLine
 10
6.46202
 20
4.994007
 30
0.0
 11
6.46202
 21
5.435742
 31
0.0
  0
LINE
  5
1F3
100
AcDbEntity
 67
     1
  8
1
  6
Continuous
 62
     7
100
AcDbLine
 10
7.512959
 20
5.486375
 30
0.0
 11
7.49719
 21
5.471983
 31
0.0
  0
LINE
  5
1F4
100
AcDbEntity
 67
     1
  8
1
  6
Continuous
 62
     7
100
AcDbLine
 10
5.461111
 20
0.3125
 30
0.0
 11
5.461111
 21
2.635795
 31
0.0
  0
LINE
  5
1F5
100
AcDbEntity
 67
     1
  8
1
  6
Continuous
 62
     7
100
AcDbLine
 10
6.962496
 20
5.441048
 30
0.0
 11
6.968969
 21
5.454923
 31
0.0
  0
LINE
  5
1F6
100
AcDbEntity
 67
     1
  8
1
  6
Continuous
 62
     7
100
AcDbLine
 10
6.970021
 20
4.422153
 30
0.0
 11
7.007772
 21
4.422153
 31
0.0
  0
LINE
  5
1F7
100
AcDbEntity
 67
     1
  8
1
  6
Continuous
 62
     7
100
AcDbLine
 10
1.880265
 20
5.461338
 30
0.0
 11
1.878215
 21
5.454833
 31
0.0
  0
LINE
  5
1F8
100
AcDbEntity
 67
     1
  8
1
  6
Continuous
 62
     7
100
AcDbLine
 10
4.662243
 20
5.764625
 30
0.0
 11
4.662243
 21
5.77252
 31
0.0
  0
LINE
  5
1F9
100
AcDbEntity
 67
     1
  8
1
  6
Continuous
 62
     7
100
AcDbLine
 10
1.877515
 20
4.374294
 30
0.0
 11
2.500936
 21
4.374294
 31
0.0
  0
LINE
  5
1FA
100
AcDbEntity
 67
     1
  8
1
  6
Continuous
 62
     7
100
AcDbLine
 10
6.15802
 20
4.994007
 30
0.0
 11
6.15802
 21
5.435742
 31
0.0
  0
LINE
  5
1FB
100
AcDbEntity
 67
     1
  8
1
  6
Continuous
 62
     7
100
AcDbLine
 10
7.106309
 20
5.487311
 30
0.0
 11
7.120856
 21
5.473366
 31
0.0
  0
LINE
  5
1FC
100
AcDbEntity
 67
     1
  8
1
  6
Continuous
 62
     7
100
AcDbLine
 10
6.650021
 20
4.394153
 30
0.0
 11
6.612269
 21
4.394153
 31
0.0
  0
LINE
  5
1FD
100
AcDbEntity
 67
     1
  8
1
  6
Continuous
 62
     7
100
AcDbLine
 10
3.078499
 20
4.070544
 30
0.0
 11
3.123499
 21
4.070544
 31
0.0
  0
LINE
  5
1FE
100
AcDbEntity
 67
     1
  8
1
  6
Continuous
 62
     7
100
AcDbLine
 10
4.046374
 20
6.544548
 30
0.0
 11
4.106517
 21
6.544548
 31
0.0
  0
LINE
  5
1FF
100
AcDbEntity
 67
     1
  8
1
  6
Continuous
 62
     7
100
AcDbLine
 10
6.06002
 20
5.854625
 30
0.0
 11
7.557752
 21
5.854625
 31
0.0
  0
LINE
  5
200
100
AcDbEntity
 67
     1
  8
1
  6
Continuous
 62
     7
100
AcDbLine
 10
4.145233
 20
4.374294
 30
0.0
 11
4.055233
 21
4.39841
 31
0.0
  0
LINE
  5
201
100
AcDbEntity
 67
     1
  8
1
  6
Continuous
 62
     7
100
AcDbLine
 10
1.967515
 20
4.390294
 30
0.0
 11
1.937228
 21
4.390294
 31
0.0
  0
LINE
  5
202
100
AcDbEntity
 67
     1
  8
1
  6
Continuous
 62
     7
100
AcDbLine
 10
6.472021
 20
4.984007
 30
0.0
 11
6.648021
 21
4.984007
 31
0.0
  0
LINE
  5
203
100
AcDbEntity
 67
     1
  8
1
  6
Continuous
 62
     7
100
AcDbLine
 10
7.09601
 20
5.504627
 30
0.0
 11
7.107083
 21
5.486375
 31
0.0
  0
LINE
  5
204
100
AcDbEntity
 67
     1
  8
1
  6
Continuous
 62
     7
100
AcDbLine
 10
7.024039
 20
5.504625
 30
0.0
 11
7.013732
 21
5.487311
 31
0.0
  0
LINE
  5
205
100
AcDbEntity
 67
     1
  8
1
  6
Continuous
 62
     7
100
AcDbLine
 10
6.970021
 20
4.428153
 30
0.0
 11
6.98538
 21
4.428153
 31
0.0
  0
LINE
  5
206
100
AcDbEntity
 67
     1
  8
1
  6
Continuous
 62
     7
100
AcDbLine
 10
1.877666
 20
5.442621
 30
0.0
 11
1.877664
 21
5.435742
 31
0.0
  0
LINE
  5
207
100
AcDbEntity
 67
     1
  8
1
  6
Continuous
 62
     7
100
AcDbLine
 10
1.970912
 20
5.718453
 30
0.0
 11
1.967828
 21
5.712348
 31
0.0
  0
LINE
  5
208
100
AcDbEntity
 67
     1
  8
1
  6
Continuous
 62
     7
100
AcDbLine
 10
3.123499
 20
6.248797
 30
0.0
 11
3.123499
 21
6.417548
 31
0.0
  0
LINE
  5
209
100
AcDbEntity
 67
     1
  8
1
  6
Continuous
 62
     7
100
AcDbLine
 10
1.896374
 20
5.854625
 30
0.0
 11
4.126374
 21
5.854625
 31
0.0
  0
LINE
  5
20A
100
AcDbEntity
 67
     1
  8
1
  6
Continuous
 62
     7
100
AcDbLine
 10
4.055233
 20
4.370294
 30
0.0
 11
4.130304
 21
4.370294
 31
0.0
  0
LINE
  5
20B
100
AcDbEntity
 67
     1
  8
1
  6
Continuous
 62
     7
100
AcDbLine
 10
4.640244
 20
5.764625
 30
0.0
 11
4.640244
 21
5.854625
 31
0.0
  0
LINE
  5
20C
100
AcDbEntity
 67
     1
  8
1
  6
Continuous
 62
     7
100
AcDbLine
 10
4.622243
 20
5.764625
 30
0.0
 11
4.622243
 21
5.787448
 31
0.0
  0
LINE
  5
20D
100
AcDbEntity
 67
     1
  8
1
  6
Continuous
 62
     7
100
AcDbLine
 10
6.482802
 20
5.464342
 30
0.0
 11
6.481449
 21
5.463817
 31
0.0
  0
LINE
  5
20E
100
AcDbEntity
 67
     1
  8
1
  6
Continuous
 62
     7
100
AcDbLine
 10
7.024031
 20
5.504627
 30
0.0
 11
7.012959
 21
5.486375
 31
0.0
  0
LINE
  5
20F
100
AcDbEntity
 67
     1
  8
1
  6
Continuous
 62
     7
100
AcDbLine
 10
6.650021
 20
4.388153
 30
0.0
 11
6.634662
 21
4.388153
 31
0.0
  0
LINE
  5
210
100
AcDbEntity
 67
     1
  8
1
  6
Continuous
 62
     7
100
AcDbLine
 10
4.088442
 20
4.983994
 30
0.0
 11
4.088479
 21
4.820782
 31
0.0
  0
LINE
  5
211
100
AcDbEntity
 67
     1
  8
1
  6
Continuous
 62
     7
100
AcDbLine
 10
4.03113
 20
5.559876
 30
0.0
 11
4.056306
 21
5.538473
 31
0.0
  0
LINE
  5
212
100
AcDbEntity
 67
     1
  8
1
  6
Continuous
 62
     7
100
AcDbLine
 10
4.046374
 20
6.538548
 30
0.0
 11
4.084125
 21
6.538548
 31
0.0
  0
LINE
  5
213
100
AcDbEntity
 67
     1
  8
1
  6
Continuous
 62
     7
100
AcDbLine
 10
7.557752
 20
5.364442
 30
0.0
 11
7.557752
 21
5.949629
 31
0.0
  0
LINE
  5
214
100
AcDbEntity
 67
     1
  8
1
  6
Continuous
 62
     7
100
AcDbLine
 10
6.06002
 20
5.508644
 30
0.0
 11
6.06002
 21
5.504625
 31
0.0
  0
LINE
  5
215
100
AcDbEntity
 67
     1
  8
1
  6
Continuous
 62
     7
100
AcDbLine
 10
4.646244
 20
4.834625
 30
0.0
 11
4.646244
 21
4.767017
 31
0.0
  0
LINE
  5
216
100
AcDbEntity
 67
     1
  8
1
  6
Continuous
 62
     7
100
AcDbLine
 10
6.65802
 20
4.994007
 30
0.0
 11
6.65802
 21
5.435742
 31
0.0
  0
LINE
  5
217
100
AcDbEntity
 67
     1
  8
1
  6
Continuous
 62
     7
100
AcDbLine
 10
7.157545
 20
5.441048
 30
0.0
 11
7.15801
 21
5.436498
 31
0.0
  0
LINE
  5
218
100
AcDbEntity
 67
     1
  8
1
  6
Continuous
 62
     7
100
AcDbLine
 10
6.596002
 20
5.504625
 30
0.0
 11
6.606309
 21
5.487311
 31
0.0
  0
LINE
  5
219
100
AcDbEntity
 67
     1
  8
1
  6
Continuous
 62
     7
100
AcDbLine
 10
4.634243
 20
4.834625
 30
0.0
 11
4.634243
 21
4.767017
 31
0.0
  0
LINE
  5
21A
100
AcDbEntity
 67
     1
  8
1
  6
Continuous
 62
     7
100
AcDbLine
 10
6.970021
 20
4.430153
 30
0.0
 11
6.977915
 21
4.430153
 31
0.0
  0
LINE
  5
21B
100
AcDbEntity
 67
     1
  8
1
  6
Continuous
 62
     7
100
AcDbLine
 10
7.138592
 20
5.463797
 30
0.0
 11
7.138592
 21
5.463817
 31
0.0
  0
LINE
  5
21C
100
AcDbEntity
 67
     1
  8
1
  6
Continuous
 62
     7
100
AcDbLine
 10
6.468969
 20
5.454923
 30
0.0
 11
6.481449
 21
5.463797
 31
0.0
  0
LINE
  5
21D
100
AcDbEntity
 67
     1
  8
1
  6
Continuous
 62
     7
100
AcDbLine
 10
6.638592
 20
5.463817
 30
0.0
 11
6.641959
 21
5.462307
 31
0.0
  0
LINE
  5
21E
100
AcDbEntity
 67
     1
  8
1
  6
Continuous
 62
     7
100
AcDbLine
 10
2.043273
 20
5.524621
 30
0.0
 11
2.067137
 21
5.54491
 31
0.0
  0
LINE
  5
21F
100
AcDbEntity
 67
     1
  8
1
  6
Continuous
 62
     7
100
AcDbLine
 10
4.082111
 20
5.436498
 30
0.0
 11
4.082685
 21
5.435728
 31
0.0
  0
LINE
  5
220
100
AcDbEntity
 67
     1
  8
1
  6
Continuous
 62
     7
100
AcDbLine
 10
4.046374
 20
6.572547
 30
0.0
 11
4.061733
 21
6.572547
 31
0.0
  0
LINE
  5
221
100
AcDbEntity
 67
     1
  8
1
  6
Continuous
 62
     7
100
AcDbLine
 10
1.967515
 20
4.358294
 30
0.0
 11
1.937228
 21
4.358294
 31
0.0
  0
LINE
  5
222
100
AcDbEntity
 67
     1
  8
1
  6
Continuous
 62
     7
100
AcDbLine
 10
7.46495
 20
4.986936
 30
0.0
 11
7.472021
 21
4.984007
 31
0.0
  0
LINE
  5
223
100
AcDbEntity
 67
     1
  8
1
  6
Continuous
 62
     7
100
AcDbLine
 10
7.151072
 20
5.454923
 30
0.0
 11
7.157545
 21
5.441048
 31
0.0
  0
LINE
  5
224
100
AcDbEntity
 67
     1
  8
1
  6
Continuous
 62
     7
100
AcDbLine
 10
6.06002
 20
5.534625
 30
0.0
 11
7.557752
 21
5.534625
 31
0.0
  0
LINE
  5
225
100
AcDbEntity
 67
     1
  8
1
  6
Continuous
 62
     7
100
AcDbLine
 10
4.136304
 20
5.470329
 30
0.0
 11
4.140936
 21
5.464342
 31
0.0
  0
LINE
  5
226
100
AcDbEntity
 67
     1
  8
1
  6
Continuous
 62
     7
100
AcDbLine
 10
1.907133
 20
5.488049
 30
0.0
 11
1.931322
 21
5.508615
 31
0.0
  0
LINE
  5
227
100
AcDbEntity
 67
     1
  8
1
  6
Continuous
 62
     7
100
AcDbLine
 10
1.976374
 20
6.528548
 30
0.0
 11
1.975943
 21
6.528548
 31
0.0
  0
LINE
  5
228
100
AcDbEntity
 67
     1
  8
1
  6
Continuous
 62
     7
100
AcDbLine
 10
1.967515
 20
4.374294
 30
0.0
 11
1.877515
 21
4.374294
 31
0.0
  0
LINE
  5
229
100
AcDbEntity
 67
     1
  8
1
  6
Continuous
 62
     7
100
AcDbLine
 10
4.628243
 20
4.834625
 30
0.0
 11
4.628243
 21
4.789409
 31
0.0
  0
LINE
  5
22A
100
AcDbEntity
 67
     1
  8
1
  6
Continuous
 62
     7
100
AcDbLine
 10
6.06002
 20
4.759628
 30
0.0
 11
6.06002
 21
4.774632
 31
0.0
  0
LINE
  5
22B
100
AcDbEntity
 67
     1
  8
1
  6
Continuous
 62
     7
100
AcDbLine
 10
6.513732
 20
5.487311
 30
0.0
 11
6.499185
 21
5.473366
 31
0.0
  0
LINE
  5
22C
100
AcDbEntity
 67
     1
  8
1
  6
Continuous
 62
     7
100
AcDbLine
 10
6.622851
 20
5.471983
 30
0.0
 11
6.625392
 21
5.470329
 31
0.0
  0
LINE
  5
22D
100
AcDbEntity
 67
     1
  8
1
  6
Continuous
 62
     7
100
AcDbLine
 10
6.970021
 20
4.412153
 30
0.0
 11
7.045093
 21
4.412153
 31
0.0
  0
LINE
  5
22E
100
AcDbEntity
 67
     1
  8
1
  6
Continuous
 62
     7
100
AcDbLine
 10
1.976374
 20
6.556548
 30
0.0
 11
1.901302
 21
6.556548
 31
0.0
  0
LINE
  5
22F
100
AcDbEntity
 67
     1
  8
1
  6
Continuous
 62
     7
100
AcDbLine
 10
1.983084
 20
5.47345
 30
0.0
 11
2.0
 21
5.487534
 31
0.0
  0
LINE
  5
230
100
AcDbEntity
 67
     1
  8
1
  6
Continuous
 62
     7
100
AcDbLine
 10
4.05492
 20
5.712348
 30
0.0
 11
4.051836
 21
5.718453
 31
0.0
  0
LINE
  5
231
100
AcDbEntity
 67
     1
  8
1
  6
Continuous
 62
     7
100
AcDbLine
 10
2.608436
 20
4.239295
 30
0.0
 11
2.563436
 21
4.239295
 31
0.0
  0
LINE
  5
232
100
AcDbEntity
 67
     1
  8
1
  6
Continuous
 62
     7
100
AcDbLine
 10
4.046374
 20
6.576548
 30
0.0
 11
4.046804
 21
6.576548
 31
0.0
  0
LINE
  5
233
100
AcDbEntity
 67
     1
  8
1
  6
Continuous
 62
     7
100
AcDbLine
 10
1.967515
 20
4.352294
 30
0.0
 11
1.95962
 21
4.352294
 31
0.0
  0
LINE
  5
234
100
AcDbEntity
 67
     1
  8
1
  6
Continuous
 62
     7
100
AcDbLine
 10
4.652243
 20
5.764625
 30
0.0
 11
4.652243
 21
5.80984
 31
0.0
  0
LINE
  5
235
100
AcDbEntity
 67
     1
  8
1
  6
Continuous
 62
     7
100
AcDbLine
 10
4.640244
 20
4.834625
 30
0.0
 11
4.640244
 21
4.744625
 31
0.0
  0
LINE
  5
236
100
AcDbEntity
 67
     1
  8
1
  6
Continuous
 62
     7
100
AcDbLine
 10
4.102125
 20
4.804625
 30
0.0
 11
1.920623
 21
4.804625
 31
0.0
  0
LINE
  5
237
100
AcDbEntity
 67
     1
  8
1
  6
Continuous
 62
     7
100
AcDbLine
 10
6.06002
 20
4.774632
 30
0.0
 11
7.557752
 21
4.774632
 31
0.0
  0
LINE
  5
238
100
AcDbEntity
 67
     1
  8
1
  6
Continuous
 62
     7
100
AcDbLine
 10
7.462496
 20
5.441048
 30
0.0
 11
7.468969
 21
5.454923
 31
0.0
  0
LINE
  5
239
100
AcDbEntity
 67
     1
  8
1
  6
Continuous
 62
     7
100
AcDbLine
 10
6.650021
 20
4.404153
 30
0.0
 11
6.574949
 21
4.404153
 31
0.0
  0
LINE
  5
23A
100
AcDbEntity
 67
     1
  8
1
  6
Continuous
 62
     7
100
AcDbLine
 10
4.051018
 20
5.463797
 30
0.0
 11
4.061455
 21
5.454923
 31
0.0
  0
LINE
  5
23B
100
AcDbEntity
 67
     1
  8
1
  6
Continuous
 62
     7
100
AcDbLine
 10
2.114337
 20
5.725466
 30
0.0
 11
2.100409
 21
5.728036
 31
0.0
  0
LINE
  5
23C
100
AcDbEntity
 67
     1
  8
1
  6
Continuous
 62
     7
100
AcDbLine
 10
1.886374
 20
6.552547
 30
0.0
 11
1.976374
 21
6.528432
 31
0.0
  0
LINE
  5
23D
100
AcDbEntity
 67
     1
  8
1
  6
Continuous
 62
     7
100
AcDbLine
 10
4.055233
 20
4.396294
 30
0.0
 11
4.063128
 21
4.396294
 31
0.0
  0
LINE
  5
23E
100
AcDbEntity
 67
     1
  8
1
  6
Continuous
 62
     7
100
AcDbLine
 10
1.967515
 20
4.380294
 30
0.0
 11
1.899907
 21
4.380294
 31
0.0
  0
LINE
  5
23F
100
AcDbEntity
 67
     1
  8
1
  6
Continuous
 62
     7
100
AcDbLine
 10
6.650021
 20
4.412153
 30
0.0
 11
6.574949
 21
4.412153
 31
0.0
  0
LINE
  5
240
100
AcDbEntity
 67
     1
  8
1
  6
Continuous
 62
     7
100
AcDbLine
 10
4.622243
 20
4.834625
 30
0.0
 11
4.622243
 21
4.811801
 31
0.0
  0
LINE
  5
241
100
AcDbEntity
 67
     1
  8
1
  6
Continuous
 62
     7
100
AcDbLine
 10
6.46282
 20
5.442621
 30
0.0
 11
6.46202
 21
5.435742
 31
0.0
  0
LINE
  5
242
100
AcDbEntity
 67
     1
  8
1
  6
Continuous
 62
     7
100
AcDbLine
 10
6.106309
 20
5.487311
 30
0.0
 11
6.120856
 21
5.473366
 31
0.0
  0
LINE
  5
243
100
AcDbEntity
 67
     1
  8
1
  6
Continuous
 62
     7
100
AcDbLine
 10
0.3125
 20
0.574145
 30
0.0
 11
7.368841
 21
0.574145
 31
0.0
  0
LINE
  5
244
100
AcDbEntity
 67
     1
  8
1
  6
Continuous
 62
     7
100
AcDbLine
 10
6.638592
 20
5.463797
 30
0.0
 11
6.651072
 21
5.454923
 31
0.0
  0
LINE
  5
245
100
AcDbEntity
 67
     1
  8
1
  6
Continuous
 62
     7
100
AcDbLine
 10
6.970021
 20
4.418153
 30
0.0
 11
7.0227
 21
4.418153
 31
0.0
  0
LINE
  5
246
100
AcDbEntity
 67
     1
  8
1
  6
Continuous
 62
     7
100
AcDbLine
 10
1.88151
 20
5.463817
 30
0.0
 11
1.886283
 21
5.470168
 31
0.0
  0
LINE
  5
247
100
AcDbEntity
 67
     1
  8
1
  6
Continuous
 62
     7
100
AcDbLine
 10
4.05492
 20
5.712348
 30
0.0
 11
4.055916
 21
5.703987
 31
0.0
  0
LINE
  5
248
100
AcDbEntity
 67
     1
  8
1
  6
Continuous
 62
     7
100
AcDbLine
 10
6.149606
 20
5.456576
 30
0.0
 11
6.154608
 21
5.449638
 31
0.0
  0
LINE
  5
249
100
AcDbEntity
 67
     1
  8
1
  6
Continuous
 62
     7
100
AcDbLine
 10
1.967515
 20
4.39841
 30
0.0
 11
1.877515
 21
4.374294
 31
0.0
  0
LINE
  5
24A
100
AcDbEntity
 67
     1
  8
1
  6
Continuous
 62
     7
100
AcDbLine
 10
4.658243
 20
5.764625
 30
0.0
 11
4.658243
 21
5.787448
 31
0.0
  0
LINE
  5
24B
100
AcDbEntity
 67
     1
  8
1
  6
Continuous
 62
     7
100
AcDbLine
 10
6.155092
 20
4.986936
 30
0.0
 11
6.15802
 21
4.994007
 31
0.0
  0
LINE
  5
24C
100
AcDbEntity
 67
     1
  8
1
  6
Continuous
 62
     7
100
AcDbLine
 10
7.524039
 20
5.504625
 30
0.0
 11
7.513732
 21
5.487311
 31
0.0
  0
LINE
  5
24D
100
AcDbEntity
 67
     1
  8
1
  6
Continuous
 62
     7
100
AcDbLine
 10
6.650021
 20
4.398153
 30
0.0
 11
6.597341
 21
4.398153
 31
0.0
  0
LINE
  5
24E
100
AcDbEntity
 67
     1
  8
1
  6
Continuous
 62
     7
100
AcDbLine
 10
4.002533
 20
5.505018
 30
0.0
 11
4.023098
 21
5.487534
 31
0.0
  0
LINE
  5
24F
100
AcDbEntity
 67
     1
  8
1
  6
Continuous
 62
     7
100
AcDbLine
 10
1.966831
 20
5.703987
 30
0.0
 11
1.967828
 21
5.712348
 31
0.0
  0
LINE
  5
250
100
AcDbEntity
 67
     1
  8
1
  6
Continuous
 62
     7
100
AcDbLine
 10
4.046374
 20
6.548548
 30
0.0
 11
4.121446
 21
6.548548
 31
0.0
  0
LINE
  5
251
100
AcDbEntity
 67
     1
  8
1
  6
Continuous
 62
     7
100
AcDbLine
 10
1.967515
 20
4.368294
 30
0.0
 11
1.899907
 21
4.368294
 31
0.0
  0
LINE
  5
252
100
AcDbEntity
 67
     1
  8
1
  6
Continuous
 62
     7
100
AcDbLine
 10
4.055233
 20
4.350179
 30
0.0
 11
4.145233
 21
4.374294
 31
0.0
  0
LINE
  5
253
100
AcDbEntity
 67
     1
  8
1
  6
Continuous
 62
     7
100
AcDbLine
 10
1.967515
 20
4.386294
 30
0.0
 11
1.9223
 21
4.386294
 31
0.0
  0
LINE
  5
254
100
AcDbEntity
 67
     1
  8
1
  6
Continuous
 62
     7
100
AcDbLine
 10
4.616243
 20
4.834625
 30
0.0
 11
4.616243
 21
4.834194
 31
0.0
  0
LINE
  5
255
100
AcDbEntity
 67
     1
  8
1
  6
Continuous
 62
     7
100
AcDbLine
 10
6.65802
 20
5.435742
 30
0.0
 11
6.657221
 21
5.442621
 31
0.0
  0
LINE
  5
256
100
AcDbEntity
 67
     1
  8
1
  6
Continuous
 62
     7
100
AcDbLine
 10
6.46495
 20
4.986936
 30
0.0
 11
6.472021
 21
4.984007
 31
0.0
  0
LINE
  5
257
100
AcDbEntity
 67
     1
  8
1
  6
Continuous
 62
     7
100
AcDbLine
 10
6.999185
 20
5.473366
 30
0.0
 11
6.981449
 21
5.463797
 31
0.0
  0
LINE
  5
258
100
AcDbEntity
 67
     1
  8
1
  6
Continuous
 62
     7
100
AcDbLine
 10
6.970021
 20
4.424153
 30
0.0
 11
7.000308
 21
4.424153
 31
0.0
  0
LINE
  5
259
100
AcDbEntity
 67
     1
  8
1
  6
Continuous
 62
     7
100
AcDbLine
 10
1.934306
 20
4.983994
 30
0.0
 11
1.877562
 21
4.984007
 31
0.0
  0
LINE
  5
25A
100
AcDbEntity
 67
     1
  8
1
  6
Continuous
 62
     7
100
AcDbLine
 10
1.88151
 20
5.463817
 30
0.0
 11
1.880265
 21
5.461338
 31
0.0
  0
LINE
  5
25B
100
AcDbEntity
 67
     1
  8
1
  6
Continuous
 62
     7
100
AcDbLine
 10
3.908411
 20
5.725466
 30
0.0
 11
3.897214
 21
5.716794
 31
0.0
  0
LINE
  5
25C
100
AcDbEntity
 67
     1
  8
1
  6
Continuous
 62
     7
100
AcDbLine
 10
4.055233
 20
4.374294
 30
0.0
 11
4.145233
 21
4.374294
 31
0.0
  0
LINE
  5
25D
100
AcDbEntity
 67
     1
  8
1
  6
Continuous
 62
     7
100
AcDbLine
 10
4.664243
 20
5.764625
 30
0.0
 11
4.664243
 21
5.765055
 31
0.0
  0
LINE
  5
25E
100
AcDbEntity
 67
     1
  8
1
  6
Continuous
 62
     7
100
AcDbLine
 10
6.524031
 20
5.504627
 30
0.0
 11
6.512959
 21
5.486375
 31
0.0
  0
LINE
  5
25F
100
AcDbEntity
 67
     1
  8
1
  6
Continuous
 62
     7
100
AcDbLine
 10
4.145233
 20
4.374294
 30
0.0
 11
3.521811
 21
4.374294
 31
0.0
  0
LINE
  5
260
100
AcDbEntity
 67
     1
  8
1
  6
Continuous
 62
     7
100
AcDbLine
 10
6.157221
 20
5.442621
 30
0.0
 11
6.154866
 21
5.449133
 31
0.0
  0
LINE
  5
261
100
AcDbEntity
 67
     1
  8
1
  6
Continuous
 62
     7
100
AcDbLine
 10
7.096002
 20
5.504625
 30
0.0
 11
7.106309
 21
5.487311
 31
0.0
  0
LINE
  5
262
100
AcDbEntity
 67
     1
  8
1
  6
Continuous
 62
     7
100
AcDbLine
 10
2.121237
 20
5.605339
 30
0.0
 11
2.037553
 21
5.605358
 31
0.0
  0
LINE
  5
263
100
AcDbEntity
 67
     1
  8
1
  6
Continuous
 62
     7
100
AcDbLine
 10
6.650021
 20
4.392153
 30
0.0
 11
6.619733
 21
4.392153
 31
0.0
  0
LINE
  5
264
100
AcDbEntity
 67
     1
  8
1
  6
Continuous
 62
     7
100
AcDbLine
 10
1.976374
 20
6.562548
 30
0.0
 11
1.923694
 21
6.562548
 31
0.0
  0
LINE
  5
265
100
AcDbEntity
 67
     1
  8
1
  6
Continuous
 62
     7
100
AcDbLine
 10
3.93269
 20
5.564397
 30
0.0
 11
3.955611
 21
5.54491
 31
0.0
  0
LINE
  5
266
100
AcDbEntity
 67
     1
  8
1
  6
Continuous
 62
     7
100
AcDbLine
 10
4.091426
 20
5.508615
 30
0.0
 11
4.115615
 21
5.488049
 31
0.0
  0
LINE
  5
267
100
AcDbEntity
 67
     1
  8
1
  6
Continuous
 62
     7
100
AcDbLine
 10
4.046374
 20
6.542548
 30
0.0
 11
4.099053
 21
6.542548
 31
0.0
  0
LINE
  5
268
100
AcDbEntity
 67
     1
  8
1
  6
Continuous
 62
     7
100
AcDbLine
 10
2.563436
 20
6.417548
 30
0.0
 11
2.563436
 21
6.248797
 31
0.0
  0
LINE
  5
269
100
AcDbEntity
 67
     1
  8
1
  6
Continuous
 62
     7
100
AcDbLine
 10
6.06002
 20
5.844625
 30
0.0
 11
6.06002
 21
5.534625
 31
0.0
  0
LINE
  5
26A
100
AcDbEntity
 67
     1
  8
1
  6
Continuous
 62
     7
100
AcDbLine
 10
1.967515
 20
4.392294
 30
0.0
 11
1.944692
 21
4.392294
 31
0.0
  0
LINE
  5
26B
100
AcDbEntity
 67
     1
  8
1
  6
Continuous
 62
     7
100
AcDbLine
 10
4.642243
 20
4.834625
 30
0.0
 11
4.642243
 21
4.752089
 31
0.0
  0
LINE
  5
26C
100
AcDbEntity
 67
     1
  8
1
  6
Continuous
 62
     7
100
AcDbLine
 10
6.655092
 20
4.986936
 30
0.0
 11
6.65802
 21
4.994007
 31
0.0
  0
LINE
  5
26D
100
AcDbEntity
 67
     1
  8
1
  6
Continuous
 62
     7
100
AcDbLine
 10
7.46202
 20
5.435728
 30
0.0
 11
7.462496
 21
5.441048
 31
0.0
  0
LINE
  5
26E
100
AcDbEntity
 67
     1
  8
1
  6
Continuous
 62
     7
100
AcDbLine
 10
6.620856
 20
5.473366
 30
0.0
 11
6.638592
 21
5.463797
 31
0.0
  0
LINE
  5
26F
100
AcDbEntity
 67
     1
  8
1
  6
Continuous
 62
     7
100
AcDbLine
 10
1.976374
 20
6.550548
 30
0.0
 11
1.893838
 21
6.550548
 31
0.0
  0
LINE
  5
270
100
AcDbEntity
 67
     1
  8
1
  6
Continuous
 62
     7
100
AcDbLine
 10
1.877667
 20
5.449133
 30
0.0
 11
1.877666
 21
5.442621
 31
0.0
  0
LINE
  5
271
100
AcDbEntity
 67
     1
  8
1
  6
Continuous
 62
     7
100
AcDbLine
 10
1.9772
 20
5.721148
 30
0.0
 11
1.970912
 21
5.718453
 31
0.0
  0
LINE
  5
272
100
AcDbEntity
 67
     1
  8
1
  6
Continuous
 62
     7
100
AcDbLine
 10
3.078499
 20
6.248797
 30
0.0
 11
3.123499
 21
6.248797
 31
0.0
  0
LINE
  5
273
100
AcDbEntity
 67
     1
  8
1
  6
Continuous
 62
     7
100
AcDbLine
 10
6.596283
 20
1.354014
 30
0.0
 11
0.3125
 21
1.354014
 31
0.0
  0
LINE
  5
274
100
AcDbEntity
 67
     1
  8
1
  6
Continuous
 62
     7
100
AcDbLine
 10
6.650021
 20
4.432153
 30
0.0
 11
6.64959
 21
4.432153
 31
0.0
  0
LINE
  5
275
100
AcDbEntity
 67
     1
  8
1
  6
Continuous
 62
     7
100
AcDbLine
 10
4.055233
 20
4.368294
 30
0.0
 11
4.12284
 21
4.368294
 31
0.0
  0
LINE
  5
276
100
AcDbEntity
 67
     1
  8
1
  6
Continuous
 62
     7
100
AcDbLine
 10
4.046374
 20
6.576663
 30
0.0
 11
4.046374
 21
6.528432
 31
0.0
  0
LINE
  5
277
100
AcDbEntity
 67
     1
  8
1
  6
Continuous
 62
     7
100
AcDbLine
 10
1.967515
 20
4.350294
 30
0.0
 11
1.967084
 21
4.350294
 31
0.0
  0
LINE
  5
278
100
AcDbEntity
 67
     1
  8
1
  6
Continuous
 62
     7
100
AcDbLine
 10
6.596283
 20
2.372838
 30
0.0
 11
0.3125
 21
2.372838
 31
0.0
  0
LINE
  5
279
100
AcDbEntity
 67
     1
  8
1
  6
Continuous
 62
     7
100
AcDbLine
 10
6.46202
 20
4.994007
 30
0.0
 11
6.46495
 21
4.986936
 31
0.0
  0
LINE
  5
27A
100
AcDbEntity
 67
     1
  8
1
  6
Continuous
 62
     7
100
AcDbLine
 10
6.125392
 20
5.470329
 30
0.0
 11
6.137239
 21
5.464342
 31
0.0
  0
LINE
  5
27B
100
AcDbEntity
 67
     1
  8
1
  6
Continuous
 62
     7
100
AcDbLine
 10
6.972021
 20
4.984007
 30
0.0
 11
7.148021
 21
4.984007
 31
0.0
  0
LINE
  5
27C
100
AcDbEntity
 67
     1
  8
1
  6
Continuous
 62
     7
100
AcDbLine
 10
4.141238
 20
5.463817
 30
0.0
 11
4.14203
 21
5.462307
 31
0.0
  0
LINE
  5
27D
100
AcDbEntity
 67
     1
  8
1
  6
Continuous
 62
     7
100
AcDbLine
 10
3.991201
 20
5.617884
 30
0.0
 11
4.055419
 21
5.665926
 31
0.0
  0
LINE
  5
27E
100
AcDbEntity
 67
     1
  8
1
  6
Continuous
 62
     7
100
AcDbLine
 10
6.650021
 20
4.410153
 30
0.0
 11
6.567485
 21
4.410153
 31
0.0
  0
LINE
  5
27F
100
AcDbEntity
 67
     1
  8
1
  6
Continuous
 62
     7
100
AcDbLine
 10
6.471318
 20
5.457454
 30
0.0
 11
6.47859
 21
5.462567
 31
0.0
  0
LINE
  5
280
100
AcDbEntity
 67
     1
  8
1
  6
Continuous
 62
     7
100
AcDbLine
 10
6.606309
 20
5.487311
 30
0.0
 11
6.620856
 21
5.473366
 31
0.0
  0
LINE
  5
281
100
AcDbEntity
 67
     1
  8
1
  6
Continuous
 62
     7
100
AcDbLine
 10
4.055233
 20
4.382294
 30
0.0
 11
4.115376
 21
4.382294
 31
0.0
  0
LINE
  5
282
100
AcDbEntity
 67
     1
  8
1
  6
Continuous
 62
     7
100
AcDbLine
 10
4.08844
 20
4.993994
 30
0.0
 11
4.145183
 21
4.994007
 31
0.0
  0
LINE
  5
283
100
AcDbEntity
 67
     1
  8
1
  6
Continuous
 62
     7
100
AcDbLine
 10
7.499185
 20
5.473366
 30
0.0
 11
7.481449
 21
5.463797
 31
0.0
  0
LINE
  5
284
100
AcDbEntity
 67
     1
  8
1
  6
Continuous
 62
     7
100
AcDbLine
 10
3.891243
 20
5.70395
 30
0.0
 11
4.055916
 21
5.703987
 31
0.0
  0
LINE
  5
285
100
AcDbEntity
 67
     1
  8
1
  6
Continuous
 62
     7
100
AcDbLine
 10
4.046374
 20
6.570548
 30
0.0
 11
4.069197
 21
6.570548
 31
0.0
  0
LINE
  5
286
100
AcDbEntity
 67
     1
  8
1
  6
Continuous
 62
     7
100
AcDbLine
 10
4.660244
 20
4.834625
 30
0.0
 11
4.660244
 21
4.819266
 31
0.0
  0
LINE
  5
287
100
AcDbEntity
 67
     1
  8
1
  6
Continuous
 62
     7
100
AcDbLine
 10
4.654243
 20
4.834625
 30
0.0
 11
4.654243
 21
4.796874
 31
0.0
  0
LINE
  5
288
100
AcDbEntity
 67
     1
  8
1
  6
Continuous
 62
     7
100
AcDbLine
 10
7.465175
 20
5.449133
 30
0.0
 11
7.466498
 21
5.45151
 31
0.0
  0
LINE
  5
289
100
AcDbEntity
 67
     1
  8
1
  6
Continuous
 62
     7
100
AcDbLine
 10
6.970021
 20
4.384153
 30
0.0
 11
6.970451
 21
4.384153
 31
0.0
  0
LINE
  5
28A
100
AcDbEntity
 67
     1
  8
1
  6
Continuous
 62
     7
100
AcDbLine
 10
4.046374
 20
6.552547
 30
0.0
 11
4.136374
 21
6.552547
 31
0.0
  0
LINE
  5
28B
100
AcDbEntity
 67
     1
  8
1
  6
Continuous
 62
     7
100
AcDbLine
 10
3.955611
 20
5.54491
 30
0.0
 11
3.979474
 21
5.524621
 31
0.0
  0
LINE
  5
28C
100
AcDbEntity
 67
     1
  8
1
  6
Continuous
 62
     7
100
AcDbLine
 10
6.641959
 20
5.462307
 30
0.0
 11
6.649606
 21
5.456576
 31
0.0
  0
LINE
  5
28D
100
AcDbEntity
 67
     1
  8
1
  6
Continuous
 62
     7
100
AcDbLine
 10
4.055233
 20
4.354294
 30
0.0
 11
4.070591
 21
4.354294
 31
0.0
  0
LINE
  5
28E
100
AcDbEntity
 67
     1
  8
1
  6
Continuous
 62
     7
100
AcDbLine
 10
1.976374
 20
6.568548
 30
0.0
 11
1.946087
 21
6.568548
 31
0.0
  0
LINE
  5
28F
100
AcDbEntity
 67
     1
  8
1
  6
Continuous
 62
     7
100
AcDbLine
 10
1.967515
 20
4.360294
 30
0.0
 11
1.929764
 21
4.360294
 31
0.0
  0
LINE
  5
290
100
AcDbEntity
 67
     1
  8
1
  6
Continuous
 62
     7
100
AcDbLine
 10
1.976374
 20
6.566547
 30
0.0
 11
1.938623
 21
6.566547
 31
0.0
  0
LINE
  5
291
100
AcDbEntity
 67
     1
  8
1
  6
Continuous
 62
     7
100
AcDbLine
 10
3.979474
 20
5.524621
 30
0.0
 11
4.002533
 21
5.505018
 31
0.0
  0
ARC
  5
292
100
AcDbEntity
 67
     1
  8
1
  6
Continuous
 62
     7
100
AcDbCircle
 10
4.106374
 20
5.534625
 30
0.0
 40
0.03
100
AcDbArc
 50
224.590936
 51
360.0
  0
ARC
  5
293
100
AcDbEntity
 67
     1
  8
1
  6
Continuous
 62
     7
100
AcDbCircle
 10
1.907515
 20
4.774625
 30
0.0
 40
0.03
100
AcDbArc
 50
179.98708
 51
270.0
  0
ARC
  5
294
100
AcDbEntity
 67
     1
  8
1
  6
Continuous
 62
     7
100
AcDbCircle
 10
4.066374
 20
5.784625
 30
0.0
 40
0.01
100
AcDbArc
 50
0.0
 51
90.0
  0
ARC
  5
295
100
AcDbEntity
 67
     1
  8
1
  6
Continuous
 62
     7
100
AcDbCircle
 10
4.049429
 20
5.673933
 30
0.0
 40
0.01
100
AcDbArc
 50
306.799999
 51
366.8
  0
ARC
  5
296
100
AcDbEntity
 67
     1
  8
1
  6
Continuous
 62
     7
100
AcDbCircle
 10
2.022562
 20
5.605873
 30
0.0
 40
0.015
100
AcDbArc
 50
358.031524
 51
413.2
  0
ARC
  5
297
100
AcDbEntity
 67
     1
  8
1
  6
Continuous
 62
     7
100
AcDbCircle
 10
2.018123
 20
5.606857
 30
0.0
 40
0.00825
100
AcDbArc
 50
315.409068
 51
442.5
  0
ARC
  5
298
100
AcDbEntity
 67
     1
  8
1
  6
Continuous
 62
     7
100
AcDbCircle
 10
3.920664
 20
5.698083
 30
0.0
 40
0.03
100
AcDbArc
 50
168.721978
 51
186.8
  0
ARC
  5
299
100
AcDbEntity
 67
     1
  8
1
  6
Continuous
 62
     7
100
AcDbCircle
 10
4.004624
 20
5.606857
 30
0.0
 40
0.00825
100
AcDbArc
 50
97.5
 51
224.590932
  0
ARC
  5
29A
100
AcDbEntity
 67
     1
  8
1
  6
Continuous
 62
     7
100
AcDbCircle
 10
4.115232
 20
4.774625
 30
0.0
 40
0.03
100
AcDbArc
 50
270.0
 51
360.01292
  0
ARC
  5
29B
100
AcDbEntity
 67
     1
  8
1
  6
Continuous
 62
     7
100
AcDbCircle
 10
1.956374
 20
5.784625
 30
0.0
 40
0.01
100
AcDbArc
 50
90.0
 51
180.0
  0
ARC
  5
29C
100
AcDbEntity
 67
     1
  8
1
  6
Continuous
 62
     7
100
AcDbCircle
 10
1.916374
 20
5.534625
 30
0.0
 40
0.03
100
AcDbArc
 50
180.0
 51
315.409064
  0
ARC
  5
29D
100
AcDbEntity
 67
     1
  8
1
  6
Continuous
 62
     7
100
AcDbCircle
 10
1.964404
 20
5.418191
 30
0.0
 40
0.03
100
AcDbArc
 50
144.227898
 51
179.98708
  0
ARC
  5
29E
100
AcDbEntity
 67
     1
  8
1
  6
Continuous
 62
     7
100
AcDbCircle
 10
4.066374
 20
5.633394
 30
0.0
 40
0.01
100
AcDbArc
 50
277.5
 51
360.0
  0
ARC
  5
29F
100
AcDbEntity
 67
     1
  8
1
  6
Continuous
 62
     7
100
AcDbCircle
 10
4.000186
 20
5.605873
 30
0.0
 40
0.015
100
AcDbArc
 50
126.8
 51
181.968733
  0
ARC
  5
2A0
100
AcDbEntity
 67
     1
  8
1
  6
Continuous
 62
     7
100
AcDbCircle
 10
1.973318
 20
5.673933
 30
0.0
 40
0.01
100
AcDbArc
 50
173.2
 51
233.200001
  0
ARC
  5
2A1
100
AcDbEntity
 67
     1
  8
1
  6
Continuous
 62
     7
100
AcDbCircle
 10
1.956374
 20
5.633394
 30
0.0
 40
0.01
100
AcDbArc
 50
180.0
 51
262.5
  0
ARC
  5
2A2
100
AcDbEntity
 67
     1
  8
1
  6
Continuous
 62
     7
100
AcDbCircle
 10
4.058344
 20
5.418191
 30
0.0
 40
0.03
100
AcDbArc
 50
0.01292
 51
35.77226
  0
ARC
  5
2A3
100
AcDbEntity
 67
     1
  8
1
  6
Continuous
 62
     7
100
AcDbCircle
 10
1.896374
 20
5.844625
 30
0.0
 40
0.01
100
AcDbArc
 50
90.0
 51
180.0
  0
ARC
  5
2A4
100
AcDbEntity
 67
     1
  8
1
  6
Continuous
 62
     7
100
AcDbCircle
 10
2.102084
 20
5.698083
 30
0.0
 40
0.03
100
AcDbArc
 50
353.2
 51
371.278022
  0
ARC
  5
2A5
100
AcDbEntity
 67
     1
  8
1
  6
Continuous
 62
     7
100
AcDbCircle
 10
4.126374
 20
5.844625
 30
0.0
 40
0.01
100
AcDbArc
 50
0.0
 51
90.0
  0
MTEXT
  5
2A6
100
AcDbEntity
 67
     1
  8
1
  6
Continuous
 62
     7
100
AcDbMText
 10
5.544912
 20
0.376388
 30
0.0
 40
0.06
 41
0.0
 71
     7
 72
     5
  1
\W01.000;CUST
  7
blockfont
210
0.0
220
0.0
230
1.0
 73
     2
 44
0.903614
  0
MTEXT
  5
2A8
100
AcDbEntity
 67
     1
  8
1
  6
Continuous
 62
     7
100
AcDbMText
 10
5.228711
 20
0.374162
 30
0.0
 40
0.06
 41
0.0
 71
     7
 72
     5
  1
\W01.000;CHK
  7
blockfont
210
0.0
220
0.0
230
1.0
 73
     2
 44
0.903614
  0
MTEXT
  5
2A9
100
AcDbEntity
 67
     1
  8
1
  6
Continuous
 62
     7
100
AcDbMText
 10
9.247345
 20
1.474978
 30
0.0
 40
0.0375
 41
0.0
 71
     7
 72
     5
  1
\W01.000;UNLESS OTHERWISE SPECIFIED,
  7
blockfont
210
0.0
220
0.0
230
1.0
 73
     2
 44
0.903614
  0
MTEXT
  5
2AA
100
AcDbEntity
 67
     1
  8
1
  6
Continuous
 62
     7
100
AcDbMText
 10
7.487521
 20
4.334091
 30
0.0
 40
0.09
 41
0.0
 71
     7
 72
     5
  1
\W01.000;.500
  7
blockfont
210
0.0
220
0.0
230
1.0
 73
     2
 44
0.903614
  0
MTEXT
  5
2AB
100
AcDbEntity
 67
     1
  8
1
  6
Continuous
 62
     7
100
AcDbMText
 10
7.526895
 20
4.114716
 30
0.0
 40
0.09
 41
0.0
 71
     7
 72
     5
  1
\W01.000;12.70
  7
blockfont
210
0.0
220
0.0
230
1.0
 73
     2
 44
0.903614
  0
MTEXT
  5
2AC
100
AcDbEntity
 67
     1
  8
1
  6
Continuous
 62
     7
100
AcDbMText
 10
0.481608
 20
0.64399
 30
0.0
 40
0.072
 41
0.0
 71
     7
 72
     5
  1
\W01.000;R
  7
blockfont
210
0.0
220
0.0
230
1.0
 73
     2
 44
0.903614
  0
MTEXT
  5
2AD
100
AcDbEntity
 67
     1
  8
1
  6
Continuous
 62
     7
100
AcDbMText
 10
8.098208
 20
4.334091
 30
0.0
 40
0.09
 41
0.0
 71
     7
 72
     5
  1
\W01.000;TYP
  7
blockfont
210
0.0
220
0.0
230
1.0
 73
     2
 44
0.903614
  0
MTEXT
  5
2AE
100
AcDbEntity
 67
     1
  8
1
  6
Continuous
 62
     7
100
AcDbMText
 10
8.681497
 20
2.167194
 30
0.0
 40
0.075
 41
0.0
 71
     7
 72
     5
  1
\W01.000;CORP.
  7
blockfont
210
0.0
220
0.0
230
1.0
 73
     2
 44
0.903614
  0
MTEXT
  5
2AF
100
AcDbEntity
 67
     1
  8
1
  6
Continuous
 62
     7
100
AcDbMText
 10
6.664063
 20
0.498378
 30
0.0
 40
0.0375
 41
0.0
 71
     7
 72
     5
  1
\W01.000;CHK'D
  7
blockfont
210
0.0
220
0.0
230
1.0
 73
     2
 44
0.903614
  0
MTEXT
  5
2B0
100
AcDbEntity
 67
     1
  8
1
  6
Continuous
 62
     7
100
AcDbMText
 10
6.649078
 20
2.784642
 30
0.0
 40
0.0375
 41
0.0
 71
     7
 72
     5
  1
\W01.000;CAD FILENAME/LAYERS
  7
blockfont
210
0.0
220
0.0
230
1.0
 73
     2
 44
0.903614
  0
MTEXT
  5
2B1
100
AcDbEntity
 67
     1
  8
1
  6
Continuous
 62
     7
100
AcDbMText
 10
6.957897
 20
2.110597
 30
0.0
 40
0.262
 41
0.0
 71
     7
 72
     5
  1
\W01.000;ANDUIT
  7
blockfont
210
0.0
220
0.0
230
1.0
 73
     2
 44
0.903614
  0
MTEXT
  5
2B2
100
AcDbEntity
 67
     1
  8
1
  6
Continuous
 62
     7
100
AcDbMText
 10
6.71487
 20
0.6084
 30
0.0
 40
0.072
 41
0.0
 71
     7
 72
     5
  1
\W01.000;5/23/03
  7
blockfont
210
0.0
220
0.0
230
1.0
 73
     2
 44
0.903614
  0
MTEXT
  5
2B3
100
AcDbEntity
 67
     1
  8
1
  6
Continuous
 62
     7
100
AcDbMText
 10
4.766186
 20
0.376184
 30
0.0
 40
0.06
 41
0.0
 71
     7
 72
     5
  1
\W01.000;ECN
  7
blockfont
210
0.0
220
0.0
230
1.0
 73
     2
 44
0.903614
  0
MTEXT
  5
2B4
100
AcDbEntity
 67
     1
  8
1
  6
Continuous
 62
     7
100
AcDbMText
 10
2.588436
 20
4.300232
 30
0.0
 40
0.09
 41
0.0
 71
     7
 72
     5
  1
\W01.000;2.268
  7
blockfont
210
0.0
220
0.0
230
1.0
 73
     2
 44
0.903614
  0
MTEXT
  5
2B5
100
AcDbEntity
 67
     1
  8
1
  6
Continuous
 62
     7
100
AcDbMText
 10
8.402914
 20
8.07883
 30
0.0
 40
0.07
 41
0.0
 71
     7
 72
     5
  1
\W01.000;RESTS OF PANDUIT CORP.
  7
blockfont
210
0.0
220
0.0
230
1.0
 73
     2
 44
0.903614
  0
MTEXT
  5
2B6
100
AcDbEntity
 67
     1
  8
1
  6
Continuous
 62
     7
100
AcDbMText
 10
6.710009
 20
2.088105
 30
0.0
 40
0.335
 41
0.0
 71
     7
 72
     5
  1
\W01.000;P
  7
blockfont
210
0.0
220
0.0
230
1.0
 73
     2
 44
0.903614
  0
MTEXT
  5
2B7
100
AcDbEntity
 67
     1
  8
1
  6
Continuous
 62
     7
100
AcDbMText
 10
10.496331
 20
0.448595
 30
0.0
 40
0.15
 41
0.0
 71
     7
 72
     5
  1
\W01.000;A
  7
blockfont
210
0.0
220
0.0
230
1.0
 73
     2
 44
0.903614
  0
MTEXT
  5
2B8
100
AcDbEntity
 67
     1
  8
1
  6
Continuous
 62
     7
100
AcDbMText
 10
6.975288
 20
0.38513
 30
0.0
 40
0.072
 41
0.0
 71
     7
 72
     5
  1
\W01.000;JGG
  7
blockfont
210
0.0
220
0.0
230
1.0
 73
     2
 44
0.903614
  0
MTEXT
  5
2B9
100
AcDbEntity
 67
     1
  8
1
  6
Continuous
 62
     7
100
AcDbMText
 10
9.209145
 20
2.173521
 30
0.0
 40
0.057
 41
0.0
 71
     7
 72
     5
  1
\W01.000;TINLEY PARK, ILLINOIS
  7
blockfont
210
0.0
220
0.0
230
1.0
 73
     2
 44
0.903614
  0
MTEXT
  5
2BA
100
AcDbEntity
 67
     1
  8
1
  6
Continuous
 62
     7
100
AcDbMText
 10
9.245684
 20
0.987138
 30
0.0
 40
0.0375
 41
0.0
 71
     7
 72
     5
  1
\W01.000;SCALE
  7
blockfont
210
0.0
220
0.0
230
1.0
 73
     2
 44
0.903614
  0
MTEXT
  5
2BB
100
AcDbEntity
 67
     1
  8
1
  6
Continuous
 62
     7
100
AcDbMText
 10
2.785247
 20
0.37648
 30
0.0
 40
0.06
 41
0.0
 71
     7
 72
     5
  1
\W01.000;DESCRIPTION
  7
blockfont
210
0.0
220
0.0
230
1.0
 73
     2
 44
0.903614
  0
MTEXT
  5
2BC
100
AcDbEntity
 67
     1
  8
1
  6
Continuous
 62
     7
100
AcDbMText
 10
1.163933
 20
0.64399
 30
0.0
 40
0.072
 41
0.0
 71
     7
 72
     5
  1
\W01.000;JCST
  7
blockfont
210
0.0
220
0.0
230
1.0
 73
     2
 44
0.903614
  0
MTEXT
  5
2BD
100
AcDbEntity
 67
     1
  8
1
  6
Continuous
 62
     7
100
AcDbMText
 10
5.035274
 20
5.354937
 30
0.0
 40
0.09
 41
0.0
 71
     7
 72
     5
  1
\W01.000;REF
  7
blockfont
210
0.0
220
0.0
230
1.0
 73
     2
 44
0.903614
  0
MTEXT
  5
2BE
100
AcDbEntity
 67
     1
  8
1
  6
Continuous
 62
     7
100
AcDbMText
 10
9.69022
 20
0.859785
 30
0.0
 40
0.125
 41
0.0
 71
     7
 72
     5
  1
\W01.000;FULL
  7
blockfont
210
0.0
220
0.0
230
1.0
 73
     2
 44
0.903614
  0
MTEXT
  5
2BF
100
AcDbEntity
 67
     1
  8
1
  6
Continuous
 62
     7
100
AcDbMText
 10
4.424587
 20
5.354937
 30
0.0
 40
0.09
 41
0.0
 71
     7
 72
     5
  1
\W01.000;1.110
  7
blockfont
210
0.0
220
0.0
230
1.0
 73
     2
 44
0.903614
  0
MTEXT
  5
2C0
100
AcDbEntity
 67
     1
  8
1
  6
Continuous
 62
     7
100
AcDbMText
 10
4.463962
 20
5.135562
 30
0.0
 40
0.09
 41
0.0
 71
     7
 72
     5
  1
\W01.000;28.19
  7
blockfont
210
0.0
220
0.0
230
1.0
 73
     2
 44
0.903614
  0
MTEXT
  5
2C1
100
AcDbEntity
 67
     1
  8
1
  6
Continuous
 62
     7
100
AcDbMText
 10
3.199124
 20
6.478485
 30
0.0
 40
0.09
 41
0.0
 71
     7
 72
     5
  1
\W01.000;REF
  7
blockfont
210
0.0
220
0.0
230
1.0
 73
     2
 44
0.903614
  0
MTEXT
  5
2C2
100
AcDbEntity
 67
     1
  8
1
  6
Continuous
 62
     7
100
AcDbMText
 10
5.943585
 20
0.376217
 30
0.0
 40
0.06
 41
0.0
 71
     7
 72
     5
  1
\W01.000;SUP
  7
blockfont
210
0.0
220
0.0
230
1.0
 73
     2
 44
0.903614
  0
MTEXT
  5
2C3
100
AcDbEntity
 67
     1
  8
1
  6
Continuous
 62
     7
100
AcDbMText
 10
0.758331
 20
8.07883
 30
0.0
 40
0.07
 41
0.0
 71
     7
 72
     5
  1
\W01.000;THIS COPY IS PROVIDED ON A RESTRICTED BASIS AND IS NOT TO BE USED IN ANY WAY DETRIMENTAL TO THE INTE
  7
blockfont
210
0.0
220
0.0
230
1.0
 73
     2
 44
0.903614
  0
MTEXT
  5
2C4
100
AcDbEntity
 67
     1
  8
1
  6
Continuous
 62
     7
100
AcDbMText
 10
0.41999
 20
0.375312
 30
0.0
 40
0.06
 41
0.0
 71
     7
 72
     5
  1
\W01.000;REV
  7
blockfont
210
0.0
220
0.0
230
1.0
 73
     2
 44
0.903614
  0
MTEXT
  5
2C5
100
AcDbEntity
 67
     1
  8
1
  6
Continuous
 62
     7
100
AcDbMText
 10
7.43784
 20
0.940784
 30
0.0
 40
0.06
 41
0.0
 71
     7
 72
     5
  1
\W01.000;MAT'L;
  7
blockfont
210
0.0
220
0.0
230
1.0
 73
     2
 44
0.903614
  0
MTEXT
  5
2C6
100
AcDbEntity
 67
     1
  8
1
  6
Continuous
 62
     7
100
AcDbMText
 10
9.244827
 20
0.742141
 30
0.0
 40
0.0375
 41
0.0
 71
     7
 72
     5
  1
\W01.000;DRAWING NO.
  7
blockfont
210
0.0
220
0.0
230
1.0
 73
     2
 44
0.903614
  0
MTEXT
  5
2C7
100
AcDbEntity
 67
     1
  8
1
  6
Continuous
 62
     7
100
AcDbMText
 10
8.353274
 20
2.654112
 30
0.0
 40
0.09
 41
0.0
 71
     7
 72
     5
  1
\W01.000;F2X1_MAY03.dwg
  7
blockfont
210
0.0
220
0.0
230
1.0
 73
     2
 44
0.903614
  0
MTEXT
  5
2C8
100
AcDbEntity
 67
     1
  8
1
  6
Continuous
 62
     7
100
AcDbMText
 10
0.788473
 20
0.375312
 30
0.0
 40
0.06
 41
0.0
 71
     7
 72
     5
  1
\W01.000;DATE
  7
blockfont
210
0.0
220
0.0
230
1.0
 73
     2
 44
0.903614
  0
MTEXT
  5
2C9
100
AcDbEntity
 67
     1
  8
1
  6
Continuous
 62
     7
100
AcDbMText
 10
10.512166
 20
0.709952
 30
0.0
 40
0.0375
 41
0.0
 71
     7
 72
     5
  1
\W01.000;DWG
  7
blockfont
210
0.0
220
0.0
230
1.0
 73
     2
 44
0.903614
  0
MTEXT
  5
2CA
100
AcDbEntity
 67
     1
  8
1
  6
Continuous
 62
     7
100
AcDbMText
 10
8.113814
 20
0.733337
 30
0.0
 40
0.09
 41
0.0
 71
     7
 72
     5
  1
\W01.000;PVC
  7
blockfont
210
0.0
220
0.0
230
1.0
 73
     2
 44
0.903614
  0
MTEXT
  5
2CB
100
AcDbEntity
 67
     1
  8
1
  6
Continuous
 62
     7
100
AcDbMText
 10
9.230731
 20
1.158449
 30
0.0
 40
0.0375
 41
0.0
 71
     7
 72
     5
  1
\W01.000;IN INCHES, THIRD ANGLE PROJECTION.
  7
blockfont
210
0.0
220
0.0
230
1.0
 73
     2
 44
0.903614
  0
MTEXT
  5
2CC
100
AcDbEntity
 67
     1
  8
1
  6
Continuous
 62
     7
100
AcDbMText
 10
6.659857
 20
0.990671
 30
0.0
 40
0.0375
 41
0.0
 71
     7
 72
     5
  1
\W01.000;DRAWN BY
  7
blockfont
210
0.0
220
0.0
230
1.0
 73
     2
 44
0.903614
  0
MTEXT
  5
2CD
100
AcDbEntity
 67
     1
  8
1
  6
Continuous
 62
     7
100
AcDbMText
 10
3.199124
 20
4.300232
 30
0.0
 40
0.09
 41
0.0
 71
     7
 72
     5
  1
\W01.000;REF
  7
blockfont
210
0.0
220
0.0
230
1.0
 73
     2
 44
0.903614
  0
MTEXT
  5
2CE
100
AcDbEntity
 67
     1
  8
1
  6
Continuous
 62
     7
100
AcDbMText
 10
1.882231
 20
0.642038
 30
0.0
 40
0.072
 41
0.0
 71
     7
 72
     5
  1
\W01.000;DRAWING RELEASED
  7
blockfont
210
0.0
220
0.0
230
1.0
 73
     2
 44
0.903614
  0
MTEXT
  5
2CF
100
AcDbEntity
 67
     1
  8
1
  6
Continuous
 62
     7
100
AcDbMText
 10
2.588436
 20
6.478485
 30
0.0
 40
0.09
 41
0.0
 71
     7
 72
     5
  1
\W01.000;2.250
  7
blockfont
210
0.0
220
0.0
230
1.0
 73
     2
 44
0.903614
  0
MTEXT
  5
2D0
100
AcDbEntity
 67
     1
  8
1
  6
Continuous
 62
     7
100
AcDbMText
 10
0.729056
 20
0.662094
 30
0.0
 40
0.05
 41
0.0
 71
     7
 72
     5
  1
\W01.000;5/23/03
  7
blockfont
210
0.0
220
0.0
230
1.0
 73
     2
 44
0.903614
  0
MTEXT
  5
2D1
100
AcDbEntity
 67
     1
  8
1
  6
Continuous
 62
     7
100
AcDbMText
 10
10.491659
 20
0.368387
 30
0.0
 40
0.0375
 41
0.0
 71
     7
 72
     5
  1
\W01.000;SIZE
  7
blockfont
210
0.0
220
0.0
230
1.0
 73
     2
 44
0.903614
  0
MTEXT
  5
2D2
100
AcDbEntity
 67
     1
  8
1
  6
Continuous
 62
     7
100
AcDbMText
 10
6.782545
 20
0.8584
 30
0.0
 40
0.072
 41
0.0
 71
     7
 72
     5
  1
\W01.000;JCST
  7
blockfont
210
0.0
220
0.0
230
1.0
 73
     2
 44
0.903614
  0
MTEXT
  5
2D3
100
AcDbEntity
 67
     1
  8
1
  6
Continuous
 62
     7
100
AcDbMText
 10
8.420398
 20
1.757053
 30
0.0
 40
0.105
 41
0.0
 71
     7
 72
     5
  1
\W01.000;2 X 1
  7
blockfont
210
0.0
220
0.0
230
1.0
 73
     2
 44
0.903614
  0
MTEXT
  5
2D4
100
AcDbEntity
 67
     1
  8
1
  6
Continuous
 62
     7
100
AcDbMText
 10
9.246431
 20
0.471244
 30
0.0
 40
0.105
 41
0.0
 71
     7
 72
     5
  1
\W01.000;36897-770
  7
blockfont
210
0.0
220
0.0
230
1.0
 73
     2
 44
0.903614
  0
MTEXT
  5
2D5
100
AcDbEntity
 67
     1
  8
1
  6
Continuous
 62
     7
100
AcDbMText
 10
1.250054
 20
0.375312
 30
0.0
 40
0.06
 41
0.0
 71
     7
 72
     5
  1
\W01.000;BY
  7
blockfont
210
0.0
220
0.0
230
1.0
 73
     2
 44
0.903614
  0
MTEXT
  5
2D6
100
AcDbEntity
 67
     1
  8
1
  6
Continuous
 62
     7
100
AcDbMText
 10
2.627811
 20
6.25911
 30
0.0
 40
0.09
 41
0.0
 71
     7
 72
     5
  1
\W01.000;57.15
  7
blockfont
210
0.0
220
0.0
230
1.0
 73
     2
 44
0.903614
  0
MTEXT
  5
2D7
100
AcDbEntity
 67
     1
  8
1
  6
Continuous
 62
     7
100
AcDbMText
 10
1.52902
 20
0.375312
 30
0.0
 40
0.06
 41
0.0
 71
     7
 72
     5
  1
\W01.000;CHK
  7
blockfont
210
0.0
220
0.0
230
1.0
 73
     2
 44
0.903614
  0
MTEXT
  5
2D8
100
AcDbEntity
 67
     1
  8
1
  6
Continuous
 62
     7
100
AcDbMText
 10
7.839646
 20
1.615169
 30
0.0
 40
0.09
 41
0.0
 71
     7
 72
     5
  1
\W01.000;MARKETING DRAWING
  7
blockfont
210
0.0
220
0.0
230
1.0
 73
     2
 44
0.903614
  0
MTEXT
  5
2D9
100
AcDbEntity
 67
     1
  8
1
  6
Continuous
 62
     7
100
AcDbMText
 10
6.933172
 20
1.914553
 30
0.0
 40
0.105
 41
0.0
 71
     7
 72
     5
  1
\W01.000;WIRING DUCT - TYPE F WITH COVER
  7
blockfont
210
0.0
220
0.0
230
1.0
 73
     2
 44
0.903614
  0
MTEXT
  5
2DA
100
AcDbEntity
 67
     1
  8
1
  6
Continuous
 62
     7
100
AcDbMText
 10
1.501439
 20
0.656001
 30
0.0
 40
0.072
 41
0.0
 71
     7
 72
     5
  1
\W01.000;JGG
  7
blockfont
210
0.0
220
0.0
230
1.0
 73
     2
 44
0.903614
  0
MTEXT
  5
2DB
100
AcDbEntity
 67
     1
  8
1
  6
Continuous
 62
     7
100
AcDbMText
 10
6.662639
 20
0.742111
 30
0.0
 40
0.0375
 41
0.0
 71
     7
 72
     5
  1
\W01.000;DATE
  7
blockfont
210
0.0
220
0.0
230
1.0
 73
     2
 44
0.903614
  0
MTEXT
  5
2DC
100
AcDbEntity
 67
     1
  8
1
  6
Continuous
 62
     7
100
AcDbMText
 10
9.24669
 20
1.314396
 30
0.0
 40
0.0375
 41
0.0
 71
     7
 72
     5
  1
\W01.000;ALL DIMENSIONS ARE GIVEN
  7
blockfont
210
0.0
220
0.0
230
1.0
 73
     2
 44
0.903614
  0
MTEXT
  5
2DD
100
AcDbEntity
 67
     1
  8
1
  6
Continuous
 62
     7
100
AcDbMText
 10
2.627811
 20
4.080857
 30
0.0
 40
0.09
 41
0.0
 71
     7
 72
     5
  1
\W01.000;57.60
  7
blockfont
210
0.0
220
0.0
230
1.0
 73
     2
 44
0.903614
  0
ENDSEC
  0
SECTION
  2
OBJECTS
  0
DICTIONARY
  5
19
100
AcDbDictionary
280
     0
281
     1
  3
ACAD_GROUP
350
1A
  3
ACAD_MLINESTYLE
350
1B
  3
ACAD_LAYOUT
350
1E
  3
ACAD_PLOTSETTINGS
350
21
  3
ACAD_PLOTSTYLENAME
350
1F
  0
DICTIONARY
  5
1A
102
{ACAD_REACTORS
330
19
102
}
100
AcDbDictionary
280
     0
281
     1
  0
DICTIONARY
  5
1B
102
{ACAD_REACTORS
330
19
102
}
100
AcDbDictionary
280
     0
281
     1
  3
Standard
350
1C
  0
MLINESTYLE
  5
1C
102
{ACAD_REACTORS
330
1B
102
}
100
AcDbMlineStyle
  2
Standard
 70
     0
  3

 62
     0
 51
90.0
 52
90.0
 71
     2
 49
0.5
 62
   256
  6
BYLAYER
 49
-0.5
 62
   256
  6
BYLAYER
  0
ACDBDICTIONARYWDFLT
  5
1F
102
{ACAD_REACTORS
330
19
102
}
100
AcDbDictionary
281
     1
  3
Normal
350
1D
100
AcDbDictionaryWithDefault
340
1D
  0
ACDBPLACEHOLDER
  5
1D
102
{ACAD_REACTORS
330
1F
102
}
  0
LAYOUT
  5
20
102
{ACAD_REACTORS
330
1E
102
}
100
AcDbPlotSettings
  1

  2

  4

  6

 40
0.0
 41
0.0
 42
0.0
 43
0.0
 44
0.0
 45
0.0
 46
0.0
 47
0.0
 48
0.0
 49
0.0
140
0.0
141
0.0
142
1.0
143
1.0
 70
  1024
 72
     0
 73
     0
 74
     0
  7

 75
     0
147
1.0
148
0.0
149
0.0
100
AcDbLayout
  1
Model
 70
     0
 71
     0
 10
0.0
 20
0.0
 11
0.0
 21
0.0
 12
0.0
 22
0.0
 32
0.0
 14
0.0
 24
0.0
 34
0.0
 15
0.0
 25
0.0
 35
0.0
146
0.0
 13
0.0
 23
0.0
 33
0.0
 16
0.0
 26
0.0
 36
0.0
 17
0.0
 27
0.0
 37
0.0
 76
     0
330
A
331
0
345
0
346
0
  0
DICTIONARY
  5
1E
102
{ACAD_REACTORS
330
19
102
}
100
AcDbDictionary
280
     0
281
     1
  3
Model
350
20
  3
36897-770
350
2DE
  0
DICTIONARY
  5
21
102
{ACAD_REACTORS
330
19
102
}
100
AcDbDictionary
280
     0
281
     1
  0
LAYOUT
  5
2DE
102
{ACAD_REACTORS
330
1E
102
}
100
AcDbPlotSettings
  1

  2

  4

  6

 40
0.0
 41
0.0
 42
0.0
 43
0.0
 44
0.0
 45
0.0
 46
0.0
 47
0.0
 48
0.0
 49
0.0
140
0.0
141
0.0
142
1.0
143
1.0
 70
     0
 72
     0
 73
     0
 74
     0
  7

 75
     0
147
1.0
148
0.0
149
0.0
100
AcDbLayout
  1
36897-770
 70
     0
 71
     1
 10
0.0
 20
0.0
 11
0.0
 21
0.0
 12
0.0
 22
0.0
 32
0.0
 14
0.0
 24
0.0
 34
0.0
 15
0.0
 25
0.0
 35
0.0
146
0.0
 13
0.0
 23
0.0
 33
0.0
 16
0.0
 26
0.0
 36
0.0
 17
0.0
 27
0.0
 37
0.0
 76
     0
330
B
331
30
345
0
346
0
  0
ENDSEC
  0
EOF
