  0
SECTION
  2
HEADER
  9
$ACADVER
  1
AC1032
  9
$ACADMAINTVER
 90
      228
  9
$DWGCODEPAGE
  3
ANSI_1252
  9
$LASTSAVEDBY
  1
BJN
  9
$REQUIREDVERSIONS
160
                 0
  9
$INSBASE
 10
0.0
 20
0.0
 30
0.0
  9
$EXTMIN
 10
4.198677853823464
 20
3.165452883320566
 30
-0.0000000001800688
  9
$EXTMAX
 10
8.201670780659684
 20
6.994613073837774
 30
0.0000000000157542
  9
$LIMMIN
 10
-0.5
 20
-0.5
  9
$LIMMAX
 10
5.0
 20
5.0
  9
$ORTHOMODE
 70
     0
  9
$REGENMODE
 70
     1
  9
$FILLMODE
 70
     1
  9
$QTEXTMODE
 70
     0
  9
$MIRRTEXT
 70
     1
  9
$LTSCALE
 40
1.0
  9
$ATTMODE
 70
     1
  9
$TEXTSIZE
 40
0.2
  9
$TRACEWID
 40
0.05
  9
$TEXTSTYLE
  7
Standard
  9
$CLAYER
  8
0
  9
$CELTYPE
  6
ByLayer
  9
$CECOLOR
 62
   256
  9
$CELTSCALE
 40
1.0
  9
$DISPSILH
 70
     0
  9
$DIMSCALE
 40
1.0
  9
$DIMASZ
 40
0.18
  9
$DIMEXO
 40
0.0625
  9
$DIMDLI
 40
0.38
  9
$DIMRND
 40
0.0
  9
$DIMDLE
 40
0.0
  9
$DIMEXE
 40
0.18
  9
$DIMTP
 40
0.0
  9
$DIMTM
 40
0.0
  9
$DIMTXT
 40
0.18
  9
$DIMCEN
 40
0.09
  9
$DIMTSZ
 40
0.0
  9
$DIMTOL
 70
     0
  9
$DIMLIM
 70
     0
  9
$DIMTIH
 70
     1
  9
$DIMTOH
 70
     1
  9
$DIMSE1
 70
     0
  9
$DIMSE2
 70
     0
  9
$DIMTAD
 70
     0
  9
$DIMZIN
 70
     0
  9
$DIMBLK
  1

  9
$DIMASO
 70
     1
  9
$DIMSHO
 70
     1
  9
$DIMPOST
  1

  9
$DIMAPOST
  1

  9
$DIMALT
 70
     0
  9
$DIMALTD
 70
     2
  9
$DIMALTF
 40
25.4
  9
$DIMLFAC
 40
1.0
  9
$DIMTOFL
 70
     0
  9
$DIMTVP
 40
0.0
  9
$DIMTIX
 70
     0
  9
$DIMSOXD
 70
     0
  9
$DIMSAH
 70
     0
  9
$DIMBLK1
  1

  9
$DIMBLK2
  1

  9
$DIMSTYLE
  2
Standard
  9
$DIMCLRD
 70
     0
  9
$DIMCLRE
 70
     0
  9
$DIMCLRT
 70
     0
  9
$DIMTFAC
 40
1.0
  9
$DIMGAP
 40
0.09
  9
$DIMJUST
 70
     0
  9
$DIMSD1
 70
     0
  9
$DIMSD2
 70
     0
  9
$DIMTOLJ
 70
     1
  9
$DIMTZIN
 70
     0
  9
$DIMALTZ
 70
     0
  9
$DIMALTTZ
 70
     0
  9
$DIMUPT
 70
     0
  9
$DIMDEC
 70
     4
  9
$DIMTDEC
 70
     4
  9
$DIMALTU
 70
     2
  9
$DIMALTTD
 70
     2
  9
$DIMTXSTY
  7
Standard
  9
$DIMAUNIT
 70
     0
  9
$DIMADEC
 70
     0
  9
$DIMALTRND
 40
0.0
  9
$DIMAZIN
 70
     0
  9
$DIMDSEP
 70
    46
  9
$DIMATFIT
 70
     3
  9
$DIMFRAC
 70
     0
  9
$DIMLDRBLK
  1

  9
$DIMLUNIT
 70
     2
  9
$DIMLWD
 70
    -2
  9
$DIMLWE
 70
    -2
  9
$DIMTMOVE
 70
     0
  9
$DIMFXL
 40
1.0
  9
$DIMFXLON
 70
     0
  9
$DIMJOGANG
 40
0.7853981633974483
  9
$DIMTFILL
 70
     0
  9
$DIMTFILLCLR
 70
     0
  9
$DIMARCSYM
 70
     0
  9
$DIMLTYPE
  6

  9
$DIMLTEX1
  6

  9
$DIMLTEX2
  6

  9
$DIMTXTDIRECTION
 70
     0
  9
$LUNITS
 70
     2
  9
$LUPREC
 70
     4
  9
$SKETCHINC
 40
0.1
  9
$FILLETRAD
 40
0.5
  9
$AUNITS
 70
     0
  9
$AUPREC
 70
     0
  9
$MENU
  1
.
  9
$ELEVATION
 40
0.0
  9
$PELEVATION
 40
0.0
  9
$THICKNESS
 40
0.0
  9
$LIMCHECK
 70
     0
  9
$CHAMFERA
 40
0.0
  9
$CHAMFERB
 40
0.0
  9
$CHAMFERC
 40
0.0
  9
$CHAMFERD
 40
0.0
  9
$SKPOLY
 70
     0
  9
$TDCREATE
 40
2460342.642395834
  9
$TDUCREATE
 40
2460342.892402894
  9
$TDUPDATE
 40
2460342.654780093
  9
$TDUUPDATE
 40
2460342.904780093
  9
$TDINDWG
 40
0.0003935301
  9
$TDUSRTIMER
 40
0.0003935301
  9
$USRTIMER
 70
     1
  9
$ANGBASE
 50
0.0
  9
$ANGDIR
 70
     0
  9
$PDMODE
 70
     0
  9
$PDSIZE
 40
0.0
  9
$PLINEWID
 40
0.0
  9
$SPLFRAME
 70
     0
  9
$SPLINETYPE
 70
     6
  9
$SPLINESEGS
 70
     8
  9
$HANDSEED
  5
42E
  9
$SURFTAB1
 70
     6
  9
$SURFTAB2
 70
     6
  9
$SURFTYPE
 70
     6
  9
$SURFU
 70
     6
  9
$SURFV
 70
     6
  9
$UCSBASE
  2

  9
$UCSNAME
  2

  9
$UCSORG
 10
0.0
 20
0.0
 30
0.0
  9
$UCSXDIR
 10
1.0
 20
0.0
 30
0.0
  9
$UCSYDIR
 10
0.0
 20
1.0
 30
0.0
  9
$UCSORTHOREF
  2

  9
$UCSORTHOVIEW
 70
     0
  9
$UCSORGTOP
 10
0.0
 20
0.0
 30
0.0
  9
$UCSORGBOTTOM
 10
0.0
 20
0.0
 30
0.0
  9
$UCSORGLEFT
 10
0.0
 20
0.0
 30
0.0
  9
$UCSORGRIGHT
 10
0.0
 20
0.0
 30
0.0
  9
$UCSORGFRONT
 10
0.0
 20
0.0
 30
0.0
  9
$UCSORGBACK
 10
0.0
 20
0.0
 30
0.0
  9
$PUCSBASE
  2

  9
$PUCSNAME
  2

  9
$PUCSORG
 10
0.0
 20
0.0
 30
0.0
  9
$PUCSXDIR
 10
1.0
 20
0.0
 30
0.0
  9
$PUCSYDIR
 10
0.0
 20
1.0
 30
0.0
  9
$PUCSORTHOREF
  2

  9
$PUCSORTHOVIEW
 70
     0
  9
$PUCSORGTOP
 10
0.0
 20
0.0
 30
0.0
  9
$PUCSORGBOTTOM
 10
0.0
 20
0.0
 30
0.0
  9
$PUCSORGLEFT
 10
0.0
 20
0.0
 30
0.0
  9
$PUCSORGRIGHT
 10
0.0
 20
0.0
 30
0.0
  9
$PUCSORGFRONT
 10
0.0
 20
0.0
 30
0.0
  9
$PUCSORGBACK
 10
0.0
 20
0.0
 30
0.0
  9
$USERI1
 70
     0
  9
$USERI2
 70
     0
  9
$USERI3
 70
     0
  9
$USERI4
 70
     0
  9
$USERI5
 70
     0
  9
$USERR1
 40
0.0
  9
$USERR2
 40
0.0
  9
$USERR3
 40
0.0
  9
$USERR4
 40
0.0
  9
$USERR5
 40
0.0
  9
$WORLDVIEW
 70
     1
  9
$SHADEDGE
 70
     3
  9
$SHADEDIF
 70
    70
  9
$TILEMODE
 70
     1
  9
$MAXACTVP
 70
    64
  9
$PINSBASE
 10
0.0
 20
0.0
 30
0.0
  9
$PLIMCHECK
 70
     0
  9
$PEXTMIN
 10
-0.5
 20
-0.5
 30
-0.5
  9
$PEXTMAX
 10
5.0
 20
5.0
 30
5.0
  9
$PLIMMIN
 10
-0.5
 20
-0.5
  9
$PLIMMAX
 10
5.0
 20
5.0
  9
$UNITMODE
 70
     0
  9
$VISRETAIN
 70
     1
  9
$PLINEGEN
 70
     0
  9
$PSLTSCALE
 70
     1
  9
$TREEDEPTH
 70
  3020
  9
$CMLSTYLE
  2
Standard
  9
$CMLJUST
 70
     0
  9
$CMLSCALE
 40
1.0
  9
$PROXYGRAPHICS
 70
     1
  9
$MEASUREMENT
 70
     0
  9
$CELWEIGHT
370
    18
  9
$ENDCAPS
280
     0
  9
$JOINSTYLE
280
     0
  9
$LWDISPLAY
290
     1
  9
$INSUNITS
 70
     1
  9
$HYPERLINKBASE
  1

  9
$STYLESHEET
  1

  9
$XEDIT
290
     1
  9
$CEPSNTYPE
380
     0
  9
$PSTYLEMODE
290
     1
  9
$FINGERPRINTGUID
  2
{7335cd6f-c38a-4623-8cac-74caee03ddde}
  9
$VERSIONGUID
  2
{FAEB1C32-E019-11D5-929B-00C0DF256EC4}
  9
$EXTNAMES
290
     1
  9
$PSVPSCALE
 40
0.0
  9
$OLESTARTUP
290
     0
  9
$SORTENTS
280
   127
  9
$INDEXCTL
280
     0
  9
$HIDETEXT
280
     1
  9
$XCLIPFRAME
280
     2
  9
$HALOGAP
280
     0
  9
$OBSCOLOR
 70
   257
  9
$OBSLTYPE
280
     0
  9
$INTERSECTIONDISPLAY
280
     0
  9
$INTERSECTIONCOLOR
 70
   257
  9
$DIMASSOC
280
     2
  9
$PROJECTNAME
  1

  9
$CAMERADISPLAY
290
     0
  9
$LENSLENGTH
 40
50.0
  9
$CAMERAHEIGHT
 40
0.0
  9
$STEPSPERSEC
 40
2.0
  9
$STEPSIZE
 40
6.0
  9
$3DDWFPREC
 40
2.0
  9
$PSOLWIDTH
 40
0.25
  9
$PSOLHEIGHT
 40
4.0
  9
$LOFTANG1
 40
1.570796326794896
  9
$LOFTANG2
 40
1.570796326794896
  9
$LOFTMAG1
 40
0.0
  9
$LOFTMAG2
 40
0.0
  9
$LOFTPARAM
 70
     7
  9
$LOFTNORMALS
280
     1
  9
$LATITUDE
 40
37.795
  9
$LONGITUDE
 40
-122.394
  9
$NORTHDIRECTION
 40
0.0
  9
$TIMEZONE
 70
 -8000
  9
$LIGHTGLYPHDISPLAY
280
     1
  9
$TILEMODELIGHTSYNCH
280
     1
  9
$CMATERIAL
347
44
  9
$SOLIDHIST
280
     0
  9
$SHOWHIST
280
     1
  9
$DWFFRAME
280
     2
  9
$DGNFRAME
280
     0
  9
$REALWORLDSCALE
290
     1
  9
$INTERFERECOLOR
 62
     1
  9
$INTERFEREOBJVS
345
33
  9
$INTERFEREVPVS
346
30
  9
$CSHADOW
280
     0
  9
$SHADOWPLANELOCATION
 40
0.0
  0
ENDSEC
  0
SECTION
  2
CLASSES
  0
CLASS
  1
ACDBDICTIONARYWDFLT
  2
AcDbDictionaryWithDefault
  3
ObjectDBX Classes
 90
        0
 91
        1
280
     0
281
     0
  0
CLASS
  1
VISUALSTYLE
  2
AcDbVisualStyle
  3
ObjectDBX Classes
 90
     4095
 91
       24
280
     0
281
     0
  0
CLASS
  1
MATERIAL
  2
AcDbMaterial
  3
ObjectDBX Classes
 90
     1153
 91
        3
280
     0
281
     0
  0
CLASS
  1
SCALE
  2
AcDbScale
  3
ObjectDBX Classes
 90
     1153
 91
       33
280
     0
281
     0
  0
CLASS
  1
TABLESTYLE
  2
AcDbTableStyle
  3
ObjectDBX Classes
 90
     4095
 91
        1
280
     0
281
     0
  0
CLASS
  1
MLEADERSTYLE
  2
AcDbMLeaderStyle
  3
ACDB_MLEADERSTYLE_CLASS
 90
     4095
 91
        1
280
     0
281
     0
  0
CLASS
  1
SUN
  2
AcDbSun
  3
SCENEOE
 90
     1153
 91
        1
280
     0
281
     0
  0
CLASS
  1
DICTIONARYVAR
  2
AcDbDictionaryVar
  3
ObjectDBX Classes
 90
        0
 91
       15
280
     0
281
     0
  0
CLASS
  1
CELLSTYLEMAP
  2
AcDbCellStyleMap
  3
ObjectDBX Classes
 90
     1152
 91
        2
280
     0
281
     0
  0
CLASS
  1
ACDBSECTIONVIEWSTYLE
  2
AcDbSectionViewStyle
  3
ObjectDBX Classes
 90
     1025
 91
        1
280
     0
281
     0
  0
CLASS
  1
ACDBDETAILVIEWSTYLE
  2
AcDbDetailViewStyle
  3
ObjectDBX Classes
 90
     1025
 91
        1
280
     0
281
     0
  0
ENDSEC
  0
SECTION
  2
TABLES
  0
TABLE
  2
VPORT
  5
8
102
{ACAD_XDICTIONARY
360
3CE
102
}
330
0
100
AcDbSymbolTable
 70
    16
  0
VPORT
  5
29
330
8
100
AcDbSymbolTableRecord
100
AcDbViewportTableRecord
  2
*Active
 70
     0
 10
0.0
 20
0.0
 11
1.0
 21
1.0
 12
6.200174317241573
 22
5.343507901565287
 13
0.0
 23
0.0
 14
0.5
 24
0.5
 15
0.5
 25
0.5
 16
0.0
 26
0.0
 36
1.0
 17
0.0
 27
0.0
 37
0.0
 40
8.12819338469594
 41
2.184796854521624
 42
50.0
 43
8.72995697338518
 44
-8.72995697338518
 50
0.0
 51
0.0
 71
     0
 72
   100
 73
     1
 74
     3
 75
     0
 76
     0
 77
     0
 78
     0
281
     0
 65
     1
110
0.0
120
0.0
130
0.0
111
1.0
121
0.0
131
0.0
112
0.0
122
1.0
132
0.0
 79
     0
146
0.0
348
2F
 60
     3
 61
     5
292
     1
282
     1
141
0.0
142
0.0
 63
   250
421
  3355443
361
6D
1001
ACAD_NAV_VCDISPLAY
1070
     3
  0
VPORT
  5
3BF
330
8
100
AcDbSymbolTableRecord
100
AcDbViewportTableRecord
  2
L1
 70
     0
 10
0.0
 20
0.0
 11
1.0
 21
1.0
 12
6.200174317241573
 22
5.08003297857917
 13
0.0
 23
0.0
 14
0.5
 24
0.5
 15
0.5
 25
0.5
 16
0.0
 26
0.0
 36
1.0
 17
0.0
 27
0.0
 37
0.0
 40
8.239583333333333
 41
2.155055181469891
 42
50.0
 43
8.72995697338518
 44
-8.72995697338518
 50
0.0
 51
0.0
 71
     0
 72
   100
 73
     1
 74
     3
 75
     0
 76
     0
 77
     0
 78
     0
281
     0
 65
     1
110
0.0
120
0.0
130
0.0
111
1.0
121
0.0
131
0.0
112
0.0
122
1.0
132
0.0
 79
     0
146
0.0
348
2F
 60
     3
 61
     5
292
     1
282
     1
141
0.0
142
0.0
 63
   250
421
  3355443
  0
VPORT
  5
3C0
330
8
100
AcDbSymbolTableRecord
100
AcDbViewportTableRecord
  2
L2
 70
     0
 10
0.0
 20
0.0
 11
0.5
 21
1.0
 12
0.0
 22
0.0
 13
0.0
 23
0.0
 14
0.5
 24
0.5
 15
0.5
 25
0.5
 16
0.0
 26
-1.0
 36
0.0
 17
0.0
 27
0.0
 37
0.0
 40
60.85489593594751
 41
0.2917884663600894
 42
50.0
 43
31.53972380217305
 44
-31.53972380217305
 50
0.0
 51
0.0
 71
     0
 72
   100
 73
     1
 74
     3
 75
     0
 76
     0
 77
     0
 78
     0
281
     0
 65
     1
110
0.0
120
0.0
130
0.0
111
1.0
121
0.0
131
0.0
112
0.0
122
1.0
132
0.0
 79
     0
146
0.0
348
2F
 60
     3
 61
     5
292
     1
282
     1
141
0.0
142
0.0
 63
   250
421
  3355443
  0
VPORT
  5
3C1
330
8
100
AcDbSymbolTableRecord
100
AcDbViewportTableRecord
  2
L2
 70
     0
 10
0.5
 20
0.0
 11
1.0
 21
1.0
 12
0.0
 22
0.0
 13
0.0
 23
0.0
 14
0.5
 24
0.5
 15
0.5
 25
0.5
 16
1.0
 26
0.0
 36
0.0
 17
0.0
 27
0.0
 37
0.0
 40
60.85489593594751
 41
0.2917884663600894
 42
50.0
 43
30.70508546186586
 44
-30.70508546186586
 50
0.0
 51
0.0
 71
     0
 72
   100
 73
     1
 74
     3
 75
     0
 76
     0
 77
     0
 78
     0
281
     0
 65
     1
110
0.0
120
0.0
130
0.0
111
1.0
121
0.0
131
0.0
112
0.0
122
1.0
132
0.0
 79
     0
146
0.0
348
2F
 60
     3
 61
     5
292
     1
282
     1
141
0.0
142
0.0
 63
   250
421
  3355443
  0
VPORT
  5
3C2
330
8
100
AcDbSymbolTableRecord
100
AcDbViewportTableRecord
  2
L3
 70
     0
 10
0.0
 20
0.5
 11
1.0
 21
1.0
 12
6.200174317241573
 22
5.08003297857917
 13
0.0
 23
0.0
 14
0.5
 24
0.5
 15
0.5
 25
0.5
 16
0.0
 26
0.0
 36
1.0
 17
0.0
 27
0.0
 37
0.0
 40
8.239583333333333
 41
2.155055181469891
 42
50.0
 43
8.72995697338518
 44
-8.72995697338518
 50
0.0
 51
0.0
 71
     0
 72
   100
 73
     1
 74
     3
 75
     0
 76
     0
 77
     0
 78
     0
281
     0
 65
     1
110
0.0
120
0.0
130
0.0
111
1.0
121
0.0
131
0.0
112
0.0
122
1.0
132
0.0
 79
     0
146
0.0
348
2F
 60
     3
 61
     5
292
     1
282
     1
141
0.0
142
0.0
 63
   250
421
  3355443
  0
VPORT
  5
3C3
330
8
100
AcDbSymbolTableRecord
100
AcDbViewportTableRecord
  2
L3
 70
     0
 10
0.0
 20
0.0
 11
1.0
 21
0.5
 12
0.0
 22
0.0
 13
0.0
 23
0.0
 14
0.5
 24
0.5
 15
0.5
 25
0.5
 16
0.0
 26
-1.0
 36
0.0
 17
0.0
 27
0.0
 37
0.0
 40
60.85489593594751
 41
0.2917884663600894
 42
50.0
 43
31.53972380217305
 44
-31.53972380217305
 50
0.0
 51
0.0
 71
     0
 72
   100
 73
     1
 74
     3
 75
     0
 76
     0
 77
     0
 78
     0
281
     0
 65
     1
110
0.0
120
0.0
130
0.0
111
1.0
121
0.0
131
0.0
112
0.0
122
1.0
132
0.0
 79
     0
146
0.0
348
2F
 60
     3
 61
     5
292
     1
282
     1
141
0.0
142
0.0
 63
   250
421
  3355443
  0
VPORT
  5
3C4
330
8
100
AcDbSymbolTableRecord
100
AcDbViewportTableRecord
  2
L4
 70
     0
 10
0.0
 20
0.5
 11
0.5
 21
1.0
 12
6.200174317241573
 22
5.08003297857917
 13
0.0
 23
0.0
 14
0.5
 24
0.5
 15
0.5
 25
0.5
 16
0.0
 26
0.0
 36
1.0
 17
0.0
 27
0.0
 37
0.0
 40
8.239583333333333
 41
2.155055181469891
 42
50.0
 43
8.72995697338518
 44
-8.72995697338518
 50
0.0
 51
0.0
 71
     0
 72
   100
 73
     1
 74
     3
 75
     0
 76
     0
 77
     0
 78
     0
281
     0
 65
     1
110
0.0
120
0.0
130
0.0
111
1.0
121
0.0
131
0.0
112
0.0
122
1.0
132
0.0
 79
     0
146
0.0
348
2F
 60
     3
 61
     5
292
     1
282
     1
141
0.0
142
0.0
 63
   250
421
  3355443
  0
VPORT
  5
3C5
330
8
100
AcDbSymbolTableRecord
100
AcDbViewportTableRecord
  2
L4
 70
     0
 10
0.0
 20
0.0
 11
0.5
 21
0.5
 12
0.0
 22
0.0
 13
0.0
 23
0.0
 14
0.5
 24
0.5
 15
0.5
 25
0.5
 16
0.0
 26
-1.0
 36
0.0
 17
0.0
 27
0.0
 37
0.0
 40
60.85489593594751
 41
0.2917884663600894
 42
50.0
 43
31.53972380217305
 44
-31.53972380217305
 50
0.0
 51
0.0
 71
     0
 72
   100
 73
     1
 74
     3
 75
     0
 76
     0
 77
     0
 78
     0
281
     0
 65
     1
110
0.0
120
0.0
130
0.0
111
1.0
121
0.0
131
0.0
112
0.0
122
1.0
132
0.0
 79
     0
146
0.0
348
2F
 60
     3
 61
     5
292
     1
282
     1
141
0.0
142
0.0
 63
   250
421
  3355443
  0
VPORT
  5
3C6
330
8
100
AcDbSymbolTableRecord
100
AcDbViewportTableRecord
  2
L4
 70
     0
 10
0.5
 20
0.0
 11
1.0
 21
0.5
 12
0.0
 22
0.0
 13
0.0
 23
0.0
 14
0.5
 24
0.5
 15
0.5
 25
0.5
 16
1.0
 26
0.0
 36
0.0
 17
0.0
 27
0.0
 37
0.0
 40
60.85489593594751
 41
0.2917884663600894
 42
50.0
 43
30.70508546186586
 44
-30.70508546186586
 50
0.0
 51
0.0
 71
     0
 72
   100
 73
     1
 74
     3
 75
     0
 76
     0
 77
     0
 78
     0
281
     0
 65
     1
110
0.0
120
0.0
130
0.0
111
1.0
121
0.0
131
0.0
112
0.0
122
1.0
132
0.0
 79
     0
146
0.0
348
2F
 60
     3
 61
     5
292
     1
282
     1
141
0.0
142
0.0
 63
   250
421
  3355443
  0
VPORT
  5
3C7
330
8
100
AcDbSymbolTableRecord
100
AcDbViewportTableRecord
  2
L4
 70
     0
 10
0.5
 20
0.5
 11
1.0
 21
1.0
 12
0.0
 22
0.0
 13
0.0
 23
0.0
 14
0.5
 24
0.5
 15
0.5
 25
0.5
 16
0.5773502691896259
 26
-0.5773502691896259
 36
0.5773502691896259
 17
0.0
 27
0.0
 37
0.0
 40
59.8302329306253
 41
0.2967856865314627
 42
50.0
 43
31.17796790028228
 44
-31.17796790028228
 50
0.0
 51
0.0
 71
     0
 72
   100
 73
     1
 74
     3
 75
     0
 76
     0
 77
     0
 78
     0
281
     0
 65
     1
110
0.0
120
0.0
130
0.0
111
1.0
121
0.0
131
0.0
112
0.0
122
1.0
132
0.0
 79
     0
146
0.0
348
2F
 60
     3
 61
     5
292
     1
282
     1
141
0.0
142
0.0
 63
   250
421
  3355443
  0
VPORT
  5
3C8
330
8
100
AcDbSymbolTableRecord
100
AcDbViewportTableRecord
  2
L6
 70
     0
 10
0.0
 20
0.5
 11
0.3333333333333334
 21
1.0
 12
0.0
 22
0.0
 13
0.0
 23
0.0
 14
0.5
 24
0.5
 15
0.5
 25
0.5
 16
0.7188730927569434
 26
-0.5850486126764433
 36
0.3754192287502549
 17
0.0
 27
0.0
 37
0.0
 40
63.1909696609869
 41
0.2810014919998243
 42
50.0
 43
32.7022438437985
 44
-32.7022438437985
 50
0.0
 51
0.0
 71
     0
 72
   100
 73
     1
 74
     3
 75
     0
 76
     0
 77
     0
 78
     0
281
     0
 65
     1
110
0.0
120
0.0
130
0.0
111
1.0
121
0.0
131
0.0
112
0.0
122
1.0
132
0.0
 79
     0
146
0.0
348
2F
 60
     3
 61
     5
292
     1
282
     1
141
0.0
142
0.0
 63
   250
421
  3355443
  0
VPORT
  5
3C9
330
8
100
AcDbSymbolTableRecord
100
AcDbViewportTableRecord
  2
L6
 70
     0
 10
0.0
 20
0.0
 11
0.3333333333333334
 21
0.5
 12
0.0
 22
0.0
 13
0.0
 23
0.0
 14
0.5
 24
0.5
 15
0.5
 25
0.5
 16
-1.0
 26
0.0
 36
0.0
 17
0.0
 27
0.0
 37
0.0
 40
60.85489593594751
 41
0.2917884663600894
 42
50.0
 43
30.70508546186586
 44
-30.70508546186586
 50
0.0
 51
0.0
 71
     0
 72
   100
 73
     1
 74
     3
 75
     0
 76
     0
 77
     0
 78
     0
281
     0
 65
     1
110
0.0
120
0.0
130
0.0
111
1.0
121
0.0
131
0.0
112
0.0
122
1.0
132
0.0
 79
     0
146
0.0
348
2F
 60
     3
 61
     5
292
     1
282
     1
141
0.0
142
0.0
 63
   250
421
  3355443
  0
VPORT
  5
3CA
330
8
100
AcDbSymbolTableRecord
100
AcDbViewportTableRecord
  2
L6
 70
     0
 10
0.3333333333333334
 20
0.5
 11
0.6666666666666666
 21
1.0
 12
6.200174317241573
 22
5.08003297857917
 13
0.0
 23
0.0
 14
0.5
 24
0.5
 15
0.5
 25
0.5
 16
0.0
 26
0.0
 36
1.0
 17
0.0
 27
0.0
 37
0.0
 40
8.239583333333333
 41
2.155055181469891
 42
50.0
 43
8.72995697338518
 44
-8.72995697338518
 50
0.0
 51
0.0
 71
     0
 72
   100
 73
     1
 74
     3
 75
     0
 76
     0
 77
     0
 78
     0
281
     0
 65
     1
110
0.0
120
0.0
130
0.0
111
1.0
121
0.0
131
0.0
112
0.0
122
1.0
132
0.0
 79
     0
146
0.0
348
2F
 60
     3
 61
     5
292
     1
282
     1
141
0.0
142
0.0
 63
   250
421
  3355443
  0
VPORT
  5
3CB
330
8
100
AcDbSymbolTableRecord
100
AcDbViewportTableRecord
  2
L6
 70
     0
 10
0.3333333333333334
 20
0.0
 11
0.6666666666666666
 21
0.5
 12
0.0
 22
0.0
 13
0.0
 23
0.0
 14
0.5
 24
0.5
 15
0.5
 25
0.5
 16
0.0
 26
-1.0
 36
0.0
 17
0.0
 27
0.0
 37
0.0
 40
60.85489593594751
 41
0.2917884663600894
 42
50.0
 43
31.53972380217305
 44
-31.53972380217305
 50
0.0
 51
0.0
 71
     0
 72
   100
 73
     1
 74
     3
 75
     0
 76
     0
 77
     0
 78
     0
281
     0
 65
     1
110
0.0
120
0.0
130
0.0
111
1.0
121
0.0
131
0.0
112
0.0
122
1.0
132
0.0
 79
     0
146
0.0
348
2F
 60
     3
 61
     5
292
     1
282
     1
141
0.0
142
0.0
 63
   250
421
  3355443
  0
VPORT
  5
3CC
330
8
100
AcDbSymbolTableRecord
100
AcDbViewportTableRecord
  2
L6
 70
     0
 10
0.6666666666666666
 20
0.5
 11
1.0
 21
1.0
 12
0.0
 22
0.0
 13
0.0
 23
0.0
 14
0.5
 24
0.5
 15
0.5
 25
0.5
 16
0.5773502691896259
 26
-0.5773502691896259
 36
0.5773502691896259
 17
0.0
 27
0.0
 37
0.0
 40
59.8302329306253
 41
0.2967856865314627
 42
50.0
 43
31.17796790028228
 44
-31.17796790028228
 50
0.0
 51
0.0
 71
     0
 72
   100
 73
     1
 74
     3
 75
     0
 76
     0
 77
     0
 78
     0
281
     0
 65
     1
110
0.0
120
0.0
130
0.0
111
1.0
121
0.0
131
0.0
112
0.0
122
1.0
132
0.0
 79
     0
146
0.0
348
2F
 60
     3
 61
     5
292
     1
282
     1
141
0.0
142
0.0
 63
   250
421
  3355443
  0
VPORT
  5
3CD
330
8
100
AcDbSymbolTableRecord
100
AcDbViewportTableRecord
  2
L6
 70
     0
 10
0.6666666666666666
 20
0.0
 11
1.0
 21
0.5
 12
0.0
 22
0.0
 13
0.0
 23
0.0
 14
0.5
 24
0.5
 15
0.5
 25
0.5
 16
1.0
 26
0.0
 36
0.0
 17
0.0
 27
0.0
 37
0.0
 40
60.85489593594751
 41
0.2917884663600894
 42
50.0
 43
30.70508546186586
 44
-30.70508546186586
 50
0.0
 51
0.0
 71
     0
 72
   100
 73
     1
 74
     3
 75
     0
 76
     0
 77
     0
 78
     0
281
     0
 65
     1
110
0.0
120
0.0
130
0.0
111
1.0
121
0.0
131
0.0
112
0.0
122
1.0
132
0.0
 79
     0
146
0.0
348
2F
 60
     3
 61
     5
292
     1
282
     1
141
0.0
142
0.0
 63
   250
421
  3355443
  0
ENDTAB
  0
TABLE
  2
LTYPE
  5
5
330
0
100
AcDbSymbolTable
 70
    10
  0
LTYPE
  5
14
330
5
100
AcDbSymbolTableRecord
100
AcDbLinetypeTableRecord
  2
ByBlock
 70
     0
  3

 72
    65
 73
     0
 40
0.0
  0
LTYPE
  5
15
330
5
100
AcDbSymbolTableRecord
100
AcDbLinetypeTableRecord
  2
ByLayer
 70
     0
  3

 72
    65
 73
     0
 40
0.0
  0
LTYPE
  5
16
330
5
100
AcDbSymbolTableRecord
100
AcDbLinetypeTableRecord
  2
Continuous
 70
     0
  3
Solid line
 72
    65
 73
     0
 40
0.0
  0
LTYPE
  5
6E
330
5
100
AcDbSymbolTableRecord
100
AcDbLinetypeTableRecord
  2
ACAD_ISO04W100
 70
     0
  3
ISO long-dash dot ____ . ____ . ____ . ____ . _
 72
    65
 73
     4
 40
1.181102362204724
 49
0.9448818897637794
 74
     4
 75
     0
340
0
 46
0.0
 50
0.0
 44
0.0
 45
0.0
 49
-0.1181102362204724
 74
     4
 75
     0
340
0
 46
0.0
 50
0.0
 44
0.0
 45
0.0
 49
0.0
 74
     4
 75
     0
340
0
 46
0.0
 50
0.0
 44
0.0
 45
0.0
 49
-0.1181102362204724
 74
     4
 75
     0
340
0
 46
0.0
 50
0.0
 44
0.0
 45
0.0
  0
LTYPE
  5
6F
330
5
100
AcDbSymbolTableRecord
100
AcDbLinetypeTableRecord
  2
ACAD_ISO05W100
 70
     0
  3
ISO long-dash double-dot ____ .. ____ .. ____ . 
 72
    65
 73
     6
 40
1.299212598425196
 49
0.9448818897637794
 74
     4
 75
     0
340
0
 46
0.0
 50
0.0
 44
0.0
 45
0.0
 49
-0.1181102362204724
 74
     4
 75
     0
340
0
 46
0.0
 50
0.0
 44
0.0
 45
0.0
 49
0.0
 74
     4
 75
     0
340
0
 46
0.0
 50
0.0
 44
0.0
 45
0.0
 49
-0.1181102362204724
 74
     4
 75
     0
340
0
 46
0.0
 50
0.0
 44
0.0
 45
0.0
 49
0.0
 74
     4
 75
     0
340
0
 46
0.0
 50
0.0
 44
0.0
 45
0.0
 49
-0.1181102362204724
 74
     4
 75
     0
340
0
 46
0.0
 50
0.0
 44
0.0
 45
0.0
  0
LTYPE
  5
70
330
5
100
AcDbSymbolTableRecord
100
AcDbLinetypeTableRecord
  2
ACAD_ISO06W100
 70
     0
  3
ISO long-dash triple-dot ____ ... ____ ... ____
 72
    65
 73
     8
 40
1.417322834645669
 49
0.9448818897637794
 74
     4
 75
     0
340
0
 46
0.0
 50
0.0
 44
0.0
 45
0.0
 49
-0.1181102362204724
 74
     4
 75
     0
340
0
 46
0.0
 50
0.0
 44
0.0
 45
0.0
 49
0.0
 74
     4
 75
     0
340
0
 46
0.0
 50
0.0
 44
0.0
 45
0.0
 49
-0.1181102362204724
 74
     4
 75
     0
340
0
 46
0.0
 50
0.0
 44
0.0
 45
0.0
 49
0.0
 74
     4
 75
     0
340
0
 46
0.0
 50
0.0
 44
0.0
 45
0.0
 49
-0.1181102362204724
 74
     4
 75
     0
340
0
 46
0.0
 50
0.0
 44
0.0
 45
0.0
 49
0.0
 74
     4
 75
     0
340
0
 46
0.0
 50
0.0
 44
0.0
 45
0.0
 49
-0.1181102362204724
 74
     4
 75
     0
340
0
 46
0.0
 50
0.0
 44
0.0
 45
0.0
  0
LTYPE
  5
71
330
5
100
AcDbSymbolTableRecord
100
AcDbLinetypeTableRecord
  2
ACAD_ISO09W100
 70
     0
  3
ISO long-dash double-short-dash ____ __ __ ____
 72
    65
 73
     6
 40
1.771653543307086
 49
0.9448818897637794
 74
     4
 75
     0
340
0
 46
0.0
 50
0.0
 44
0.0
 45
0.0
 49
-0.1181102362204724
 74
     4
 75
     0
340
0
 46
0.0
 50
0.0
 44
0.0
 45
0.0
 49
0.2362204724409449
 74
     4
 75
     0
340
0
 46
0.0
 50
0.0
 44
0.0
 45
0.0
 49
-0.1181102362204724
 74
     4
 75
     0
340
0
 46
0.0
 50
0.0
 44
0.0
 45
0.0
 49
0.2362204724409449
 74
     4
 75
     0
340
0
 46
0.0
 50
0.0
 44
0.0
 45
0.0
 49
-0.1181102362204724
 74
     4
 75
     0
340
0
 46
0.0
 50
0.0
 44
0.0
 45
0.0
  0
LTYPE
  5
72
330
5
100
AcDbSymbolTableRecord
100
AcDbLinetypeTableRecord
  2
CENTER
 70
     0
  3
____ _ ____ _ ____ _ ____
 72
    65
 73
     4
 40
1.866141732283464
 49
0.8661417322834646
 74
     4
 75
     0
340
0
 46
0.0
 50
0.0
 44
0.0
 45
0.0
 49
-0.3346456692913386
 74
     4
 75
     0
340
0
 46
0.0
 50
0.0
 44
0.0
 45
0.0
 49
0.3346456692913386
 74
     4
 75
     0
340
0
 46
0.0
 50
0.0
 44
0.0
 45
0.0
 49
-0.3346456692913386
 74
     4
 75
     0
340
0
 46
0.0
 50
0.0
 44
0.0
 45
0.0
  0
LTYPE
  5
73
330
5
100
AcDbSymbolTableRecord
100
AcDbLinetypeTableRecord
  2
DASHDOT
 70
     0
  3
_._._._._._._._._._._._._._._._.
 72
    65
 73
     4
 40
2.755905511811023
 49
1.220472440944881
 74
     4
 75
     0
340
0
 46
0.0
 50
0.0
 44
0.0
 45
0.0
 49
-0.5118110236220473
 74
     4
 75
     0
340
0
 46
0.0
 50
0.0
 44
0.0
 45
0.0
 49
0.5118110236220473
 74
     4
 75
     0
340
0
 46
0.0
 50
0.0
 44
0.0
 45
0.0
 49
-0.5118110236220473
 74
     4
 75
     0
340
0
 46
0.0
 50
0.0
 44
0.0
 45
0.0
  0
LTYPE
  5
74
330
5
100
AcDbSymbolTableRecord
100
AcDbLinetypeTableRecord
  2
DASHED
 70
     0
  3
__ __ __ __ __ __ __ __ __
 72
    65
 73
     2
 40
1.01259842519685
 49
0.5062992125984252
 74
     4
 75
     0
340
0
 46
0.0
 50
0.0
 44
0.0
 45
0.0
 49
-0.5062992125984252
 74
     4
 75
     0
340
0
 46
0.0
 50
0.0
 44
0.0
 45
0.0
  0
LTYPE
  5
75
330
5
100
AcDbSymbolTableRecord
100
AcDbLinetypeTableRecord
  2
DOT
 70
     0
  3
.........................
 72
    65
 73
     2
 40
0.3937007874015748
 49
0.0
 74
     4
 75
     0
340
0
 46
0.0
 50
0.0
 44
0.0
 45
0.0
 49
-0.3937007874015748
 74
     4
 75
     0
340
0
 46
0.0
 50
0.0
 44
0.0
 45
0.0
  0
LTYPE
  5
76
330
5
100
AcDbSymbolTableRecord
100
AcDbLinetypeTableRecord
  2
PHANTOM
 70
     0
  3
____ _ _ ____ _ _ _____ _ _ ____
 72
    65
 73
     6
 40
1.988188976377952
 49
0.7086614173228347
 74
     4
 75
     0
340
0
 46
0.0
 50
0.0
 44
0.0
 45
0.0
 49
-0.2559055118110236
 74
     4
 75
     0
340
0
 46
0.0
 50
0.0
 44
0.0
 45
0.0
 49
0.2559055118110236
 74
     4
 75
     0
340
0
 46
0.0
 50
0.0
 44
0.0
 45
0.0
 49
-0.2559055118110236
 74
     4
 75
     0
340
0
 46
0.0
 50
0.0
 44
0.0
 45
0.0
 49
0.2559055118110236
 74
     4
 75
     0
340
0
 46
0.0
 50
0.0
 44
0.0
 45
0.0
 49
-0.2559055118110236
 74
     4
 75
     0
340
0
 46
0.0
 50
0.0
 44
0.0
 45
0.0
  0
ENDTAB
  0
TABLE
  2
LAYER
  5
2
330
0
100
AcDbSymbolTable
 70
     2
  0
LAYER
  5
10
102
{ACAD_XDICTIONARY
360
41D
102
}
330
2
100
AcDbSymbolTableRecord
100
AcDbLayerTableRecord
  2
0
 70
     0
 62
     7
  6
Continuous
370
    -3
390
F
347
46
348
0
  0
LAYER
  5
78
102
{ACAD_XDICTIONARY
360
41F
102
}
330
2
100
AcDbSymbolTableRecord
100
AcDbLayerTableRecord
  2
1
 70
     0
 62
     7
420
 16777215
  6
Continuous
370
    -3
390
F
347
46
348
0
  0
ENDTAB
  0
TABLE
  2
STYLE
  5
3
330
0
100
AcDbSymbolTable
 70
     3
  0
STYLE
  5
11
330
3
100
AcDbSymbolTableRecord
100
AcDbTextStyleTableRecord
  2
Standard
 70
     0
 40
0.0
 41
1.0
 50
0.0
 71
     0
 42
0.2
  3
txt
  4

  0
STYLE
  5
3A0
330
3
100
AcDbSymbolTableRecord
100
AcDbTextStyleTableRecord
  2
blockfont
 70
     0
 40
0.0
 41
1.0
 50
0.0
 71
     0
 42
0.2
  3
simplex.shx
  4

  0
STYLE
  5
3A1
330
3
100
AcDbSymbolTableRecord
100
AcDbTextStyleTableRecord
  2
DWGDirectTextStyle
 70
     0
 40
0.0
 41
1.0
 50
0.0
 71
     0
 42
0.2
  3
simplex
  4

  0
ENDTAB
  0
TABLE
  2
VIEW
  5
6
330
0
100
AcDbSymbolTable
 70
     0
  0
ENDTAB
  0
TABLE
  2
UCS
  5
7
330
0
100
AcDbSymbolTable
 70
     0
  0
ENDTAB
  0
TABLE
  2
APPID
  5
9
330
0
100
AcDbSymbolTable
 70
     3
  0
APPID
  5
12
330
9
100
AcDbSymbolTableRecord
100
AcDbRegAppTableRecord
  2
ACAD
 70
     0
  0
APPID
  5
40D
330
9
100
AcDbSymbolTableRecord
100
AcDbRegAppTableRecord
  2
ACAD_MLEADERVER
 70
     0
  0
APPID
  5
421
330
9
100
AcDbSymbolTableRecord
100
AcDbRegAppTableRecord
  2
ACAD_NAV_VCDISPLAY
 70
     0
  0
ENDTAB
  0
TABLE
  2
DIMSTYLE
  5
A
330
0
100
AcDbSymbolTable
 70
     1
100
AcDbDimStyleTable
 71
     0
  0
DIMSTYLE
105
27
330
A
100
AcDbSymbolTableRecord
100
AcDbDimStyleTableRecord
  2
Standard
 70
     0
340
11
  0
ENDTAB
  0
TABLE
  2
BLOCK_RECORD
  5
1
330
0
100
AcDbSymbolTable
 70
     1
  0
BLOCK_RECORD
  5
1F
330
1
100
AcDbSymbolTableRecord
100
AcDbBlockTableRecord
  2
*Model_Space
340
22
 70
     0
280
     1
281
     0
  0
BLOCK_RECORD
  5
1B
330
1
100
AcDbSymbolTableRecord
100
AcDbBlockTableRecord
  2
*Paper_Space
340
1E
 70
     0
280
     1
281
     0
  0
BLOCK_RECORD
  5
23
330
1
100
AcDbSymbolTableRecord
100
AcDbBlockTableRecord
  2
*Paper_Space0
340
26
 70
     0
280
     1
281
     0
  0
ENDTAB
  0
ENDSEC
  0
SECTION
  2
BLOCKS
  0
BLOCK
  5
20
330
1F
100
AcDbEntity
  8
0
100
AcDbBlockBegin
  2
*Model_Space
 70
     0
 10
0.0
 20
0.0
 30
0.0
  3
*Model_Space
  1

  0
ENDBLK
  5
21
330
1F
100
AcDbEntity
  8
0
100
AcDbBlockEnd
  0
BLOCK
  5
1C
330
1B
100
AcDbEntity
 67
     1
  8
0
100
AcDbBlockBegin
  2
*Paper_Space
 70
     0
 10
0.0
 20
0.0
 30
0.0
  3
*Paper_Space
  1

  0
ENDBLK
  5
1D
330
1B
100
AcDbEntity
 67
     1
  8
0
100
AcDbBlockEnd
  0
BLOCK
  5
24
330
23
100
AcDbEntity
 67
     1
  8
0
100
AcDbBlockBegin
  2
*Paper_Space0
 70
     0
 10
0.0
 20
0.0
 30
0.0
  3
*Paper_Space0
  1

  0
ENDBLK
  5
25
330
23
100
AcDbEntity
 67
     1
  8
0
100
AcDbBlockEnd
  0
ENDSEC
  0
SECTION
  2
ENTITIES
  0
LINE
  5
77
330
1F
100
AcDbEntity
  8
1
  6
Continuous
 62
    95
370
    13
100
AcDbLine
 10
7.033199439432856
 20
3.634869943580513
 30
0.0
 11
7.037675454053529
 21
3.634857828475543
 31
0.0
  0
LINE
  5
79
330
1F
100
AcDbEntity
  8
1
  6
Continuous
 62
     4
370
    13
100
AcDbLine
 10
7.849094950278662
 20
3.799686798918593
 30
0.0
 11
7.849094950278662
 21
3.774857828474773
 31
0.0
  0
LINE
  5
7A
330
1F
100
AcDbEntity
  8
1
  6
Continuous
 62
     3
370
    13
100
AcDbLine
 10
6.936907863501006
 20
3.318582843975558
 30
0.0
 11
6.989407863501005
 21
3.318582843975558
 31
0.0
  0
LINE
  5
7B
330
1F
100
AcDbEntity
  8
1
  6
Continuous
 62
     3
370
    13
100
AcDbLine
 10
6.989407863501005
 20
3.325582843975558
 30
0.0
 11
6.989407863501005
 21
3.318582843975558
 31
0.0
  0
LINE
  5
7C
330
1F
100
AcDbEntity
  8
1
  6
Continuous
 62
     3
370
    13
100
AcDbLine
 10
6.936907863501006
 20
3.325582843975558
 30
0.0
 11
6.936907863501006
 21
3.318582843975558
 31
0.0
  0
LINE
  5
7D
330
1F
100
AcDbEntity
  8
1
  6
Continuous
 62
     3
370
    13
100
AcDbLine
 10
6.899407863501005
 20
3.325582843975558
 30
0.0
 11
6.899407863501005
 21
3.318582843975558
 31
0.0
  0
LINE
  5
7E
330
1F
100
AcDbEntity
  8
1
  6
Continuous
 62
     3
370
    13
100
AcDbLine
 10
6.899407863501005
 20
3.318582843975558
 30
0.0
 11
6.936907863501006
 21
3.318582843975558
 31
0.0
  0
LINE
  5
7F
330
1F
100
AcDbEntity
  8
1
  6
Continuous
 62
     3
370
    13
100
AcDbLine
 10
6.999938327787406
 20
3.373650376069107
 30
0.0
 11
7.005617956246545
 21
3.374231026470546
 31
0.0
  0
LINE
  5
80
330
1F
100
AcDbEntity
  8
1
  6
Continuous
 62
     3
370
    13
100
AcDbLine
 10
6.888412637741801
 20
4.091703687908202
 30
0.0
 11
6.504199531846526
 21
4.084997223198528
 31
0.0
  0
LINE
  5
81
330
1F
100
AcDbEntity
  8
1
  6
Continuous
 62
     3
370
    13
100
AcDbLine
 10
7.834932532916876
 20
3.37423095254555
 30
0.0
 11
7.851199531846915
 21
3.37423095254555
 31
0.0
  0
LINE
  5
82
330
1F
100
AcDbEntity
  8
1
  6
Continuous
 62
     3
370
    13
100
AcDbLine
 10
6.888412637741801
 20
3.443290758488852
 30
0.0
 11
6.504199531846526
 21
3.449997223198526
 31
0.0
  0
LINE
  5
83
330
1F
100
AcDbEntity
  8
1
  6
Continuous
 62
     3
370
    13
100
AcDbLine
 10
6.888412637741801
 20
3.437249630984423
 30
0.0
 11
6.978412637741801
 21
3.37423095254555
 31
0.0
  0
LINE
  5
84
330
1F
100
AcDbEntity
  8
1
  6
Continuous
 62
     3
370
    13
100
AcDbLine
 10
7.834932532916876
 20
3.534857828474784
 30
0.0
 11
7.876199531846507
 21
3.534857828474784
 31
0.0
  0
LINE
  5
85
330
1F
100
AcDbEntity
  8
1
  6
Continuous
 62
     3
370
    13
100
AcDbLine
 10
6.978412637741801
 20
3.374230952545549
 30
0.0
 11
7.033199531846443
 21
3.374230952545549
 31
0.0
  0
LINE
  5
86
330
1F
100
AcDbEntity
  8
1
  6
Continuous
 62
     3
370
    13
100
AcDbLine
 10
6.888412637741801
 20
3.437249630984423
 30
0.0
 11
6.888412637741801
 21
4.091703687908202
 31
0.0
  0
LINE
  5
87
330
1F
100
AcDbEntity
  8
1
  6
Continuous
 62
     3
370
    13
100
AcDbLine
 10
7.033199531846508
 20
3.374230952545549
 30
0.0
 11
7.033199531846508
 21
3.534857828474719
 31
0.0
  0
LINE
  5
88
330
1F
100
AcDbEntity
  8
1
  6
Continuous
 62
     3
370
    13
100
AcDbLine
 10
6.888412637741801
 20
4.091703687908202
 30
0.0
 11
7.033199531846508
 21
4.094230952545554
 31
0.0
  0
LINE
  5
89
330
1F
100
AcDbEntity
  8
1
  6
Continuous
 62
     3
370
    13
100
AcDbLine
 10
6.824199531846526
 20
3.325582843975558
 30
0.0
 11
7.033213048465716
 21
3.325582843975558
 31
0.0
  0
LINE
  5
8A
330
1F
100
AcDbEntity
  8
1
  6
Continuous
 62
     3
370
    13
100
AcDbLine
 10
7.458374055910882
 20
3.534857828474719
 30
0.0
 11
7.468199531846509
 21
3.534857828474719
 31
0.0
  0
LINE
  5
8B
330
1F
100
AcDbEntity
  8
1
  6
Continuous
 62
     3
370
    13
100
AcDbLine
 10
7.834932532916876
 20
3.534857828474784
 30
0.0
 11
7.468199531846509
 21
3.534857828474784
 31
0.0
  0
LINE
  5
8C
330
1F
100
AcDbEntity
  8
1
  6
Continuous
 62
     4
370
    13
100
AcDbLine
 10
7.264125233247527
 20
3.637376824327017
 30
0.0
 11
7.264125233247527
 21
3.809376824327026
 31
0.0
  0
LINE
  5
8D
330
1F
100
AcDbEntity
  8
1
  6
Continuous
 62
     3
370
    13
100
AcDbLine
 10
7.876199531846509
 20
3.534857828474784
 30
0.0
 11
7.876199531846509
 21
3.399230952545164
 31
0.0
  0
LINE
  5
8E
330
1F
100
AcDbEntity
  8
1
  6
Continuous
 62
     4
370
    18
100
AcDbLine
 10
7.264125233247527
 20
3.637376824327017
 30
0.0
 11
7.037962216380463
 21
3.637376824327017
 31
0.0
  0
LINE
  5
8F
330
1F
100
AcDbEntity
  8
1
  6
Continuous
 62
    95
370
    13
100
AcDbLine
 10
7.291955030466549
 20
3.637377281601447
 30
0.0
 11
7.292175454053261
 21
3.634857828476569
 31
0.0
  0
LINE
  5
90
330
1F
100
AcDbEntity
  8
1
  6
Continuous
 62
     3
370
    13
100
AcDbLine
 10
7.458374055910815
 20
3.374230952545549
 30
0.0
 11
7.033199531846442
 21
3.374230952545549
 31
0.0
  0
LINE
  5
91
330
1F
100
AcDbEntity
  8
1
  6
Continuous
 62
     3
370
    13
100
AcDbLine
 10
7.458374055910882
 20
3.534857828474719
 30
0.0
 11
7.033199531846508
 21
3.534857828474719
 31
0.0
  0
LINE
  5
92
330
1F
100
AcDbEntity
  8
1
  6
Continuous
 62
     3
370
    13
100
AcDbLine
 10
7.033199531846508
 20
3.534857828474719
 30
0.0
 11
7.033199531846508
 21
4.094230952545554
 31
0.0
  0
LINE
  5
93
330
1F
100
AcDbEntity
  8
1
  6
Continuous
 62
     3
370
    13
100
AcDbLine
 10
6.824199531846526
 20
4.090582843975557
 30
0.0
 11
6.824199531846526
 21
4.15287006121327
 31
0.0
  0
LINE
  5
94
330
1F
100
AcDbEntity
  8
1
  6
Continuous
 62
     3
370
    13
100
AcDbLine
 10
6.504199531846526
 20
4.084997223198528
 30
0.0
 11
6.504199531846526
 21
3.449997223198528
 31
0.0
  0
LINE
  5
95
330
1F
100
AcDbEntity
  8
1
  6
Continuous
 62
     3
370
    13
100
AcDbLine
 10
7.458374055910815
 20
3.37423095254555
 30
0.0
 11
7.458374055910882
 21
3.534857828474719
 31
0.0
  0
LINE
  5
96
330
1F
100
AcDbEntity
  8
1
  6
Continuous
 62
     3
370
    13
100
AcDbLine
 10
6.714199531846524
 20
3.344318472685583
 30
0.0
 11
6.714199531846525
 21
3.368662786833449
 31
0.0
  0
LINE
  5
97
330
1F
100
AcDbEntity
  8
1
  6
Continuous
 62
     3
370
    13
100
AcDbLine
 10
6.721654664903597
 20
4.088792916665013
 30
0.0
 11
6.824199531846526
 21
4.152870061213269
 31
0.0
  0
LINE
  5
98
330
1F
100
AcDbEntity
  8
1
  6
Continuous
 62
     3
370
    13
100
AcDbLine
 10
6.818079854789593
 20
3.279406842612017
 30
0.0
 11
6.714199531846525
 21
3.344318472685584
 31
0.0
  0
LINE
  5
99
330
1F
100
AcDbEntity
  8
1
  6
Continuous
 62
     3
370
    13
100
AcDbLine
 10
7.033213048465716
 20
3.325582843975558
 30
0.0
 11
7.179099915329574
 21
3.325582843975558
 31
0.0
  0
LINE
  5
9A
330
1F
100
AcDbEntity
  8
1
  6
Continuous
 62
     3
370
    13
100
AcDbLine
 10
6.824199531846526
 20
3.282799034996643
 30
0.0
 11
6.824199531846526
 21
3.325582843975557
 31
0.0
  0
LINE
  5
9B
330
1F
100
AcDbEntity
  8
1
  6
Continuous
 62
     3
370
    13
100
AcDbLine
 10
7.834932532916876
 20
3.534857828474784
 30
0.0
 11
7.834932532916876
 21
3.37423095254555
 31
0.0
  0
LINE
  5
9C
330
1F
100
AcDbEntity
  8
1
  6
Continuous
 62
    95
370
    13
100
AcDbLine
 10
7.26392881013514
 20
3.634857828475354
 30
0.0
 11
7.263928810134963
 21
3.579857828475544
 31
0.0
  0
LINE
  5
9D
330
1F
100
AcDbEntity
  8
1
  6
Continuous
 62
    95
370
    13
100
AcDbLine
 10
7.202175623780318
 20
3.579857828475752
 30
0.0
 11
7.263928810134963
 21
3.579857828475761
 31
0.0
  0
LINE
  5
9E
330
1F
100
AcDbEntity
  8
1
  6
Continuous
 62
    95
370
    13
100
AcDbLine
 10
7.23239602779788
 20
3.637377057923048
 30
0.0
 11
7.232175623780487
 21
3.634857828476526
 31
0.0
  0
LINE
  5
9F
330
1F
100
AcDbEntity
  8
1
  6
Continuous
 62
    95
370
    13
100
AcDbLine
 10
7.82030030763571
 20
3.634857828475926
 30
0.0
 11
7.818083429980764
 21
3.761857828475587
 31
0.0
  0
LINE
  5
A0
330
1F
100
AcDbEntity
  8
1
  6
Continuous
 62
    95
370
    13
100
AcDbLine
 10
7.763720725278021
 20
3.634857828475544
 30
0.0
 11
7.763774643156828
 21
3.637946781683623
 31
0.0
  0
LINE
  5
A1
330
1F
100
AcDbEntity
  8
1
  6
Continuous
 62
    95
370
    13
100
AcDbLine
 10
7.38092881013514
 20
3.634857828475354
 30
0.0
 11
7.380928810134962
 21
3.579857828475544
 31
0.0
  0
LINE
  5
A2
330
1F
100
AcDbEntity
  8
1
  6
Continuous
 62
    95
370
    13
100
AcDbLine
 10
7.38092881013514
 20
3.634857828475607
 30
0.0
 11
7.793720725278012
 21
3.634857828475672
 31
0.0
  0
LINE
  5
A3
330
1F
100
AcDbEntity
  8
1
  6
Continuous
 62
    95
370
    13
100
AcDbLine
 10
7.26392881013514
 20
3.634857828475354
 30
0.0
 11
7.38092881013514
 21
3.634857828475354
 31
0.0
  0
LINE
  5
A4
330
1F
100
AcDbEntity
  8
1
  6
Continuous
 62
    95
370
    13
100
AcDbLine
 10
7.206987500274407
 20
3.634857828475579
 30
0.0
 11
7.26392881013514
 21
3.634857828475588
 31
0.0
  0
LINE
  5
A5
330
1F
100
AcDbEntity
  8
1
  6
Continuous
 62
    95
370
    13
100
AcDbLine
 10
7.787961824543304
 20
3.74711961457267
 30
0.0
 11
7.795680262043305
 21
3.74711961457267
 31
0.0
  0
LINE
  5
A6
330
1F
100
AcDbEntity
  8
1
  6
Continuous
 62
     3
370
    13
100
AcDbLine
 10
7.033213048465717
 20
3.325582843975557
 30
0.0
 11
7.033205637991207
 21
3.374230952545549
 31
0.0
  0
LINE
  5
A7
330
1F
100
AcDbEntity
  8
1
  6
Continuous
 62
    95
370
    13
100
AcDbLine
 10
7.380928810134962
 20
3.57985782847578
 30
0.0
 11
7.744932535004401
 21
3.579857828475837
 31
0.0
  0
LINE
  5
A8
330
1F
100
AcDbEntity
  8
1
  6
Continuous
 62
    95
370
    13
100
AcDbLine
 10
7.85198500976849
 20
3.579857828476407
 30
0.0
 11
7.821260212617191
 21
3.579857828476407
 31
0.0
  0
LINE
  5
A9
330
1F
100
AcDbEntity
  8
1
  6
Continuous
 62
    95
370
    13
100
AcDbLine
 10
7.804932535004406
 20
3.579857828475544
 30
0.0
 11
7.821260212617191
 21
3.579857828475544
 31
0.0
  0
LINE
  5
AA
330
1F
100
AcDbEntity
  8
1
  6
Continuous
 62
    95
370
    13
100
AcDbLine
 10
7.821260212973455
 20
3.579857828481707
 30
0.0
 11
7.820300147847578
 21
3.634857828475676
 31
0.0
  0
LINE
  5
AB
330
1F
100
AcDbEntity
  8
1
  6
Continuous
 62
     4
370
    13
100
AcDbLine
 10
7.378257862057646
 20
3.637376824327017
 30
0.0
 11
7.378257862057646
 21
3.634854860856529
 31
0.0
  0
LINE
  5
AC
330
1F
100
AcDbEntity
  8
1
  6
Continuous
 62
    95
370
    13
100
AcDbLine
 10
7.848808103542495
 20
3.761857828475572
 30
0.0
 11
7.851024981197442
 21
3.634857828475877
 31
0.0
  0
LINE
  5
AD
330
1F
100
AcDbEntity
  8
1
  6
Continuous
 62
    95
370
    13
100
AcDbLine
 10
7.787962206023915
 20
3.76185782847611
 30
0.0
 11
7.795937518523915
 21
3.76185782847611
 31
0.0
  0
LINE
  5
AE
330
1F
100
AcDbEntity
  8
1
  6
Continuous
 62
    95
370
    13
100
AcDbLine
 10
7.795937518523894
 20
3.761857828475587
 30
0.0
 11
7.793720725278016
 21
3.634857828475926
 31
0.0
  0
LINE
  5
AF
330
1F
100
AcDbEntity
  8
1
  6
Continuous
 62
    95
370
    13
100
AcDbLine
 10
7.818083429980765
 20
3.761857828475587
 30
0.0
 11
7.848808103542495
 21
3.761857828475587
 31
0.0
  0
LINE
  5
B0
330
1F
100
AcDbEntity
  8
1
  6
Continuous
 62
    95
370
    13
100
AcDbLine
 10
7.818083429980764
 20
3.761857828475587
 30
0.0
 11
7.795937518523894
 21
3.761857828475587
 31
0.0
  0
LINE
  5
B1
330
1F
100
AcDbEntity
  8
1
  6
Continuous
 62
    95
370
    13
100
AcDbLine
 10
7.820474734695405
 20
3.534857828474784
 30
0.0
 11
7.821260212617191
 21
3.579857828475544
 31
0.0
  0
LINE
  5
B2
330
1F
100
AcDbEntity
  8
1
  6
Continuous
 62
    95
370
    13
100
AcDbLine
 10
7.380143332213176
 20
3.534857828474784
 30
0.0
 11
7.380928810134962
 21
3.579857828475544
 31
0.0
  0
LINE
  5
B3
330
1F
100
AcDbEntity
  8
1
  6
Continuous
 62
    95
370
    13
100
AcDbLine
 10
7.264714288056744
 20
3.534857828474784
 30
0.0
 11
7.263928810134964
 21
3.579857828475544
 31
0.0
  0
LINE
  5
B4
330
1F
100
AcDbEntity
  8
1
  6
Continuous
 62
    95
370
    13
100
AcDbLine
 10
7.206987500274407
 20
3.634857828475579
 30
0.0
 11
7.2021756237803
 21
3.579857828475546
 31
0.0
  0
LINE
  5
B5
330
1F
100
AcDbEntity
  8
1
  6
Continuous
 62
    95
370
    13
100
AcDbLine
 10
7.803182761733907
 20
3.599857828475546
 30
0.0
 11
7.746682308274927
 21
3.599857828475546
 31
0.0
  0
LINE
  5
B6
330
1F
100
AcDbEntity
  8
1
  6
Continuous
 62
    95
370
    13
100
AcDbLine
 10
7.744932535004417
 20
3.579857828475724
 30
0.0
 11
7.746682308274927
 21
3.599857828475546
 31
0.0
  0
LINE
  5
B7
330
1F
100
AcDbEntity
  8
1
  6
Continuous
 62
    95
370
    13
100
AcDbLine
 10
7.748869524863083
 20
3.624857828475546
 30
0.0
 11
7.800995545145751
 21
3.624857828475546
 31
0.0
  0
LINE
  5
B8
330
1F
100
AcDbEntity
  8
1
  6
Continuous
 62
    95
370
    13
100
AcDbLine
 10
7.803182761733907
 20
3.599857828475546
 30
0.0
 11
7.804932535004417
 21
3.579857828475719
 31
0.0
  0
LINE
  5
B9
330
1F
100
AcDbEntity
  8
1
  6
Continuous
 62
    95
370
    13
100
AcDbLine
 10
7.746682308274927
 20
3.599857828475546
 30
0.0
 11
7.748869524863083
 21
3.624857828475546
 31
0.0
  0
LINE
  5
BA
330
1F
100
AcDbEntity
  8
1
  6
Continuous
 62
    95
370
    13
100
AcDbLine
 10
7.804932535004416
 20
3.579857828475719
 30
0.0
 11
7.744932535004417
 21
3.579857828475724
 31
0.0
  0
LINE
  5
BB
330
1F
100
AcDbEntity
  8
1
  6
Continuous
 62
    95
370
    13
100
AcDbLine
 10
7.82030030763571
 20
3.634857828475926
 30
0.0
 11
7.793720725278016
 21
3.634857828475926
 31
0.0
  0
LINE
  5
BC
330
1F
100
AcDbEntity
  8
1
  6
Continuous
 62
    95
370
    13
100
AcDbLine
 10
7.800995545145751
 20
3.624857828475546
 30
0.0
 11
7.803182761733907
 21
3.599857828475546
 31
0.0
  0
LINE
  5
BD
330
1F
100
AcDbEntity
  8
1
  6
Continuous
 62
    95
370
    13
100
AcDbLine
 10
7.263928810134964
 20
3.579857828475544
 30
0.0
 11
7.380928810134962
 21
3.579857828475544
 31
0.0
  0
LINE
  5
BE
330
1F
100
AcDbEntity
  8
1
  6
Continuous
 62
     4
370
    18
100
AcDbLine
 10
7.819356746343614
 20
3.774857828474779
 30
0.0
 11
7.819356746343614
 21
3.799686798918593
 31
0.0
  0
LINE
  5
BF
330
1F
100
AcDbEntity
  8
1
  6
Continuous
 62
     4
370
    18
100
AcDbLine
 10
7.787962216380489
 20
3.774857828474785
 30
0.0
 11
7.819356746343614
 21
3.774857828474779
 31
0.0
  0
LINE
  5
C0
330
1F
100
AcDbEntity
  8
1
  6
Continuous
 62
     4
370
    18
100
AcDbLine
 10
7.787962216380439
 20
3.774857828474785
 30
0.0
 11
7.787962216380439
 21
3.667376824327016
 31
0.0
  0
LINE
  5
C1
330
1F
100
AcDbEntity
  8
1
  6
Continuous
 62
     4
370
    18
100
AcDbLine
 10
7.381215572462071
 20
3.637376824327014
 30
0.0
 11
7.381215572462071
 21
3.799644298394964
 31
0.0
  0
LINE
  5
C2
330
1F
100
AcDbEntity
  8
1
  6
Continuous
 62
     4
370
    18
100
AcDbLine
 10
7.351924242041528
 20
3.826681218522119
 30
0.0
 11
7.381067223019997
 21
3.826681218522118
 31
0.0
  0
LINE
  5
C3
330
1F
100
AcDbEntity
  8
1
  6
Continuous
 62
     4
370
    18
100
AcDbLine
 10
7.264215572462072
 20
3.637376824327017
 30
0.0
 11
7.381215572462071
 21
3.637376824327014
 31
0.0
  0
LINE
  5
C4
330
1F
100
AcDbEntity
  8
1
  6
Continuous
 62
     4
370
    18
100
AcDbLine
 10
7.381215572462071
 20
3.799644298394964
 30
0.0
 11
7.264215572462072
 21
3.799644298394966
 31
0.0
  0
LINE
  5
C5
330
1F
100
AcDbEntity
  8
1
  6
Continuous
 62
     4
370
    18
100
AcDbLine
 10
7.264215587408967
 20
3.839376824066127
 30
0.0
 11
7.819618522471781
 21
3.829682229773285
 31
0.0
  0
LINE
  5
C6
330
1F
100
AcDbEntity
  8
1
  6
Continuous
 62
     4
370
    18
100
AcDbLine
 10
7.264125233247527
 20
3.637376824327017
 30
0.0
 11
7.264215572462072
 21
3.637376824327017
 31
0.0
  0
LINE
  5
C7
330
1F
100
AcDbEntity
  8
1
  6
Continuous
 62
     4
370
    13
100
AcDbLine
 10
7.264125233247527
 20
3.809376824327026
 30
0.0
 11
7.037962216380463
 21
3.809376824327026
 31
0.0
  0
LINE
  5
C8
330
1F
100
AcDbEntity
  8
1
  6
Continuous
 62
     4
370
    13
100
AcDbLine
 10
7.037962216380462
 20
3.809376824327026
 30
0.0
 11
7.037962216380462
 21
3.838588809903162
 31
0.0
  0
LINE
  5
C9
330
1F
100
AcDbEntity
  8
1
  6
Continuous
 62
     4
370
    13
100
AcDbLine
 10
7.037962216380463
 20
3.637376824327017
 30
0.0
 11
7.037962216380463
 21
3.809376824327026
 31
0.0
  0
LINE
  5
CA
330
1F
100
AcDbEntity
  8
1
  6
Continuous
 62
     7
370
    18
100
AcDbLine
 10
8.201670780659684
 20
3.186001359721761
 30
0.0
 11
8.201670780659684
 21
3.185997708393452
 31
0.0
  0
LINE
  5
CB
330
1F
100
AcDbEntity
  8
1
  6
Continuous
 62
    95
370
    13
100
AcDbLine
 10
7.313955066979697
 20
3.637376864728383
 30
0.0
 11
7.314175454053192
 21
3.634857828477361
 31
0.0
  0
LINE
  5
CC
330
1F
100
AcDbEntity
  8
1
  6
Continuous
 62
    95
370
    13
100
AcDbLine
 10
7.85102494464251
 20
3.634857828476234
 30
0.0
 11
7.851985009768398
 21
3.579857828481707
 31
0.0
  0
LINE
  5
CD
330
1F
100
AcDbEntity
  8
1
  6
Continuous
 62
    95
370
    13
100
AcDbLine
 10
7.037675454053349
 20
3.534857828474784
 30
0.0
 11
7.037675454053352
 21
3.579857828475544
 31
0.0
  0
LINE
  5
CE
330
1F
100
AcDbEntity
  8
1
  6
Continuous
 62
    95
370
    13
100
AcDbLine
 10
7.037675454053531
 20
3.634857828476114
 30
0.0
 11
7.037675454053354
 21
3.579857828475548
 31
0.0
  0
LINE
  5
CF
330
1F
100
AcDbEntity
  8
1
  6
Continuous
 62
     2
370
    13
100
AcDbLine
 10
7.312675216433055
 20
3.634859234726575
 30
0.0
 11
7.312675216433055
 21
3.63737754722657
 31
0.0
  0
LINE
  5
D0
330
1F
100
AcDbEntity
  8
1
  6
Continuous
 62
     4
370
    13
100
AcDbLine
 10
7.463962216380466
 20
3.637376824327017
 30
0.0
 11
7.463962216380466
 21
3.634854860856529
 31
0.0
  0
LINE
  5
D1
330
1F
100
AcDbEntity
  8
1
  6
Continuous
 62
    95
370
    13
100
AcDbLine
 10
7.033193676389556
 20
3.579857828476304
 30
0.0
 11
7.037675454053351
 21
3.579857828476304
 31
0.0
  0
LINE
  5
D2
330
1F
100
AcDbEntity
  8
1
  6
Continuous
 62
     4
370
    18
100
AcDbLine
 10
7.757962216380439
 20
3.637376824327017
 30
0.0
 11
7.381219449371139
 21
3.637376824327017
 31
0.0
  0
LINE
  5
D3
330
1F
100
AcDbEntity
  8
1
  6
Continuous
 62
     4
370
    18
100
AcDbLine
 10
7.819356746343614
 20
3.799686798918593
 30
0.0
 11
7.381207408534491
 21
3.807334724058306
 31
0.0
  0
LINE
  5
D4
330
1F
100
AcDbEntity
  8
1
  6
Continuous
 62
     3
370
    13
100
AcDbLine
 10
6.999938327787408
 20
3.373650376069108
 30
0.0
 11
6.714199531846526
 21
3.368662786833449
 31
0.0
  0
LINE
  5
D5
330
1F
100
AcDbEntity
  8
1
  6
Continuous
 62
    95
370
    13
100
AcDbLine
 10
7.851024981197442
 20
3.634857828475877
 30
0.0
 11
7.82030030763571
 21
3.634857828475877
 31
0.0
  0
LINE
  5
D6
330
1F
100
AcDbEntity
  8
1
  6
Continuous
 62
    95
370
    13
100
AcDbLine
 10
7.037675454053531
 20
3.634857828476045
 30
0.0
 11
7.206987500274448
 21
3.634857828476045
 31
0.0
  0
LINE
  5
D7
330
1F
100
AcDbEntity
  8
1
  6
Continuous
 62
     4
370
    13
100
AcDbLine
 10
7.849094950278662
 20
3.799686798918593
 30
0.0
 11
7.819356746343614
 21
3.799686798918593
 31
0.0
  0
LINE
  5
D8
330
1F
100
AcDbEntity
  8
1
  6
Continuous
 62
     3
370
    13
100
AcDbLine
 10
7.468199531846509
 20
3.534857828474719
 30
0.0
 11
7.468199531846442
 21
3.374230952545549
 31
0.0
  0
LINE
  5
D9
330
1F
100
AcDbEntity
  8
1
  6
Continuous
 62
    95
370
    13
100
AcDbLine
 10
7.851985009768492
 20
3.579857828475544
 30
0.0
 11
7.851199531846706
 21
3.534857828474784
 31
0.0
  0
LINE
  5
DA
330
1F
100
AcDbEntity
  8
1
  6
Continuous
 62
     3
370
    13
100
AcDbLine
 10
7.468199531846442
 20
3.37423095254555
 30
0.0
 11
7.458374055910815
 21
3.37423095254555
 31
0.0
  0
LINE
  5
DB
330
1F
100
AcDbEntity
  8
1
  6
Continuous
 62
     4
370
    13
100
AcDbLine
 10
7.849094950278662
 20
3.774857828474779
 30
0.0
 11
7.819356746343614
 21
3.774857828474779
 31
0.0
  0
LINE
  5
DC
330
1F
100
AcDbEntity
  8
1
  6
Continuous
 62
     3
370
    13
100
AcDbLine
 10
7.834932532916876
 20
3.37423095254555
 30
0.0
 11
7.468199531846559
 21
3.37423095254555
 31
0.0
  0
LINE
  5
DD
330
1F
100
AcDbEntity
  8
1
  6
Continuous
 62
    95
370
    13
100
AcDbLine
 10
7.037675454053351
 20
3.579857828475544
 30
0.0
 11
7.202175623780318
 21
3.579857828475544
 31
0.0
  0
LINE
  5
DE
330
1F
100
AcDbEntity
  8
1
  6
Continuous
 62
     3
370
    13
100
AcDbLine
 10
7.851199531846915
 20
3.374230952545549
 30
0.0
 11
7.876199531846508
 21
3.399230952545163
 31
0.0
  0
LINE
  5
DF
330
1F
100
AcDbEntity
  8
1
  6
Continuous
 62
     2
370
    13
100
AcDbLine
 10
7.298675216433055
 20
3.634859234726575
 30
0.0
 11
7.298675216433055
 21
3.63737754722657
 31
0.0
  0
LINE
  5
E0
330
1F
100
AcDbEntity
  8
1
  6
Continuous
 62
     4
370
    13
100
AcDbLine
 10
7.363257862057646
 20
3.634856333459394
 30
0.0
 11
7.363257862057646
 21
3.637376824327017
 31
0.0
  0
LINE
  5
E1
330
1F
100
AcDbEntity
  8
1
  6
Continuous
 62
     3
370
    13
100
AcDbLine
 10
7.199096869232702
 20
3.345233795846811
 30
0.0
 11
7.199603016485612
 21
3.37423095254555
 31
0.0
  0
LINE
  5
E2
330
1F
100
AcDbEntity
  8
1
  6
Continuous
 62
     4
370
    13
100
AcDbLine
 10
7.043625818923644
 20
3.839376824327026
 30
0.0
 11
7.264215572462072
 21
3.839376824327026
 31
0.0
  0
LINE
  5
E3
330
1F
100
AcDbEntity
  8
1
  6
Continuous
 62
     4
370
    13
100
AcDbLine
 10
7.037962216380463
 20
3.839376824327026
 30
0.0
 11
7.0436119844339
 21
3.839376824327026
 31
0.0
  0
LINE
  5
E4
330
1F
100
AcDbEntity
  8
1
  6
Continuous
 62
     3
370
    13
100
AcDbLine
 10
4.770471817298346
 20
3.645458967617805
 30
0.0
 11
4.770471817298346
 21
3.721659417738329
 31
0.0
  0
LINE
  5
E5
330
1F
100
AcDbEntity
  8
1
  6
Continuous
 62
     3
370
    13
100
AcDbLine
 10
4.786471817298346
 20
3.645458967617805
 30
0.0
 11
4.770471817298346
 21
3.645458967617805
 31
0.0
  0
LINE
  5
E6
330
1F
100
AcDbEntity
  8
1
  6
Continuous
 62
     3
370
    13
100
AcDbLine
 10
4.786471817298346
 20
3.721659417738329
 30
0.0
 11
4.786471817298346
 21
3.645458967617805
 31
0.0
  0
LINE
  5
E7
330
1F
100
AcDbEntity
  8
1
  6
Continuous
 62
     3
370
    13
100
AcDbLine
 10
4.786471817298346
 20
3.721659417738329
 30
0.0
 11
4.789471817298347
 21
3.721659417738329
 31
0.0
  0
LINE
  5
E8
330
1F
100
AcDbEntity
  8
1
  6
Continuous
 62
     3
370
    13
100
AcDbLine
 10
4.807471442298346
 20
3.721659417738329
 30
0.0
 11
4.810471817298346
 21
3.721659417738329
 31
0.0
  0
LINE
  5
E9
330
1F
100
AcDbEntity
  8
1
  6
Continuous
 62
     3
370
    13
100
AcDbLine
 10
4.810471817298346
 20
3.645458967617805
 30
0.0
 11
4.810471817298346
 21
3.721659417738329
 31
0.0
  0
LINE
  5
EA
330
1F
100
AcDbEntity
  8
1
  6
Continuous
 62
     3
370
    13
100
AcDbLine
 10
4.826471817298346
 20
3.645458967617805
 30
0.0
 11
4.810471817298346
 21
3.645458967617805
 31
0.0
  0
LINE
  5
EB
330
1F
100
AcDbEntity
  8
1
  6
Continuous
 62
     3
370
    13
100
AcDbLine
 10
4.826471817298346
 20
3.721659417738329
 30
0.0
 11
4.826471817298346
 21
3.645458967617805
 31
0.0
  0
LINE
  5
EC
330
1F
100
AcDbEntity
  8
1
  6
Continuous
 62
     3
370
    13
100
AcDbLine
 10
4.826471817298346
 20
3.721659417738329
 30
0.0
 11
4.829471817298347
 21
3.721659417738329
 31
0.0
  0
LINE
  5
ED
330
1F
100
AcDbEntity
  8
1
  6
Continuous
 62
     3
370
    13
100
AcDbLine
 10
4.847471442298346
 20
3.721659417738329
 30
0.0
 11
4.850471817298346
 21
3.721659417738329
 31
0.0
  0
LINE
  5
EE
330
1F
100
AcDbEntity
  8
1
  6
Continuous
 62
     3
370
    13
100
AcDbLine
 10
4.850471817298346
 20
3.645458967617805
 30
0.0
 11
4.850471817298346
 21
3.721659417738329
 31
0.0
  0
LINE
  5
EF
330
1F
100
AcDbEntity
  8
1
  6
Continuous
 62
     3
370
    13
100
AcDbLine
 10
4.866471817298346
 20
3.645458967617805
 30
0.0
 11
4.850471817298346
 21
3.645458967617805
 31
0.0
  0
LINE
  5
F0
330
1F
100
AcDbEntity
  8
1
  6
Continuous
 62
     3
370
    13
100
AcDbLine
 10
4.866471817298346
 20
3.721659417738329
 30
0.0
 11
4.866471817298346
 21
3.645458967617805
 31
0.0
  0
LINE
  5
F1
330
1F
100
AcDbEntity
  8
1
  6
Continuous
 62
     3
370
    13
100
AcDbLine
 10
4.866471817298346
 20
3.721659417738329
 30
0.0
 11
4.869471918860846
 21
3.721659417738329
 31
0.0
  0
LINE
  5
F2
330
1F
100
AcDbEntity
  8
1
  6
Continuous
 62
     3
370
    13
100
AcDbLine
 10
4.887471762610847
 20
3.721659417738329
 30
0.0
 11
4.890971817298346
 21
3.721659417738329
 31
0.0
  0
LINE
  5
F3
330
1F
100
AcDbEntity
  8
1
  6
Continuous
 62
     3
370
    13
100
AcDbLine
 10
4.890971817298346
 20
3.645458967617789
 30
0.0
 11
4.890971817298346
 21
3.721659417738329
 31
0.0
  0
LINE
  5
F4
330
1F
100
AcDbEntity
  8
1
  6
Continuous
 62
     3
370
    13
100
AcDbLine
 10
4.906486485676228
 20
3.645458967617805
 30
0.0
 11
4.906486485676228
 21
3.748659417738328
 31
0.0
  0
LINE
  5
F5
330
1F
100
AcDbEntity
  8
1
  6
Continuous
 62
     3
370
    13
100
AcDbLine
 10
4.972971817298346
 20
3.748659417738328
 30
0.0
 11
4.90648648567624
 21
3.748659417738328
 31
0.0
  0
LINE
  5
F6
330
1F
100
AcDbEntity
  8
1
  6
Continuous
 62
     3
370
    13
100
AcDbLine
 10
4.901511361298118
 20
3.748659417738328
 30
0.0
 11
4.901511361298118
 21
3.768659417738329
 31
0.0
  0
LINE
  5
F7
330
1F
100
AcDbEntity
  8
1
  6
Continuous
 62
     3
370
    13
100
AcDbLine
 10
4.901511361298118
 20
3.748659417738328
 30
0.0
 11
4.575432273298575
 21
3.748659417738328
 31
0.0
  0
LINE
  5
F8
330
1F
100
AcDbEntity
  8
1
  6
Continuous
 62
     3
370
    13
100
AcDbLine
 10
4.575432273298575
 20
3.748659417738328
 30
0.0
 11
4.575432273298575
 21
3.768659417738329
 31
0.0
  0
LINE
  5
F9
330
1F
100
AcDbEntity
  8
1
  6
Continuous
 62
     3
370
    13
100
AcDbLine
 10
4.503971817298346
 20
3.768659417738329
 30
0.0
 11
4.575432273298575
 21
3.768659417738329
 31
0.0
  0
LINE
  5
FA
330
1F
100
AcDbEntity
  8
1
  6
Continuous
 62
     3
370
    13
100
AcDbLine
 10
4.503971817298346
 20
3.748659417738328
 30
0.0
 11
4.570457148920452
 21
3.748659417738328
 31
0.0
  0
LINE
  5
FB
330
1F
100
AcDbEntity
  8
1
  6
Continuous
 62
     3
370
    13
100
AcDbLine
 10
4.570457148920463
 20
3.645458967617805
 30
0.0
 11
4.570457148920463
 21
3.748659417738328
 31
0.0
  0
LINE
  5
FC
330
1F
100
AcDbEntity
  8
1
  6
Continuous
 62
     3
370
    13
100
AcDbLine
 10
4.585971817298347
 20
3.645458967617805
 30
0.0
 11
4.570457148920463
 21
3.645458967617805
 31
0.0
  0
LINE
  5
FD
330
1F
100
AcDbEntity
  8
1
  6
Continuous
 62
     3
370
    13
100
AcDbLine
 10
4.585971817298347
 20
3.645458967617805
 30
0.0
 11
4.585971817298347
 21
3.721659417738329
 31
0.0
  0
LINE
  5
FE
330
1F
100
AcDbEntity
  8
1
  6
Continuous
 62
     3
370
    13
100
AcDbLine
 10
4.610471817298346
 20
3.721659417738329
 30
0.0
 11
4.607471715735846
 21
3.721659417738329
 31
0.0
  0
LINE
  5
FF
330
1F
100
AcDbEntity
  8
1
  6
Continuous
 62
     3
370
    13
100
AcDbLine
 10
4.589471871985846
 20
3.721659417738329
 30
0.0
 11
4.585971817298347
 21
3.721659417738329
 31
0.0
  0
LINE
  5
100
330
1F
100
AcDbEntity
  8
1
  6
Continuous
 62
     3
370
    13
100
AcDbLine
 10
4.610471817298346
 20
3.721659417738329
 30
0.0
 11
4.610471817298346
 21
3.645458967617805
 31
0.0
  0
LINE
  5
101
330
1F
100
AcDbEntity
  8
1
  6
Continuous
 62
     3
370
    13
100
AcDbLine
 10
4.626471817298346
 20
3.645458967617805
 30
0.0
 11
4.610471817298346
 21
3.645458967617805
 31
0.0
  0
LINE
  5
102
330
1F
100
AcDbEntity
  8
1
  6
Continuous
 62
     3
370
    13
100
AcDbLine
 10
4.626471817298346
 20
3.645458967617789
 30
0.0
 11
4.626471817298346
 21
3.721659417738329
 31
0.0
  0
LINE
  5
103
330
1F
100
AcDbEntity
  8
1
  6
Continuous
 62
     3
370
    13
100
AcDbLine
 10
4.650471817298346
 20
3.721659417738329
 30
0.0
 11
4.647471442298346
 21
3.721659417738329
 31
0.0
  0
LINE
  5
104
330
1F
100
AcDbEntity
  8
1
  6
Continuous
 62
     3
370
    13
100
AcDbLine
 10
4.629471817298346
 20
3.721659417738329
 30
0.0
 11
4.626471817298346
 21
3.721659417738329
 31
0.0
  0
LINE
  5
105
330
1F
100
AcDbEntity
  8
1
  6
Continuous
 62
     3
370
    13
100
AcDbLine
 10
4.650471817298346
 20
3.721659417738329
 30
0.0
 11
4.650471817298346
 21
3.645458967617805
 31
0.0
  0
LINE
  5
106
330
1F
100
AcDbEntity
  8
1
  6
Continuous
 62
     3
370
    13
100
AcDbLine
 10
4.666471817298346
 20
3.645458967617805
 30
0.0
 11
4.650471817298346
 21
3.645458967617805
 31
0.0
  0
LINE
  5
107
330
1F
100
AcDbEntity
  8
1
  6
Continuous
 62
     3
370
    13
100
AcDbLine
 10
4.666471817298346
 20
3.645458967617789
 30
0.0
 11
4.666471817298346
 21
3.721659417738329
 31
0.0
  0
LINE
  5
108
330
1F
100
AcDbEntity
  8
1
  6
Continuous
 62
     3
370
    13
100
AcDbLine
 10
4.690471817298346
 20
3.721659417738329
 30
0.0
 11
4.687471442298346
 21
3.721659417738329
 31
0.0
  0
LINE
  5
109
330
1F
100
AcDbEntity
  8
1
  6
Continuous
 62
     3
370
    13
100
AcDbLine
 10
4.669471817298346
 20
3.721659417738329
 30
0.0
 11
4.666471817298346
 21
3.721659417738329
 31
0.0
  0
LINE
  5
10A
330
1F
100
AcDbEntity
  8
1
  6
Continuous
 62
     3
370
    13
100
AcDbLine
 10
4.690471817298346
 20
3.721659417738329
 30
0.0
 11
4.690471817298346
 21
3.645458967617805
 31
0.0
  0
LINE
  5
10B
330
1F
100
AcDbEntity
  8
1
  6
Continuous
 62
     3
370
    13
100
AcDbLine
 10
4.706471817298346
 20
3.645458967617805
 30
0.0
 11
4.690471817298346
 21
3.645458967617805
 31
0.0
  0
LINE
  5
10C
330
1F
100
AcDbEntity
  8
1
  6
Continuous
 62
     3
370
    13
100
AcDbLine
 10
4.706471817298346
 20
3.645458967617789
 30
0.0
 11
4.706471817298346
 21
3.721659417738329
 31
0.0
  0
LINE
  5
10D
330
1F
100
AcDbEntity
  8
1
  6
Continuous
 62
     3
370
    13
100
AcDbLine
 10
4.730471817298346
 20
3.721659417738329
 30
0.0
 11
4.727471442298346
 21
3.721659417738329
 31
0.0
  0
LINE
  5
10E
330
1F
100
AcDbEntity
  8
1
  6
Continuous
 62
     3
370
    13
100
AcDbLine
 10
4.709471817298346
 20
3.721659417738329
 30
0.0
 11
4.706471817298346
 21
3.721659417738329
 31
0.0
  0
LINE
  5
10F
330
1F
100
AcDbEntity
  8
1
  6
Continuous
 62
     3
370
    13
100
AcDbLine
 10
4.730471817298346
 20
3.721659417738329
 30
0.0
 11
4.730471817298346
 21
3.645458967617805
 31
0.0
  0
LINE
  5
110
330
1F
100
AcDbEntity
  8
1
  6
Continuous
 62
     3
370
    13
100
AcDbLine
 10
4.972971817298346
 20
3.814360404618932
 30
0.0
 11
4.503971817298346
 21
3.814360404618932
 31
0.0
  0
LINE
  5
111
330
1F
100
AcDbEntity
  8
1
  6
Continuous
 62
     3
370
    13
100
AcDbLine
 10
4.972971817298346
 20
3.768659417738329
 30
0.0
 11
4.901511361298118
 21
3.768659417738329
 31
0.0
  0
LINE
  5
112
330
1F
100
AcDbEntity
  8
1
  6
Continuous
 62
     3
370
    13
100
AcDbLine
 10
4.972971817298346
 20
3.801271212678022
 30
0.0
 11
4.901511361298118
 21
3.801271212678022
 31
0.0
  0
LINE
  5
113
330
1F
100
AcDbEntity
  8
1
  6
Continuous
 62
     3
370
    13
100
AcDbLine
 10
4.901511361298118
 20
3.768659417738329
 30
0.0
 11
4.901511361298118
 21
3.801271212678064
 31
0.0
  0
LINE
  5
114
330
1F
100
AcDbEntity
  8
1
  6
Continuous
 62
     3
370
    13
100
AcDbLine
 10
4.614471817298346
 20
3.843313003401897
 30
0.0
 11
4.614471817298346
 21
3.883313003401897
 31
0.0
  0
LINE
  5
115
330
1F
100
AcDbEntity
  8
1
  6
Continuous
 62
     3
370
    13
100
AcDbLine
 10
4.503971817298372
 20
3.883313003401897
 30
0.0
 11
4.614471817298346
 21
3.883313003401897
 31
0.0
  0
LINE
  5
116
330
1F
100
AcDbEntity
  8
1
  6
Continuous
 62
     2
370
    13
100
AcDbLine
 10
4.709471817298331
 20
3.703496010888014
 30
0.0
 11
4.727471817298331
 21
3.703496010888014
 31
0.0
  0
LINE
  5
117
330
1F
100
AcDbEntity
  8
1
  6
Continuous
 62
     2
370
    13
100
AcDbLine
 10
4.727471817298332
 20
3.711859414331519
 30
0.0
 11
4.727471817298332
 21
3.712948160794362
 31
0.0
  0
LINE
  5
118
330
1F
100
AcDbEntity
  8
1
  6
Continuous
 62
     2
370
    13
100
AcDbLine
 10
4.727471817298332
 20
3.71185941433152
 30
0.0
 11
4.727471817298331
 21
3.705346879874845
 31
0.0
  0
LINE
  5
119
330
1F
100
AcDbEntity
  8
1
  6
Continuous
 62
     2
370
    13
100
AcDbLine
 10
4.727471817298331
 20
3.705346879874845
 30
0.0
 11
4.727471817298331
 21
3.703496010888014
 31
0.0
  0
LINE
  5
11A
330
1F
100
AcDbEntity
  8
1
  6
Continuous
 62
     2
370
    13
100
AcDbLine
 10
4.749471817298331
 20
3.711859414331519
 30
0.0
 11
4.749471817298331
 21
3.712948160794362
 31
0.0
  0
LINE
  5
11B
330
1F
100
AcDbEntity
  8
1
  6
Continuous
 62
     2
370
    13
100
AcDbLine
 10
4.749471817298334
 20
3.712948160794367
 30
0.0
 11
4.767471817298334
 21
3.712948160794367
 31
0.0
  0
LINE
  5
11C
330
1F
100
AcDbEntity
  8
1
  6
Continuous
 62
     2
370
    13
100
AcDbLine
 10
4.749471817298332
 20
3.71185941433152
 30
0.0
 11
4.749471817298331
 21
3.705346879874845
 31
0.0
  0
LINE
  5
11D
330
1F
100
AcDbEntity
  8
1
  6
Continuous
 62
     2
370
    13
100
AcDbLine
 10
4.749471817298332
 20
3.71185941433152
 30
0.0
 11
4.767471817298332
 21
3.71185941433152
 31
0.0
  0
LINE
  5
11E
330
1F
100
AcDbEntity
  8
1
  6
Continuous
 62
     2
370
    13
100
AcDbLine
 10
4.749471817298331
 20
3.705346879874845
 30
0.0
 11
4.749471817298331
 21
3.703496010888014
 31
0.0
  0
LINE
  5
11F
330
1F
100
AcDbEntity
  8
1
  6
Continuous
 62
     4
370
    13
100
AcDbLine
 10
4.521521797428388
 20
3.64845131175413
 30
0.0
 11
4.521521797428388
 21
3.65202103050413
 31
0.0
  0
LINE
  5
120
330
1F
100
AcDbEntity
  8
1
  6
Continuous
 62
     3
370
    13
100
AcDbLine
 10
4.553689780108586
 20
3.651176263850234
 30
0.0
 11
4.553689780108586
 21
3.742942121505901
 31
0.0
  0
LINE
  5
121
330
1F
100
AcDbEntity
  8
1
  6
Continuous
 62
     3
370
    13
100
AcDbLine
 10
4.543695871838393
 20
3.652020617382252
 30
0.0
 11
4.543695871838393
 21
3.742097767973886
 31
0.0
  0
LINE
  5
122
330
1F
100
AcDbEntity
  8
1
  6
Continuous
 62
     3
370
    13
100
AcDbLine
 10
4.506253854488107
 20
3.651176263850233
 30
0.0
 11
4.503971817298345
 21
3.645458967617801
 31
0.0
  0
LINE
  5
123
330
1F
100
AcDbEntity
  8
1
  6
Continuous
 62
     3
370
    13
100
AcDbLine
 10
4.503971817298346
 20
3.748659417738332
 30
0.0
 11
4.506253854488108
 21
3.742942121505902
 31
0.0
  0
LINE
  5
124
330
1F
100
AcDbEntity
  8
1
  6
Continuous
 62
     3
370
    13
100
AcDbLine
 10
4.506253854488108
 20
3.651176263850234
 30
0.0
 11
4.506253854488108
 21
3.742942121505901
 31
0.0
  0
LINE
  5
125
330
1F
100
AcDbEntity
  8
1
  6
Continuous
 62
     3
370
    13
100
AcDbLine
 10
4.555466286515165
 20
3.64672549791583
 30
0.0
 11
4.553689780108586
 21
3.651176263850234
 31
0.0
  0
LINE
  5
126
330
1F
100
AcDbEntity
  8
1
  6
Continuous
 62
     3
370
    13
100
AcDbLine
 10
4.553689780108586
 20
3.742942121505901
 30
0.0
 11
4.555466286515165
 21
3.747392887440303
 31
0.0
  0
LINE
  5
127
330
1F
100
AcDbEntity
  8
1
  6
Continuous
 62
     3
370
    13
100
AcDbLine
 10
4.555466286515166
 20
3.64672549791583
 30
0.0
 11
4.555466286515166
 21
3.747392887440303
 31
0.0
  0
LINE
  5
128
330
1F
100
AcDbEntity
  8
1
  6
Continuous
 62
     4
370
    13
100
AcDbLine
 10
4.890972140038098
 20
3.65658009486244
 30
0.0
 11
4.888469571497468
 21
3.65658009486244
 31
0.0
  0
LINE
  5
129
330
1F
100
AcDbEntity
  8
1
  6
Continuous
 62
     4
370
    13
100
AcDbLine
 10
4.888468098535337
 20
3.656576376099443
 30
0.0
 11
4.888567394964408
 21
3.721598384463917
 31
0.0
  0
LINE
  5
12A
330
1F
100
AcDbEntity
  8
1
  6
Continuous
 62
     4
370
    13
100
AcDbLine
 10
4.888506346271585
 20
3.721659433156741
 30
0.0
 11
4.888567394964408
 21
3.721598384463917
 31
0.0
  0
LINE
  5
12B
330
1F
100
AcDbEntity
  8
1
  6
Continuous
 62
     3
370
    13
100
AcDbLine
 10
5.024834471776752
 20
3.420799245254712
 30
0.0
 11
5.026781159938016
 21
3.422745933415975
 31
0.0
  0
LINE
  5
12C
330
1F
100
AcDbEntity
  8
1
  6
Continuous
 62
     3
370
    13
100
AcDbLine
 10
4.933247762758298
 20
3.652020617382252
 30
0.0
 11
4.960695871838338
 21
3.652020617382252
 31
0.0
  0
LINE
  5
12D
330
1F
100
AcDbEntity
  8
1
  6
Continuous
 62
     3
370
    13
100
AcDbLine
 10
4.933247762758298
 20
3.742097767973883
 30
0.0
 11
4.960695871838338
 21
3.742097767973883
 31
0.0
  0
LINE
  5
12E
330
1F
100
AcDbEntity
  8
1
  6
Continuous
 62
     3
370
    13
100
AcDbLine
 10
4.933247762758299
 20
3.652020617382252
 30
0.0
 11
4.933247762758299
 21
3.742097767973886
 31
0.0
  0
LINE
  5
12F
330
1F
100
AcDbEntity
  8
1
  6
Continuous
 62
     3
370
    13
100
AcDbLine
 10
4.923253854488107
 20
3.651176263850234
 30
0.0
 11
4.921477348081527
 21
3.64672549791583
 31
0.0
  0
LINE
  5
130
330
1F
100
AcDbEntity
  8
1
  6
Continuous
 62
     3
370
    13
100
AcDbLine
 10
4.923253854488106
 20
3.742942121505901
 30
0.0
 11
4.921477348081527
 21
3.747392887440303
 31
0.0
  0
LINE
  5
131
330
1F
100
AcDbEntity
  8
1
  6
Continuous
 62
     3
370
    13
100
AcDbLine
 10
4.923253854488108
 20
3.651176263850234
 30
0.0
 11
4.923253854488108
 21
3.742942121505901
 31
0.0
  0
LINE
  5
132
330
1F
100
AcDbEntity
  8
1
  6
Continuous
 62
     3
370
    13
100
AcDbLine
 10
4.970689780108584
 20
3.651176263850234
 30
0.0
 11
4.970689780108584
 21
3.742942121505901
 31
0.0
  0
LINE
  5
133
330
1F
100
AcDbEntity
  8
1
  6
Continuous
 62
     3
370
    13
100
AcDbLine
 10
4.960695871838338
 20
3.652020617382252
 30
0.0
 11
4.960695871838338
 21
3.742097767973883
 31
0.0
  0
LINE
  5
134
330
1F
100
AcDbEntity
  8
1
  6
Continuous
 62
     3
370
    13
100
AcDbLine
 10
4.921477348081527
 20
3.64672549791583
 30
0.0
 11
4.921477348081527
 21
3.747392887440303
 31
0.0
  0
LINE
  5
135
330
1F
100
AcDbEntity
  8
1
  6
Continuous
 62
     3
370
    13
100
AcDbLine
 10
4.502761990519535
 20
3.323773647612696
 30
0.0
 11
4.502336994206454
 21
3.348117961760562
 31
0.0
  0
LINE
  5
136
330
1F
100
AcDbEntity
  8
1
  6
Continuous
 62
     3
370
    13
100
AcDbLine
 10
4.979681301581228
 20
3.35310555099622
 30
0.0
 11
4.497262333015371
 21
3.35310555099622
 31
0.0
  0
LINE
  5
137
330
1F
100
AcDbEntity
  8
1
  6
Continuous
 62
     3
370
    13
100
AcDbLine
 10
4.497262333015371
 20
3.353105550996221
 30
0.0
 11
4.502336994206454
 21
3.348117961760562
 31
0.0
  0
LINE
  5
138
330
1F
100
AcDbEntity
  8
1
  6
Continuous
 62
     3
370
    13
100
AcDbLine
 10
4.980272013601547
 20
3.353686127472663
 30
0.0
 11
4.980852766967265
 21
3.386952398125647
 31
0.0
  0
LINE
  5
139
330
1F
100
AcDbEntity
  8
1
  6
Continuous
 62
     3
370
    13
100
AcDbLine
 10
4.453515451637301
 20
3.429452398125641
 30
0.0
 11
4.450162474658676
 21
3.422745933415967
 31
0.0
  0
LINE
  5
13A
330
1F
100
AcDbEntity
  8
1
  6
Continuous
 62
     3
370
    13
100
AcDbLine
 10
4.901511361298118
 20
3.76891052282264
 30
0.0
 11
4.575432273298575
 21
3.76891052282264
 31
0.0
  0
LINE
  5
13B
330
1F
100
AcDbEntity
  8
1
  6
Continuous
 62
     3
370
    13
100
AcDbLine
 10
4.503971817298346
 20
3.801271212678022
 30
0.0
 11
4.575432273298575
 21
3.801271212678022
 31
0.0
  0
LINE
  5
13C
330
1F
100
AcDbEntity
  8
1
  6
Continuous
 62
     3
370
    13
100
AcDbLine
 10
4.972971817298347
 20
3.645458967617801
 30
0.0
 11
4.970689780108585
 21
3.651176263850233
 31
0.0
  0
LINE
  5
13D
330
1F
100
AcDbEntity
  8
1
  6
Continuous
 62
     3
370
    13
100
AcDbLine
 10
4.972971817298346
 20
3.748659417738332
 30
0.0
 11
4.970689780108584
 21
3.742942121505902
 31
0.0
  0
LINE
  5
13E
330
1F
100
AcDbEntity
  8
1
  6
Continuous
 62
     3
370
    13
100
AcDbLine
 10
4.906486485676228
 20
3.645458967617805
 30
0.0
 11
4.890971817298346
 21
3.645458967617805
 31
0.0
  0
LINE
  5
13F
330
1F
100
AcDbEntity
  8
1
  6
Continuous
 62
     3
370
    13
100
AcDbLine
 10
4.746471817298346
 20
3.645458967617805
 30
0.0
 11
4.730471817298346
 21
3.645458967617805
 31
0.0
  0
LINE
  5
140
330
1F
100
AcDbEntity
  8
1
  6
Continuous
 62
     3
370
    13
100
AcDbLine
 10
4.746471817298346
 20
3.721659417738329
 30
0.0
 11
4.746471817298346
 21
3.645458967617805
 31
0.0
  0
LINE
  5
141
330
1F
100
AcDbEntity
  8
1
  6
Continuous
 62
     3
370
    13
100
AcDbLine
 10
4.746471817298346
 20
3.721659417738329
 30
0.0
 11
4.749471817298346
 21
3.721659417738329
 31
0.0
  0
LINE
  5
142
330
1F
100
AcDbEntity
  8
1
  6
Continuous
 62
     3
370
    13
100
AcDbLine
 10
4.767471442298346
 20
3.721659417738329
 30
0.0
 11
4.770471817298346
 21
3.721659417738329
 31
0.0
  0
LINE
  5
143
330
1F
100
AcDbEntity
  8
1
  6
Continuous
 62
     3
370
    18
100
AcDbLine
 10
4.502055573885429
 20
3.258254209923757
 30
0.0
 11
4.974888060711263
 21
3.258254209923757
 31
0.0
  0
LINE
  5
144
330
1F
100
AcDbEntity
  8
1
  6
Continuous
 62
    95
370
    13
100
AcDbLine
 10
4.589471116917286
 20
3.648450422675797
 30
0.0
 11
4.585970688169199
 21
3.648450422675797
 31
0.0
  0
LINE
  5
145
330
1F
100
AcDbEntity
  8
1
  6
Continuous
 62
    95
370
    13
100
AcDbLine
 10
4.890972319976733
 20
3.648450422675797
 30
0.0
 11
4.887473157734977
 21
3.648450422675797
 31
0.0
  0
LINE
  5
146
330
1F
100
AcDbEntity
  8
1
  6
Continuous
 62
     2
370
    13
100
AcDbLine
 10
4.887471817298332
 20
3.622148682272857
 30
0.0
 11
4.887471817298331
 21
3.703496010888014
 31
0.0
  0
LINE
  5
147
330
1F
100
AcDbEntity
  8
1
  6
Continuous
 62
     2
370
    13
100
AcDbLine
 10
4.887471817298332
 20
3.622148682272857
 30
0.0
 11
4.887471817298332
 21
3.619452588988614
 31
0.0
  0
LINE
  5
148
330
1F
100
AcDbEntity
  8
1
  6
Continuous
 62
     2
370
    13
100
AcDbLine
 10
4.887471817298332
 20
3.619452588988614
 30
0.0
 11
4.887471817298332
 21
3.614312864489803
 31
0.0
  0
LINE
  5
149
330
1F
100
AcDbEntity
  8
1
  6
Continuous
 62
     2
370
    13
100
AcDbLine
 10
4.887471817298331
 20
3.711859414331519
 30
0.0
 11
4.887471817298331
 21
3.712948160794362
 31
0.0
  0
LINE
  5
14A
330
1F
100
AcDbEntity
  8
1
  6
Continuous
 62
     2
370
    13
100
AcDbLine
 10
4.887471817298332
 20
3.71185941433152
 30
0.0
 11
4.887471817298331
 21
3.705346879874845
 31
0.0
  0
LINE
  5
14B
330
1F
100
AcDbEntity
  8
1
  6
Continuous
 62
     2
370
    13
100
AcDbLine
 10
4.887471817298331
 20
3.705346879874845
 30
0.0
 11
4.887471817298331
 21
3.703496010888014
 31
0.0
  0
LINE
  5
14C
330
1F
100
AcDbEntity
  8
1
  6
Continuous
 62
     3
370
    13
100
AcDbLine
 10
5.026781159938018
 20
4.071158862835315
 30
0.0
 11
5.023428182959392
 21
4.064452398125641
 31
0.0
  0
LINE
  5
14D
330
1F
100
AcDbEntity
  8
1
  6
Continuous
 62
     3
370
    13
100
AcDbLine
 10
4.497382807716709
 20
4.068248091592127
 30
0.0
 11
4.979560826879984
 21
4.068248091592127
 31
0.0
  0
LINE
  5
14E
330
1F
100
AcDbEntity
  8
1
  6
Continuous
 62
     3
370
    13
100
AcDbLine
 10
5.060971817298347
 20
4.073686127472668
 30
0.0
 11
4.995888201503491
 21
4.073686127472668
 31
0.0
  0
LINE
  5
14F
330
1F
100
AcDbEntity
  8
1
  6
Continuous
 62
     3
370
    13
100
AcDbLine
 10
5.026781159938017
 20
3.422745933415966
 30
0.0
 11
5.023428182959392
 21
3.42945239812564
 31
0.0
  0
LINE
  5
150
330
1F
100
AcDbEntity
  8
1
  6
Continuous
 62
     3
370
    13
100
AcDbLine
 10
5.058471817298347
 20
3.416704805911537
 30
0.0
 11
5.060025825355439
 21
3.353686127472663
 31
0.0
  0
LINE
  5
151
330
1F
100
AcDbEntity
  8
1
  6
Continuous
 62
     3
370
    13
100
AcDbLine
 10
5.026781159938016
 20
3.416704805911537
 30
0.0
 11
5.058471817298347
 21
3.416704805911537
 31
0.0
  0
LINE
  5
152
330
1F
100
AcDbEntity
  8
1
  6
Continuous
 62
     3
370
    13
100
AcDbLine
 10
5.060025825355439
 20
3.353686127472663
 30
0.0
 11
5.025210204094475
 21
3.353686127472663
 31
0.0
  0
LINE
  5
153
330
1F
100
AcDbEntity
  8
1
  6
Continuous
 62
     3
370
    13
100
AcDbLine
 10
5.060025825355439
 20
3.353686127472663
 30
0.0
 11
5.060971817298346
 21
3.353686127472663
 31
0.0
  0
LINE
  5
154
330
1F
100
AcDbEntity
  8
1
  6
Continuous
 62
     3
370
    13
100
AcDbLine
 10
5.058471817298347
 20
3.416704805911537
 30
0.0
 11
5.058471817298347
 21
4.071158862835315
 31
0.0
  0
LINE
  5
155
330
1F
100
AcDbEntity
  8
1
  6
Continuous
 62
     3
370
    13
100
AcDbLine
 10
5.060971817298347
 20
3.353686127472663
 30
0.0
 11
5.060971817298347
 21
3.514313003401832
 31
0.0
  0
LINE
  5
156
330
1F
100
AcDbEntity
  8
1
  6
Continuous
 62
     3
370
    13
100
AcDbLine
 10
4.984934975633336
 20
4.07003801890267
 30
0.0
 11
4.995888201503491
 21
4.073686127472668
 31
0.0
  0
LINE
  5
157
330
1F
100
AcDbEntity
  8
1
  6
Continuous
 62
     3
370
    13
100
AcDbLine
 10
4.4810554330932
 20
4.073686127472667
 30
0.0
 11
4.415971817298347
 21
4.073686127472667
 31
0.0
  0
LINE
  5
158
330
1F
100
AcDbEntity
  8
1
  6
Continuous
 62
     3
370
    13
100
AcDbLine
 10
5.058471817298347
 20
4.071158862835315
 30
0.0
 11
5.060971817298347
 21
4.073686127472668
 31
0.0
  0
LINE
  5
159
330
1F
100
AcDbEntity
  8
1
  6
Continuous
 62
     3
370
    13
100
AcDbLine
 10
4.97577461978748
 20
3.305038018902671
 30
0.0
 11
4.97942296429094
 21
3.305038018902671
 31
0.0
  0
LINE
  5
15A
330
1F
100
AcDbEntity
  8
1
  6
Continuous
 62
     3
370
    13
100
AcDbLine
 10
4.503971817298781
 20
3.61431300340196
 30
0.0
 11
4.473971817298555
 21
3.584313003401734
 31
0.0
  0
LINE
  5
15B
330
1F
100
AcDbEntity
  8
1
  6
Continuous
 62
     3
370
    13
100
AcDbLine
 10
4.892471817298346
 20
3.979313003401897
 30
0.0
 11
4.892471817298346
 21
3.913313003401897
 31
0.0
  0
LINE
  5
15C
330
1F
100
AcDbEntity
  8
1
  6
Continuous
 62
     3
370
    13
100
AcDbLine
 10
4.892471817298346
 20
3.913313003401897
 30
0.0
 11
5.002971817298138
 21
3.913313003401897
 31
0.0
  0
LINE
  5
15D
330
1F
100
AcDbEntity
  8
1
  6
Continuous
 62
     4
370
    13
100
AcDbLine
 10
4.535421837190771
 20
3.65202103050413
 30
0.0
 11
4.535421837190771
 21
3.64845131175413
 31
0.0
  0
LINE
  5
15E
330
1F
100
AcDbEntity
  8
1
  6
Continuous
 62
     3
370
    13
100
AcDbLine
 10
4.415971817298347
 20
3.353686127472663
 30
0.0
 11
4.415971817298347
 21
3.514313003401832
 31
0.0
  0
LINE
  5
15F
330
1F
100
AcDbEntity
  8
1
  6
Continuous
 62
     3
370
    13
100
AcDbLine
 10
4.496671620995145
 20
3.353686127472663
 30
0.0
 11
4.452689739296029
 21
3.353686127472663
 31
0.0
  0
LINE
  5
160
330
1F
100
AcDbEntity
  8
1
  6
Continuous
 62
     3
370
    13
100
AcDbLine
 10
4.496671620995145
 20
3.353686127472661
 30
0.0
 11
4.496090867629427
 21
3.386952398125639
 31
0.0
  0
LINE
  5
161
330
1F
100
AcDbEntity
  8
1
  6
Continuous
 62
     3
370
    13
100
AcDbLine
 10
4.496671514411967
 20
3.353686127472664
 30
0.0
 11
4.497520670305815
 21
3.305038018902671
 31
0.0
  0
LINE
  5
162
330
1F
100
AcDbEntity
  8
1
  6
Continuous
 62
     3
370
    13
100
AcDbLine
 10
4.451733430502216
 20
3.353686127472663
 30
0.0
 11
4.416917809241255
 21
3.353686127472663
 31
0.0
  0
LINE
  5
163
330
1F
100
AcDbEntity
  8
1
  6
Continuous
 62
     3
370
    13
100
AcDbLine
 10
4.416917809241255
 20
3.353686127472663
 30
0.0
 11
4.418471817298347
 21
3.416704805911537
 31
0.0
  0
LINE
  5
164
330
1F
100
AcDbEntity
  8
1
  6
Continuous
 62
     3
370
    13
100
AcDbLine
 10
4.45210916281994
 20
3.420799245254712
 30
0.0
 11
4.450162474658676
 21
3.422745933415975
 31
0.0
  0
LINE
  5
165
330
1F
100
AcDbEntity
  8
1
  6
Continuous
 62
     3
370
    13
100
AcDbLine
 10
4.452689739296029
 20
3.353686127472663
 30
0.0
 11
4.451733430502216
 21
3.353686127472663
 31
0.0
  0
LINE
  5
166
330
1F
100
AcDbEntity
  8
1
  6
Continuous
 62
     3
370
    13
100
AcDbLine
 10
4.450162474658676
 20
3.416704805911537
 30
0.0
 11
4.451733430502216
 21
3.353686127472663
 31
0.0
  0
LINE
  5
167
330
1F
100
AcDbEntity
  8
1
  6
Continuous
 62
     3
370
    13
100
AcDbLine
 10
4.452689739296029
 20
3.353686127472663
 30
0.0
 11
4.452689739296029
 21
3.386952398125639
 31
0.0
  0
LINE
  5
168
330
1F
100
AcDbEntity
  8
1
  6
Continuous
 62
     3
370
    13
100
AcDbLine
 10
4.818471817298346
 20
4.004313003401898
 30
0.0
 11
4.658471817298341
 21
4.004313003401898
 31
0.0
  0
LINE
  5
169
330
1F
100
AcDbEntity
  8
1
  6
Continuous
 62
     3
370
    13
100
AcDbLine
 10
4.818471817298346
 20
3.949313003401897
 30
0.0
 11
4.818471817298346
 21
4.01717456463859
 31
0.0
  0
LINE
  5
16A
330
1F
100
AcDbEntity
  8
1
  6
Continuous
 62
     3
370
    13
100
AcDbLine
 10
4.862471817298346
 20
3.883313003401897
 30
0.0
 11
4.862471817298346
 21
3.949313003401897
 31
0.0
  0
LINE
  5
16B
330
1F
100
AcDbEntity
  8
1
  6
Continuous
 62
     3
370
    13
100
AcDbLine
 10
4.862471817298346
 20
3.949313003401897
 30
0.0
 11
4.818471817298346
 21
3.949313003401897
 31
0.0
  0
LINE
  5
16C
330
1F
100
AcDbEntity
  8
1
  6
Continuous
 62
     3
370
    13
100
AcDbLine
 10
4.614471817298346
 20
3.907166205060359
 30
0.0
 11
4.862471817298346
 21
3.907166205060359
 31
0.0
  0
LINE
  5
16D
330
1F
100
AcDbEntity
  8
1
  6
Continuous
 62
     3
370
    13
100
AcDbLine
 10
4.97297181729832
 20
3.883313003401897
 30
0.0
 11
4.862471817298346
 21
3.883313003401897
 31
0.0
  0
LINE
  5
16E
330
1F
100
AcDbEntity
  8
1
  6
Continuous
 62
     3
370
    13
100
AcDbLine
 10
4.972971817298293
 20
3.614313003401994
 30
0.0
 11
4.972971817298293
 21
3.883313003401897
 31
0.0
  0
LINE
  5
16F
330
1F
100
AcDbEntity
  8
1
  6
Continuous
 62
     3
370
    13
100
AcDbLine
 10
4.497382807716709
 20
4.068248091592126
 30
0.0
 11
4.492008658963355
 21
4.07003801890267
 31
0.0
  0
LINE
  5
170
330
1F
100
AcDbEntity
  8
1
  6
Continuous
 62
     3
370
    13
100
AcDbLine
 10
4.450162474658676
 20
4.071158862835315
 30
0.0
 11
4.418471817298347
 21
4.071158862835315
 31
0.0
  0
LINE
  5
171
330
1F
100
AcDbEntity
  8
1
  6
Continuous
 62
     2
370
    13
100
AcDbLine
 10
4.749471817298331
 20
3.705346879874845
 30
0.0
 11
4.767471817298331
 21
3.705346879874845
 31
0.0
  0
LINE
  5
172
330
1F
100
AcDbEntity
  8
1
  6
Continuous
 62
     2
370
    13
100
AcDbLine
 10
4.749471817298331
 20
3.703496010888014
 30
0.0
 11
4.767471817298331
 21
3.703496010888014
 31
0.0
  0
LINE
  5
173
330
1F
100
AcDbEntity
  8
1
  6
Continuous
 62
     2
370
    13
100
AcDbLine
 10
4.767471817298332
 20
3.711859414331519
 30
0.0
 11
4.767471817298332
 21
3.712948160794362
 31
0.0
  0
LINE
  5
174
330
1F
100
AcDbEntity
  8
1
  6
Continuous
 62
     2
370
    13
100
AcDbLine
 10
4.767471817298332
 20
3.71185941433152
 30
0.0
 11
4.767471817298331
 21
3.705346879874845
 31
0.0
  0
LINE
  5
175
330
1F
100
AcDbEntity
  8
1
  6
Continuous
 62
     2
370
    13
100
AcDbLine
 10
4.767471817298331
 20
3.705346879874845
 30
0.0
 11
4.767471817298331
 21
3.703496010888014
 31
0.0
  0
LINE
  5
176
330
1F
100
AcDbEntity
  8
1
  6
Continuous
 62
     2
370
    13
100
AcDbLine
 10
4.629471817298332
 20
3.711859414331519
 30
0.0
 11
4.629471817298332
 21
3.712948160794362
 31
0.0
  0
LINE
  5
177
330
1F
100
AcDbEntity
  8
1
  6
Continuous
 62
     2
370
    13
100
AcDbLine
 10
4.629471817298334
 20
3.712948160794367
 30
0.0
 11
4.647471817298334
 21
3.712948160794367
 31
0.0
  0
LINE
  5
178
330
1F
100
AcDbEntity
  8
1
  6
Continuous
 62
     2
370
    13
100
AcDbLine
 10
4.629471817298332
 20
3.71185941433152
 30
0.0
 11
4.629471817298331
 21
3.705346879874845
 31
0.0
  0
LINE
  5
179
330
1F
100
AcDbEntity
  8
1
  6
Continuous
 62
     2
370
    13
100
AcDbLine
 10
4.629471817298332
 20
3.71185941433152
 30
0.0
 11
4.647471817298332
 21
3.71185941433152
 31
0.0
  0
LINE
  5
17A
330
1F
100
AcDbEntity
  8
1
  6
Continuous
 62
     2
370
    13
100
AcDbLine
 10
4.629471817298331
 20
3.705346879874845
 30
0.0
 11
4.629471817298331
 21
3.703496010888014
 31
0.0
  0
LINE
  5
17B
330
1F
100
AcDbEntity
  8
1
  6
Continuous
 62
     2
370
    13
100
AcDbLine
 10
4.629471817298331
 20
3.705346879874845
 30
0.0
 11
4.647471817298331
 21
3.705346879874845
 31
0.0
  0
LINE
  5
17C
330
1F
100
AcDbEntity
  8
1
  6
Continuous
 62
     2
370
    13
100
AcDbLine
 10
4.629471817298331
 20
3.703496010888014
 30
0.0
 11
4.647471817298331
 21
3.703496010888014
 31
0.0
  0
LINE
  5
17D
330
1F
100
AcDbEntity
  8
1
  6
Continuous
 62
     2
370
    13
100
AcDbLine
 10
4.647471817298332
 20
3.711859414331519
 30
0.0
 11
4.647471817298332
 21
3.712948160794362
 31
0.0
  0
LINE
  5
17E
330
1F
100
AcDbEntity
  8
1
  6
Continuous
 62
     2
370
    13
100
AcDbLine
 10
4.647471817298332
 20
3.71185941433152
 30
0.0
 11
4.647471817298331
 21
3.705346879874845
 31
0.0
  0
LINE
  5
17F
330
1F
100
AcDbEntity
  8
1
  6
Continuous
 62
     2
370
    13
100
AcDbLine
 10
4.647471817298331
 20
3.705346879874845
 30
0.0
 11
4.647471817298331
 21
3.703496010888014
 31
0.0
  0
LINE
  5
180
330
1F
100
AcDbEntity
  8
1
  6
Continuous
 62
     2
370
    13
100
AcDbLine
 10
4.727471817298332
 20
3.619452588988614
 30
0.0
 11
4.727471817298332
 21
3.614312864489803
 31
0.0
  0
LINE
  5
181
330
1F
100
AcDbEntity
  8
1
  6
Continuous
 62
     3
370
    13
100
AcDbLine
 10
4.658471817298346
 20
3.949313003401897
 30
0.0
 11
4.658471817298346
 21
4.01717456463859
 31
0.0
  0
LINE
  5
182
330
1F
100
AcDbEntity
  8
1
  6
Continuous
 62
     2
370
    13
100
AcDbLine
 10
4.607471817298332
 20
3.622148682272857
 30
0.0
 11
4.607471817298331
 21
3.703496010888014
 31
0.0
  0
LINE
  5
183
330
1F
100
AcDbEntity
  8
1
  6
Continuous
 62
     3
370
    13
100
AcDbLine
 10
4.584471817298346
 20
3.979313003401897
 30
0.0
 11
4.614471817298346
 21
3.949313003401897
 31
0.0
  0
LINE
  5
184
330
1F
100
AcDbEntity
  8
1
  6
Continuous
 62
     2
370
    13
100
AcDbLine
 10
4.687471817298332
 20
3.619452588988614
 30
0.0
 11
4.687471817298332
 21
3.614312864489803
 31
0.0
  0
LINE
  5
185
330
1F
100
AcDbEntity
  8
1
  6
Continuous
 62
     2
370
    13
100
AcDbLine
 10
4.749471817298332
 20
3.622148682272857
 30
0.0
 11
4.749471817298331
 21
3.703496010888014
 31
0.0
  0
LINE
  5
186
330
1F
100
AcDbEntity
  8
1
  6
Continuous
 62
     3
370
    13
100
AcDbLine
 10
4.614471817298346
 20
3.883313003401897
 30
0.0
 11
4.614471817298346
 21
3.949313003401897
 31
0.0
  0
LINE
  5
187
330
1F
100
AcDbEntity
  8
1
  6
Continuous
 62
     2
370
    13
100
AcDbLine
 10
4.807471817298332
 20
3.619452588988614
 30
0.0
 11
4.807471817298332
 21
3.614312864489803
 31
0.0
  0
LINE
  5
188
330
1F
100
AcDbEntity
  8
1
  6
Continuous
 62
     2
370
    13
100
AcDbLine
 10
4.669471817298332
 20
3.711859414331519
 30
0.0
 11
4.669471817298332
 21
3.712948160794362
 31
0.0
  0
LINE
  5
189
330
1F
100
AcDbEntity
  8
1
  6
Continuous
 62
     3
370
    13
100
AcDbLine
 10
5.060971817298347
 20
3.514313003401832
 30
0.0
 11
5.060971817298347
 21
4.073686127472668
 31
0.0
  0
LINE
  5
18A
330
1F
100
AcDbEntity
  8
1
  6
Continuous
 62
     3
370
    13
100
AcDbLine
 10
4.984934975633336
 20
4.07003801890267
 30
0.0
 11
4.984934975633336
 21
4.132325236140383
 31
0.0
  0
LINE
  5
18B
330
1F
100
AcDbEntity
  8
1
  6
Continuous
 62
     3
370
    13
100
AcDbLine
 10
5.002971817298138
 20
3.913313003401897
 30
0.0
 11
5.002971817298138
 21
3.584313003401734
 31
0.0
  0
LINE
  5
18C
330
1F
100
AcDbEntity
  8
1
  6
Continuous
 62
     3
370
    13
100
AcDbLine
 10
4.492008658963356
 20
4.132325236140383
 30
0.0
 11
4.984934975633336
 21
4.132325236140383
 31
0.0
  0
LINE
  5
18D
330
1F
100
AcDbEntity
  8
1
  6
Continuous
 62
     3
370
    13
100
AcDbLine
 10
4.848471817298346
 20
4.025213040411524
 30
0.0
 11
4.848471817298346
 21
3.979313003401897
 31
0.0
  0
LINE
  5
18E
330
1F
100
AcDbEntity
  8
1
  6
Continuous
 62
     3
370
    13
100
AcDbLine
 10
4.453515451637301
 20
3.429452398125642
 30
0.0
 11
5.023428182959391
 21
3.429452398125642
 31
0.0
  0
LINE
  5
18F
330
1F
100
AcDbEntity
  8
1
  6
Continuous
 62
     3
370
    13
100
AcDbLine
 10
4.628471817298346
 20
4.025213040411524
 30
0.0
 11
4.848471817298346
 21
4.025213040411524
 31
0.0
  0
LINE
  5
190
330
1F
100
AcDbEntity
  8
1
  6
Continuous
 62
     3
370
    13
100
AcDbLine
 10
4.473971817298555
 20
3.584313003401734
 30
0.0
 11
5.002971817298138
 21
3.584313003401734
 31
0.0
  0
LINE
  5
191
330
1F
100
AcDbEntity
  8
1
  6
Continuous
 62
     3
370
    13
100
AcDbLine
 10
4.848471817298346
 20
3.979313003401897
 30
0.0
 11
4.892471817298346
 21
3.979313003401898
 31
0.0
  0
LINE
  5
192
330
1F
100
AcDbEntity
  8
1
  6
Continuous
 62
     3
370
    13
100
AcDbLine
 10
4.628471817298346
 20
3.979313003401897
 30
0.0
 11
4.658471817298346
 21
3.949313003401897
 31
0.0
  0
LINE
  5
193
330
1F
100
AcDbEntity
  8
1
  6
Continuous
 62
     3
370
    13
100
AcDbLine
 10
4.628471817298346
 20
4.025213040411524
 30
0.0
 11
4.628471817298346
 21
3.979313003401897
 31
0.0
  0
LINE
  5
194
330
1F
100
AcDbEntity
  8
1
  6
Continuous
 62
     3
370
    13
100
AcDbLine
 10
4.628471817298346
 20
3.979313003401897
 30
0.0
 11
4.584471817298346
 21
3.979313003401898
 31
0.0
  0
LINE
  5
195
330
1F
100
AcDbEntity
  8
1
  6
Continuous
 62
     3
370
    13
100
AcDbLine
 10
4.473971817298555
 20
3.913313003401897
 30
0.0
 11
4.473971817298555
 21
3.584313003401734
 31
0.0
  0
LINE
  5
196
330
1F
100
AcDbEntity
  8
1
  6
Continuous
 62
     3
370
    13
100
AcDbLine
 10
4.497382807716709
 20
4.068248091592126
 30
0.0
 11
4.492008658963356
 21
4.132325236140383
 31
0.0
  0
LINE
  5
197
330
1F
100
AcDbEntity
  8
1
  6
Continuous
 62
     3
370
    13
100
AcDbLine
 10
4.584471817298346
 20
3.979313003401897
 30
0.0
 11
4.584471817298346
 21
3.913313003401897
 31
0.0
  0
LINE
  5
198
330
1F
100
AcDbEntity
  8
1
  6
Continuous
 62
     3
370
    13
100
AcDbLine
 10
4.584471817298346
 20
3.913313003401897
 30
0.0
 11
4.614471817298346
 21
3.883313003401898
 31
0.0
  0
LINE
  5
199
330
1F
100
AcDbEntity
  8
1
  6
Continuous
 62
     3
370
    13
100
AcDbLine
 10
4.584471817298346
 20
3.913313003401897
 30
0.0
 11
4.473971817298555
 21
3.913313003401897
 31
0.0
  0
LINE
  5
19A
330
1F
100
AcDbEntity
  8
1
  6
Continuous
 62
     3
370
    13
100
AcDbLine
 10
5.023428182959391
 20
4.064452398125641
 30
0.0
 11
4.453515451637301
 21
4.064452398125641
 31
0.0
  0
LINE
  5
19B
330
1F
100
AcDbEntity
  8
1
  6
Continuous
 62
     3
370
    13
100
AcDbLine
 10
5.023428182959391
 20
4.064452398125641
 30
0.0
 11
5.023428182959391
 21
3.429452398125642
 31
0.0
  0
LINE
  5
19C
330
1F
100
AcDbEntity
  8
1
  6
Continuous
 62
     3
370
    13
100
AcDbLine
 10
4.453515451637301
 20
3.429452398125642
 30
0.0
 11
4.453515451637301
 21
4.064452398125641
 31
0.0
  0
LINE
  5
19D
330
1F
100
AcDbEntity
  8
1
  6
Continuous
 62
     3
370
    13
100
AcDbLine
 10
5.025210204094475
 20
3.353686127472663
 30
0.0
 11
5.026781159938016
 21
3.416704805911537
 31
0.0
  0
LINE
  5
19E
330
1F
100
AcDbEntity
  8
1
  6
Continuous
 62
     3
370
    13
100
AcDbLine
 10
4.974181644077068
 20
3.323773647612696
 30
0.0
 11
4.974606640390149
 21
3.348117961760562
 31
0.0
  0
LINE
  5
19F
330
1F
100
AcDbEntity
  8
1
  6
Continuous
 62
     3
370
    13
100
AcDbLine
 10
4.979560826879983
 20
4.068248091592126
 30
0.0
 11
4.984934975633336
 21
4.132325236140383
 31
0.0
  0
LINE
  5
1A0
330
1F
100
AcDbEntity
  8
1
  6
Continuous
 62
     3
370
    13
100
AcDbLine
 10
5.026781159938018
 20
3.422745933415966
 30
0.0
 11
5.026781159938018
 21
4.071158862835315
 31
0.0
  0
LINE
  5
1A1
330
1F
100
AcDbEntity
  8
1
  6
Continuous
 62
     3
370
    13
100
AcDbLine
 10
5.058471817298347
 20
4.071158862835315
 30
0.0
 11
5.026781159938018
 21
4.071158862835315
 31
0.0
  0
LINE
  5
1A2
330
1F
100
AcDbEntity
  8
1
  6
Continuous
 62
     3
370
    13
100
AcDbLine
 10
4.974861672548004
 20
3.25886201753913
 30
0.0
 11
4.974181644077068
 21
3.323773647612697
 31
0.0
  0
LINE
  5
1A3
330
1F
100
AcDbEntity
  8
1
  6
Continuous
 62
     3
370
    13
100
AcDbLine
 10
4.975027711866181
 20
3.262254209923757
 30
0.0
 11
4.975774619787479
 21
3.305038018902671
 31
0.0
  0
LINE
  5
1A4
330
1F
100
AcDbEntity
  8
1
  6
Continuous
 62
     3
370
    13
100
AcDbLine
 10
4.984934975633336
 20
4.070038018902671
 30
0.0
 11
4.979560826879982
 21
4.068248091592126
 31
0.0
  0
LINE
  5
1A5
330
1F
100
AcDbEntity
  8
1
  6
Continuous
 62
     3
370
    18
100
AcDbLine
 10
4.502081962048597
 20
3.258862017539131
 30
0.0
 11
4.974861672548004
 21
3.258862017539131
 31
0.0
  0
LINE
  5
1A6
330
1F
100
AcDbEntity
  8
1
  6
Continuous
 62
     4
370
    13
100
AcDbLine
 10
4.521067049784944
 20
3.64845131175413
 30
0.0
 11
4.521067049784944
 21
3.65202103050413
 31
0.0
  0
LINE
  5
1A7
330
1F
100
AcDbEntity
  8
1
  6
Continuous
 62
     2
370
    13
100
AcDbLine
 10
4.807471817298332
 20
3.711859414331519
 30
0.0
 11
4.807471817298332
 21
3.712948160794362
 31
0.0
  0
LINE
  5
1A8
330
1F
100
AcDbEntity
  8
1
  6
Continuous
 62
     2
370
    13
100
AcDbLine
 10
4.807471817298332
 20
3.71185941433152
 30
0.0
 11
4.807471817298331
 21
3.705346879874845
 31
0.0
  0
LINE
  5
1A9
330
1F
100
AcDbEntity
  8
1
  6
Continuous
 62
     2
370
    13
100
AcDbLine
 10
4.807471817298331
 20
3.705346879874845
 30
0.0
 11
4.807471817298331
 21
3.703496010888014
 31
0.0
  0
LINE
  5
1AA
330
1F
100
AcDbEntity
  8
1
  6
Continuous
 62
     2
370
    13
100
AcDbLine
 10
4.807471817298332
 20
3.622148682272857
 30
0.0
 11
4.807471817298331
 21
3.703496010888014
 31
0.0
  0
LINE
  5
1AB
330
1F
100
AcDbEntity
  8
1
  6
Continuous
 62
     2
370
    13
100
AcDbLine
 10
4.807471817298332
 20
3.622148682272857
 30
0.0
 11
4.807471817298332
 21
3.619452588988614
 31
0.0
  0
LINE
  5
1AC
330
1F
100
AcDbEntity
  8
1
  6
Continuous
 62
     2
370
    13
100
AcDbLine
 10
4.709471817298332
 20
3.711859414331519
 30
0.0
 11
4.709471817298332
 21
3.712948160794362
 31
0.0
  0
LINE
  5
1AD
330
1F
100
AcDbEntity
  8
1
  6
Continuous
 62
     2
370
    13
100
AcDbLine
 10
4.709471817298334
 20
3.712948160794367
 30
0.0
 11
4.727471817298334
 21
3.712948160794367
 31
0.0
  0
LINE
  5
1AE
330
1F
100
AcDbEntity
  8
1
  6
Continuous
 62
     2
370
    13
100
AcDbLine
 10
4.709471817298332
 20
3.71185941433152
 30
0.0
 11
4.709471817298331
 21
3.705346879874845
 31
0.0
  0
LINE
  5
1AF
330
1F
100
AcDbEntity
  8
1
  6
Continuous
 62
     2
370
    13
100
AcDbLine
 10
4.709471817298332
 20
3.71185941433152
 30
0.0
 11
4.727471817298332
 21
3.71185941433152
 31
0.0
  0
LINE
  5
1B0
330
1F
100
AcDbEntity
  8
1
  6
Continuous
 62
     2
370
    13
100
AcDbLine
 10
4.709471817298331
 20
3.705346879874845
 30
0.0
 11
4.709471817298331
 21
3.703496010888014
 31
0.0
  0
LINE
  5
1B1
330
1F
100
AcDbEntity
  8
1
  6
Continuous
 62
     2
370
    13
100
AcDbLine
 10
4.709471817298331
 20
3.705346879874845
 30
0.0
 11
4.727471817298331
 21
3.705346879874845
 31
0.0
  0
LINE
  5
1B2
330
1F
100
AcDbEntity
  8
1
  6
Continuous
 62
     2
370
    13
100
AcDbLine
 10
4.789471817298331
 20
3.711859414331519
 30
0.0
 11
4.789471817298331
 21
3.712948160794362
 31
0.0
  0
LINE
  5
1B3
330
1F
100
AcDbEntity
  8
1
  6
Continuous
 62
     2
370
    13
100
AcDbLine
 10
4.789471817298334
 20
3.712948160794367
 30
0.0
 11
4.807471817298334
 21
3.712948160794367
 31
0.0
  0
LINE
  5
1B4
330
1F
100
AcDbEntity
  8
1
  6
Continuous
 62
     2
370
    13
100
AcDbLine
 10
4.789471817298331
 20
3.71185941433152
 30
0.0
 11
4.789471817298331
 21
3.705346879874845
 31
0.0
  0
LINE
  5
1B5
330
1F
100
AcDbEntity
  8
1
  6
Continuous
 62
     2
370
    13
100
AcDbLine
 10
4.789471817298331
 20
3.71185941433152
 30
0.0
 11
4.807471817298332
 21
3.71185941433152
 31
0.0
  0
LINE
  5
1B6
330
1F
100
AcDbEntity
  8
1
  6
Continuous
 62
     2
370
    13
100
AcDbLine
 10
4.789471817298331
 20
3.705346879874845
 30
0.0
 11
4.789471817298331
 21
3.703496010888014
 31
0.0
  0
LINE
  5
1B7
330
1F
100
AcDbEntity
  8
1
  6
Continuous
 62
     2
370
    13
100
AcDbLine
 10
4.789471817298331
 20
3.705346879874845
 30
0.0
 11
4.807471817298331
 21
3.705346879874845
 31
0.0
  0
LINE
  5
1B8
330
1F
100
AcDbEntity
  8
1
  6
Continuous
 62
     2
370
    13
100
AcDbLine
 10
4.687471817298332
 20
3.622148682272857
 30
0.0
 11
4.687471817298331
 21
3.703496010888014
 31
0.0
  0
LINE
  5
1B9
330
1F
100
AcDbEntity
  8
1
  6
Continuous
 62
     2
370
    13
100
AcDbLine
 10
4.589471817298332
 20
3.622148682272857
 30
0.0
 11
4.589471817298331
 21
3.703496010888014
 31
0.0
  0
LINE
  5
1BA
330
1F
100
AcDbEntity
  8
1
  6
Continuous
 62
     3
370
    13
100
AcDbLine
 10
4.97942296429094
 20
3.305038018902671
 30
0.0
 11
4.980272120184608
 21
3.353686127472663
 31
0.0
  0
LINE
  5
1BB
330
1F
100
AcDbEntity
  8
1
  6
Continuous
 62
     2
370
    13
100
AcDbLine
 10
4.767471817298332
 20
3.619452588988614
 30
0.0
 11
4.767471817298332
 21
3.614312864489803
 31
0.0
  0
LINE
  5
1BC
330
1F
100
AcDbEntity
  8
1
  6
Continuous
 62
     3
370
    13
100
AcDbLine
 10
4.974606640390149
 20
3.348117961760562
 30
0.0
 11
4.502336994206454
 21
3.348117961760562
 31
0.0
  0
LINE
  5
1BD
330
1F
100
AcDbEntity
  8
1
  6
Continuous
 62
     2
370
    13
100
AcDbLine
 10
4.767471817298332
 20
3.622148682272857
 30
0.0
 11
4.767471817298331
 21
3.703496010888014
 31
0.0
  0
LINE
  5
1BE
330
1F
100
AcDbEntity
  8
1
  6
Continuous
 62
     3
370
    13
100
AcDbLine
 10
4.453515451637301
 20
4.064452398125641
 30
0.0
 11
4.450162474658676
 21
4.071158862835315
 31
0.0
  0
LINE
  5
1BF
330
1F
100
AcDbEntity
  8
1
  6
Continuous
 62
     4
370
    13
100
AcDbLine
 10
4.589239270385109
 20
3.655812641775665
 30
0.0
 11
4.588475536061331
 21
3.656576376099443
 31
0.0
  0
LINE
  5
1C0
330
1F
100
AcDbEntity
  8
1
  6
Continuous
 62
     4
370
    13
100
AcDbLine
 10
4.588474063099201
 20
3.65658009486244
 30
0.0
 11
4.585971494558569
 21
3.65658009486244
 31
0.0
  0
LINE
  5
1C1
330
1F
100
AcDbEntity
  8
1
  6
Continuous
 62
     2
370
    13
100
AcDbLine
 10
4.789471817298331
 20
3.703496010888014
 30
0.0
 11
4.807471817298331
 21
3.703496010888014
 31
0.0
  0
LINE
  5
1C2
330
1F
100
AcDbEntity
  8
1
  6
Continuous
 62
     4
370
    13
100
AcDbLine
 10
4.941067049784945
 20
3.64845131175413
 30
0.0
 11
4.941067049784945
 21
3.65202103050413
 31
0.0
  0
LINE
  5
1C3
330
1F
100
AcDbEntity
  8
1
  6
Continuous
 62
     4
370
    13
100
AcDbLine
 10
4.941521797428388
 20
3.64845131175413
 30
0.0
 11
4.941521797428388
 21
3.65202103050413
 31
0.0
  0
LINE
  5
1C4
330
1F
100
AcDbEntity
  8
1
  6
Continuous
 62
    95
370
    13
100
AcDbLine
 10
4.609971817298339
 20
3.630250216541228
 30
0.0
 11
4.609971817298339
 21
3.636613489228636
 31
0.0
  0
LINE
  5
1C5
330
1F
100
AcDbEntity
  8
1
  6
Continuous
 62
     2
370
    13
100
AcDbLine
 10
4.589471817298331
 20
3.703496010888014
 30
0.0
 11
4.607471817298331
 21
3.703496010888014
 31
0.0
  0
LINE
  5
1C6
330
1F
100
AcDbEntity
  8
1
  6
Continuous
 62
     2
370
    13
100
AcDbLine
 10
4.607471817298332
 20
3.711859414331519
 30
0.0
 11
4.607471817298332
 21
3.712948160794362
 31
0.0
  0
LINE
  5
1C7
330
1F
100
AcDbEntity
  8
1
  6
Continuous
 62
     2
370
    13
100
AcDbLine
 10
4.607471817298332
 20
3.71185941433152
 30
0.0
 11
4.607471817298332
 21
3.705346879874845
 31
0.0
  0
LINE
  5
1C8
330
1F
100
AcDbEntity
  8
1
  6
Continuous
 62
     2
370
    13
100
AcDbLine
 10
4.607471817298331
 20
3.705346879874845
 30
0.0
 11
4.607471817298331
 21
3.703496010888014
 31
0.0
  0
LINE
  5
1C9
330
1F
100
AcDbEntity
  8
1
  6
Continuous
 62
     4
370
    13
100
AcDbLine
 10
4.588437288325083
 20
3.721659433156741
 30
0.0
 11
4.58837623963226
 21
3.721598384463917
 31
0.0
  0
LINE
  5
1CA
330
1F
100
AcDbEntity
  8
1
  6
Continuous
 62
     4
370
    13
100
AcDbLine
 10
4.53587658481172
 20
3.64845131175413
 30
0.0
 11
4.53587658481172
 21
3.65202103050413
 31
0.0
  0
LINE
  5
1CB
330
1F
100
AcDbEntity
  8
1
  6
Continuous
 62
     4
370
    13
100
AcDbLine
 10
4.95587658481172
 20
3.64845131175413
 30
0.0
 11
4.95587658481172
 21
3.65202103050413
 31
0.0
  0
LINE
  5
1CC
330
1F
100
AcDbEntity
  8
1
  6
Continuous
 62
     2
370
    13
100
AcDbLine
 10
4.669471817298332
 20
3.619452588988614
 30
0.0
 11
4.669471817298332
 21
3.614312864489803
 31
0.0
  0
LINE
  5
1CD
330
1F
100
AcDbEntity
  8
1
  6
Continuous
 62
     2
370
    13
100
AcDbLine
 10
4.669471817298332
 20
3.622148682272857
 30
0.0
 11
4.687471817298332
 21
3.622148682272857
 31
0.0
  0
LINE
  5
1CE
330
1F
100
AcDbEntity
  8
1
  6
Continuous
 62
     2
370
    13
100
AcDbLine
 10
4.669471817298332
 20
3.622148682272857
 30
0.0
 11
4.669471817298332
 21
3.619452588988614
 31
0.0
  0
LINE
  5
1CF
330
1F
100
AcDbEntity
  8
1
  6
Continuous
 62
     2
370
    13
100
AcDbLine
 10
4.687471817298332
 20
3.622148682272857
 30
0.0
 11
4.687471817298332
 21
3.619452588988614
 31
0.0
  0
LINE
  5
1D0
330
1F
100
AcDbEntity
  8
1
  6
Continuous
 62
     2
370
    13
100
AcDbLine
 10
4.669471817298332
 20
3.619452588988614
 30
0.0
 11
4.687471817298332
 21
3.619452588988614
 31
0.0
  0
LINE
  5
1D1
330
1F
100
AcDbEntity
  8
1
  6
Continuous
 62
     2
370
    13
100
AcDbLine
 10
4.709471817298332
 20
3.622148682272857
 30
0.0
 11
4.727471817298332
 21
3.622148682272857
 31
0.0
  0
LINE
  5
1D2
330
1F
100
AcDbEntity
  8
1
  6
Continuous
 62
     2
370
    13
100
AcDbLine
 10
4.709471817298332
 20
3.622148682272857
 30
0.0
 11
4.709471817298332
 21
3.619452588988614
 31
0.0
  0
LINE
  5
1D3
330
1F
100
AcDbEntity
  8
1
  6
Continuous
 62
     2
370
    13
100
AcDbLine
 10
4.709471817298332
 20
3.619452588988614
 30
0.0
 11
4.709471817298332
 21
3.614312864489803
 31
0.0
  0
LINE
  5
1D4
330
1F
100
AcDbEntity
  8
1
  6
Continuous
 62
     2
370
    13
100
AcDbLine
 10
4.727471817298332
 20
3.622148682272857
 30
0.0
 11
4.727471817298332
 21
3.619452588988614
 31
0.0
  0
LINE
  5
1D5
330
1F
100
AcDbEntity
  8
1
  6
Continuous
 62
     2
370
    13
100
AcDbLine
 10
4.709471817298332
 20
3.619452588988614
 30
0.0
 11
4.727471817298332
 21
3.619452588988614
 31
0.0
  0
LINE
  5
1D6
330
1F
100
AcDbEntity
  8
1
  6
Continuous
 62
     2
370
    13
100
AcDbLine
 10
4.629471817298332
 20
3.619452588988614
 30
0.0
 11
4.629471817298332
 21
3.614312864489803
 31
0.0
  0
LINE
  5
1D7
330
1F
100
AcDbEntity
  8
1
  6
Continuous
 62
     2
370
    13
100
AcDbLine
 10
4.629471817298332
 20
3.622148682272857
 30
0.0
 11
4.647471817298332
 21
3.622148682272857
 31
0.0
  0
LINE
  5
1D8
330
1F
100
AcDbEntity
  8
1
  6
Continuous
 62
     2
370
    13
100
AcDbLine
 10
4.789471817298332
 20
3.619452588988614
 30
0.0
 11
4.789471817298332
 21
3.614312864489803
 31
0.0
  0
LINE
  5
1D9
330
1F
100
AcDbEntity
  8
1
  6
Continuous
 62
     2
370
    13
100
AcDbLine
 10
4.647471817298332
 20
3.622148682272857
 30
0.0
 11
4.647471817298332
 21
3.619452588988614
 31
0.0
  0
LINE
  5
1DA
330
1F
100
AcDbEntity
  8
1
  6
Continuous
 62
     2
370
    13
100
AcDbLine
 10
4.629471817298332
 20
3.622148682272857
 30
0.0
 11
4.629471817298332
 21
3.619452588988614
 31
0.0
  0
LINE
  5
1DB
330
1F
100
AcDbEntity
  8
1
  6
Continuous
 62
     2
370
    13
100
AcDbLine
 10
4.629471817298332
 20
3.619452588988614
 30
0.0
 11
4.647471817298332
 21
3.619452588988614
 31
0.0
  0
LINE
  5
1DC
330
1F
100
AcDbEntity
  8
1
  6
Continuous
 62
     2
370
    13
100
AcDbLine
 10
4.589471817298332
 20
3.619452588988614
 30
0.0
 11
4.589471817298332
 21
3.614312864489803
 31
0.0
  0
LINE
  5
1DD
330
1F
100
AcDbEntity
  8
1
  6
Continuous
 62
     2
370
    13
100
AcDbLine
 10
4.589471817298332
 20
3.622148682272857
 30
0.0
 11
4.607471817298332
 21
3.622148682272857
 31
0.0
  0
LINE
  5
1DE
330
1F
100
AcDbEntity
  8
1
  6
Continuous
 62
     2
370
    13
100
AcDbLine
 10
4.589471817298332
 20
3.622148682272857
 30
0.0
 11
4.589471817298332
 21
3.619452588988614
 31
0.0
  0
LINE
  5
1DF
330
1F
100
AcDbEntity
  8
1
  6
Continuous
 62
     2
370
    13
100
AcDbLine
 10
4.607471817298332
 20
3.622148682272857
 30
0.0
 11
4.607471817298332
 21
3.619452588988614
 31
0.0
  0
LINE
  5
1E0
330
1F
100
AcDbEntity
  8
1
  6
Continuous
 62
     2
370
    13
100
AcDbLine
 10
4.589471817298332
 20
3.619452588988614
 30
0.0
 11
4.607471817298332
 21
3.619452588988614
 31
0.0
  0
LINE
  5
1E1
330
1F
100
AcDbEntity
  8
1
  6
Continuous
 62
     2
370
    13
100
AcDbLine
 10
4.869471817298332
 20
3.711859414331519
 30
0.0
 11
4.869471817298332
 21
3.712948160794362
 31
0.0
  0
LINE
  5
1E2
330
1F
100
AcDbEntity
  8
1
  6
Continuous
 62
     2
370
    13
100
AcDbLine
 10
4.869471817298334
 20
3.712948160794367
 30
0.0
 11
4.887471817298334
 21
3.712948160794367
 31
0.0
  0
LINE
  5
1E3
330
1F
100
AcDbEntity
  8
1
  6
Continuous
 62
     2
370
    13
100
AcDbLine
 10
4.869471817298332
 20
3.71185941433152
 30
0.0
 11
4.869471817298332
 21
3.705346879874845
 31
0.0
  0
LINE
  5
1E4
330
1F
100
AcDbEntity
  8
1
  6
Continuous
 62
     2
370
    13
100
AcDbLine
 10
4.869471817298332
 20
3.71185941433152
 30
0.0
 11
4.887471817298332
 21
3.71185941433152
 31
0.0
  0
LINE
  5
1E5
330
1F
100
AcDbEntity
  8
1
  6
Continuous
 62
     2
370
    13
100
AcDbLine
 10
4.869471817298332
 20
3.705346879874845
 30
0.0
 11
4.869471817298332
 21
3.703496010888014
 31
0.0
  0
LINE
  5
1E6
330
1F
100
AcDbEntity
  8
1
  6
Continuous
 62
     2
370
    13
100
AcDbLine
 10
4.869471817298332
 20
3.705346879874845
 30
0.0
 11
4.887471817298331
 21
3.705346879874845
 31
0.0
  0
LINE
  5
1E7
330
1F
100
AcDbEntity
  8
1
  6
Continuous
 62
     2
370
    13
100
AcDbLine
 10
4.869471817298332
 20
3.622148682272857
 30
0.0
 11
4.869471817298332
 21
3.619452588988614
 31
0.0
  0
LINE
  5
1E8
330
1F
100
AcDbEntity
  8
1
  6
Continuous
 62
     2
370
    13
100
AcDbLine
 10
4.869471817298332
 20
3.619452588988614
 30
0.0
 11
4.869471817298332
 21
3.614312864489803
 31
0.0
  0
LINE
  5
1E9
330
1F
100
AcDbEntity
  8
1
  6
Continuous
 62
     2
370
    13
100
AcDbLine
 10
4.869471817298332
 20
3.619452588988614
 30
0.0
 11
4.887471817298332
 21
3.619452588988614
 31
0.0
  0
LINE
  5
1EA
330
1F
100
AcDbEntity
  8
1
  6
Continuous
 62
     2
370
    13
100
AcDbLine
 10
4.869471817298332
 20
3.622148682272857
 30
0.0
 11
4.869471817298332
 21
3.703496010888014
 31
0.0
  0
LINE
  5
1EB
330
1F
100
AcDbEntity
  8
1
  6
Continuous
 62
     2
370
    13
100
AcDbLine
 10
4.869471817298332
 20
3.622148682272857
 30
0.0
 11
4.887471817298332
 21
3.622148682272857
 31
0.0
  0
LINE
  5
1EC
330
1F
100
AcDbEntity
  8
1
  6
Continuous
 62
     2
370
    13
100
AcDbLine
 10
4.869471817298332
 20
3.703496010888014
 30
0.0
 11
4.887471817298331
 21
3.703496010888014
 31
0.0
  0
LINE
  5
1ED
330
1F
100
AcDbEntity
  8
1
  6
Continuous
 62
    95
370
    13
100
AcDbLine
 10
4.503971817110016
 20
3.636717053860437
 30
0.0
 11
4.504014904079775
 21
3.639602073322911
 31
0.0
  0
LINE
  5
1EE
330
1F
100
AcDbEntity
  8
1
  6
Continuous
 62
    95
370
    13
100
AcDbLine
 10
4.585971817298339
 20
3.630511683769471
 30
0.0
 11
4.585971817298339
 21
3.639602073322911
 31
0.0
  0
LINE
  5
1EF
330
1F
100
AcDbEntity
  8
1
  6
Continuous
 62
    95
370
    13
100
AcDbLine
 10
4.588971817298339
 20
3.643293047334935
 30
0.0
 11
4.588971817298339
 21
3.636613489228622
 31
0.0
  0
LINE
  5
1F0
330
1F
100
AcDbEntity
  8
1
  6
Continuous
 62
    95
370
    13
100
AcDbLine
 10
4.588971817298339
 20
3.636613489228636
 30
0.0
 11
4.588971817298339
 21
3.630250216541226
 31
0.0
  0
LINE
  5
1F1
330
1F
100
AcDbEntity
  8
1
  6
Continuous
 62
    95
370
    13
100
AcDbLine
 10
4.588971817298339
 20
3.630250216541226
 30
0.0
 11
4.588971817298339
 21
3.614313014875073
 31
0.0
  0
LINE
  5
1F2
330
1F
100
AcDbEntity
  8
1
  6
Continuous
 62
    95
370
    13
100
AcDbLine
 10
4.588927601152204
 20
3.648451626671194
 30
0.0
 11
4.589471857145906
 21
3.661306795114387
 31
0.0
  0
LINE
  5
1F3
330
1F
100
AcDbEntity
  8
1
  6
Continuous
 62
    95
370
    13
100
AcDbLine
 10
4.609971817298339
 20
3.636613489228622
 30
0.0
 11
4.609971817298339
 21
3.643293047334935
 31
0.0
  0
LINE
  5
1F4
330
1F
100
AcDbEntity
  8
1
  6
Continuous
 62
    95
370
    13
100
AcDbLine
 10
4.610885718681403
 20
3.645458934559276
 30
0.0
 11
4.609971817298339
 21
3.643293047334935
 31
0.0
  0
LINE
  5
1F5
330
1F
100
AcDbEntity
  8
1
  6
Continuous
 62
    95
370
    13
100
AcDbLine
 10
4.609971817298339
 20
3.614313014875074
 30
0.0
 11
4.609971817298339
 21
3.630250216541228
 31
0.0
  0
LINE
  5
1F6
330
1F
100
AcDbEntity
  8
1
  6
Continuous
 62
     2
370
    13
100
AcDbLine
 10
4.749471817298332
 20
3.622148682272857
 30
0.0
 11
4.767471817298332
 21
3.622148682272857
 31
0.0
  0
LINE
  5
1F7
330
1F
100
AcDbEntity
  8
1
  6
Continuous
 62
     2
370
    13
100
AcDbLine
 10
4.767471817298332
 20
3.622148682272857
 30
0.0
 11
4.767471817298332
 21
3.619452588988614
 31
0.0
  0
LINE
  5
1F8
330
1F
100
AcDbEntity
  8
1
  6
Continuous
 62
     2
370
    13
100
AcDbLine
 10
4.749471817298332
 20
3.619452588988614
 30
0.0
 11
4.767471817298332
 21
3.619452588988614
 31
0.0
  0
LINE
  5
1F9
330
1F
100
AcDbEntity
  8
1
  6
Continuous
 62
     2
370
    13
100
AcDbLine
 10
4.749471817298332
 20
3.622148682272857
 30
0.0
 11
4.749471817298332
 21
3.619452588988614
 31
0.0
  0
LINE
  5
1FA
330
1F
100
AcDbEntity
  8
1
  6
Continuous
 62
     2
370
    13
100
AcDbLine
 10
4.847471817298332
 20
3.711859414331519
 30
0.0
 11
4.847471817298332
 21
3.712948160794362
 31
0.0
  0
LINE
  5
1FB
330
1F
100
AcDbEntity
  8
1
  6
Continuous
 62
     2
370
    13
100
AcDbLine
 10
4.847471817298332
 20
3.71185941433152
 30
0.0
 11
4.847471817298331
 21
3.705346879874845
 31
0.0
  0
LINE
  5
1FC
330
1F
100
AcDbEntity
  8
1
  6
Continuous
 62
     2
370
    13
100
AcDbLine
 10
4.847471817298331
 20
3.705346879874845
 30
0.0
 11
4.847471817298331
 21
3.703496010888014
 31
0.0
  0
LINE
  5
1FD
330
1F
100
AcDbEntity
  8
1
  6
Continuous
 62
     2
370
    13
100
AcDbLine
 10
4.847471817298332
 20
3.622148682272857
 30
0.0
 11
4.847471817298331
 21
3.703496010888014
 31
0.0
  0
LINE
  5
1FE
330
1F
100
AcDbEntity
  8
1
  6
Continuous
 62
     2
370
    13
100
AcDbLine
 10
4.847471817298332
 20
3.622148682272857
 30
0.0
 11
4.847471817298332
 21
3.619452588988614
 31
0.0
  0
LINE
  5
1FF
330
1F
100
AcDbEntity
  8
1
  6
Continuous
 62
     2
370
    13
100
AcDbLine
 10
4.847471817298332
 20
3.619452588988614
 30
0.0
 11
4.847471817298332
 21
3.614312864489803
 31
0.0
  0
LINE
  5
200
330
1F
100
AcDbEntity
  8
1
  6
Continuous
 62
     4
370
    13
100
AcDbLine
 10
4.58837623963226
 20
3.721598384463917
 30
0.0
 11
4.588475536061331
 21
3.656576376099443
 31
0.0
  0
LINE
  5
201
330
1F
100
AcDbEntity
  8
1
  6
Continuous
 62
    95
370
    13
100
AcDbLine
 10
4.88797181729833
 20
3.636613489228623
 30
0.0
 11
4.88797181729833
 21
3.643293047334935
 31
0.0
  0
LINE
  5
202
330
1F
100
AcDbEntity
  8
1
  6
Continuous
 62
    95
370
    13
100
AcDbLine
 10
4.88797181729833
 20
3.614313014875074
 30
0.0
 11
4.88797181729833
 21
3.630250216541228
 31
0.0
  0
LINE
  5
203
330
1F
100
AcDbEntity
  8
1
  6
Continuous
 62
    95
370
    13
100
AcDbLine
 10
4.88797181729833
 20
3.630250216541228
 30
0.0
 11
4.88797181729833
 21
3.636613489228636
 31
0.0
  0
LINE
  5
204
330
1F
100
AcDbEntity
  8
1
  6
Continuous
 62
    95
370
    13
100
AcDbLine
 10
4.866971817298331
 20
3.643293047334934
 30
0.0
 11
4.866057915915267
 21
3.645458934559274
 31
0.0
  0
LINE
  5
205
330
1F
100
AcDbEntity
  8
1
  6
Continuous
 62
    95
370
    13
100
AcDbLine
 10
4.612971817298339
 20
3.639602073322911
 30
0.0
 11
4.612971817298339
 21
3.630511683769471
 31
0.0
  0
LINE
  5
206
330
1F
100
AcDbEntity
  8
1
  6
Continuous
 62
    95
370
    13
100
AcDbLine
 10
4.86397181729833
 20
3.630511683769471
 30
0.0
 11
4.86397181729833
 21
3.639602073322911
 31
0.0
  0
LINE
  5
207
330
1F
100
AcDbEntity
  8
1
  6
Continuous
 62
    95
370
    13
100
AcDbLine
 10
4.86697181729833
 20
3.643293047334935
 30
0.0
 11
4.86697181729833
 21
3.636613489228622
 31
0.0
  0
LINE
  5
208
330
1F
100
AcDbEntity
  8
1
  6
Continuous
 62
    95
370
    13
100
AcDbLine
 10
4.86697181729833
 20
3.636613489228636
 30
0.0
 11
4.86697181729833
 21
3.630250216541226
 31
0.0
  0
LINE
  5
209
330
1F
100
AcDbEntity
  8
1
  6
Continuous
 62
    95
370
    13
100
AcDbLine
 10
4.86697181729833
 20
3.630250216541226
 30
0.0
 11
4.86697181729833
 21
3.614313014875073
 31
0.0
  0
LINE
  5
20A
330
1F
100
AcDbEntity
  8
1
  6
Continuous
 62
    95
370
    13
100
AcDbLine
 10
4.888012291710572
 20
3.648451612554982
 30
0.0
 11
4.887471749811856
 21
3.661219055153718
 31
0.0
  0
LINE
  5
20B
330
1F
100
AcDbEntity
  8
1
  6
Continuous
 62
     3
370
    13
100
AcDbLine
 10
4.503971817298372
 20
3.614313003401994
 30
0.0
 11
4.972971817298293
 21
3.614313003401994
 31
0.0
  0
LINE
  5
20C
330
1F
100
AcDbEntity
  8
1
  6
Continuous
 62
     2
370
    13
100
AcDbLine
 10
4.629471817298332
 20
3.622148682272857
 30
0.0
 11
4.629471817298331
 21
3.703496010888014
 31
0.0
  0
LINE
  5
20D
330
1F
100
AcDbEntity
  8
1
  6
Continuous
 62
     2
370
    13
100
AcDbLine
 10
4.789471817298332
 20
3.622148682272857
 30
0.0
 11
4.789471817298331
 21
3.703496010888014
 31
0.0
  0
LINE
  5
20E
330
1F
100
AcDbEntity
  8
1
  6
Continuous
 62
     2
370
    13
100
AcDbLine
 10
4.647471817298332
 20
3.622148682272857
 30
0.0
 11
4.647471817298331
 21
3.703496010888014
 31
0.0
  0
LINE
  5
20F
330
1F
100
AcDbEntity
  8
1
  6
Continuous
 62
     2
370
    13
100
AcDbLine
 10
4.647471817298332
 20
3.619452588988614
 30
0.0
 11
4.647471817298332
 21
3.614312864489803
 31
0.0
  0
LINE
  5
210
330
1F
100
AcDbEntity
  8
1
  6
Continuous
 62
     2
370
    13
100
AcDbLine
 10
4.709471817298332
 20
3.622148682272857
 30
0.0
 11
4.709471817298331
 21
3.703496010888014
 31
0.0
  0
LINE
  5
211
330
1F
100
AcDbEntity
  8
1
  6
Continuous
 62
     2
370
    13
100
AcDbLine
 10
4.727471817298332
 20
3.622148682272857
 30
0.0
 11
4.727471817298331
 21
3.703496010888014
 31
0.0
  0
LINE
  5
212
330
1F
100
AcDbEntity
  8
1
  6
Continuous
 62
     3
370
    13
100
AcDbLine
 10
4.503971817298346
 20
3.843313003401897
 30
0.0
 11
4.614471817298346
 21
3.843313003401897
 31
0.0
  0
LINE
  5
213
330
1F
100
AcDbEntity
  8
1
  6
Continuous
 62
     3
370
    13
100
AcDbLine
 10
5.024253895300663
 20
3.353686127472663
 30
0.0
 11
5.024253895300663
 21
3.386952398125647
 31
0.0
  0
LINE
  5
214
330
1F
100
AcDbEntity
  8
1
  6
Continuous
 62
     3
370
    13
100
AcDbLine
 10
4.980272013601547
 20
3.353686127472663
 30
0.0
 11
5.024253895300663
 21
3.353686127472663
 31
0.0
  0
LINE
  5
215
330
1F
100
AcDbEntity
  8
1
  6
Continuous
 62
     3
370
    13
100
AcDbLine
 10
5.024834471776752
 20
3.420799245255059
 30
0.0
 11
4.45210916281994
 21
3.420799245255059
 31
0.0
  0
LINE
  5
216
330
1F
100
AcDbEntity
  8
1
  6
Continuous
 62
     3
370
    13
100
AcDbLine
 10
4.496090867629427
 20
3.386952398125639
 30
0.0
 11
4.452689739296029
 21
3.386952398125639
 31
0.0
  0
LINE
  5
217
330
1F
100
AcDbEntity
  8
1
  6
Continuous
 62
     3
370
    13
100
AcDbLine
 10
4.980852766967266
 20
3.386952398125647
 30
0.0
 11
5.024253895300663
 21
3.386952398125647
 31
0.0
  0
LINE
  5
218
330
1F
100
AcDbEntity
  8
1
  6
Continuous
 62
     3
370
    13
100
AcDbLine
 10
5.024253895300662
 20
3.353686127472663
 30
0.0
 11
5.025210204094475
 21
3.353686127472663
 31
0.0
  0
LINE
  5
219
330
1F
100
AcDbEntity
  8
1
  6
Continuous
 62
     3
370
    13
100
AcDbLine
 10
4.492008658963355
 20
4.07003801890267
 30
0.0
 11
4.492008658963356
 21
4.132325236140383
 31
0.0
  0
LINE
  5
21A
330
1F
100
AcDbEntity
  8
1
  6
Continuous
 62
    95
370
    13
100
AcDbLine
 10
4.972928730516895
 20
3.639602073322897
 30
0.0
 11
4.972971823663197
 21
3.63989501567601
 31
0.0
  0
LINE
  5
21B
330
1F
100
AcDbEntity
  8
1
  6
Continuous
 62
    95
370
    13
100
AcDbLine
 10
4.972928730516894
 20
3.639602073322912
 30
0.0
 11
4.972971817486653
 21
3.636717053860437
 31
0.0
  0
LINE
  5
21C
330
1F
100
AcDbEntity
  8
1
  6
Continuous
 62
     3
370
    13
100
AcDbLine
 10
4.979681301581228
 20
3.353105550996221
 30
0.0
 11
4.97460664039015
 21
3.348117961760562
 31
0.0
  0
LINE
  5
21D
330
1F
100
AcDbEntity
  8
1
  6
Continuous
 62
     2
370
    13
100
AcDbLine
 10
4.829471817298331
 20
3.711859414331519
 30
0.0
 11
4.829471817298331
 21
3.712948160794362
 31
0.0
  0
LINE
  5
21E
330
1F
100
AcDbEntity
  8
1
  6
Continuous
 62
     2
370
    13
100
AcDbLine
 10
4.829471817298334
 20
3.712948160794367
 30
0.0
 11
4.847471817298334
 21
3.712948160794367
 31
0.0
  0
LINE
  5
21F
330
1F
100
AcDbEntity
  8
1
  6
Continuous
 62
     2
370
    13
100
AcDbLine
 10
4.829471817298331
 20
3.71185941433152
 30
0.0
 11
4.829471817298331
 21
3.705346879874845
 31
0.0
  0
LINE
  5
220
330
1F
100
AcDbEntity
  8
1
  6
Continuous
 62
     2
370
    13
100
AcDbLine
 10
4.829471817298331
 20
3.71185941433152
 30
0.0
 11
4.847471817298332
 21
3.71185941433152
 31
0.0
  0
LINE
  5
221
330
1F
100
AcDbEntity
  8
1
  6
Continuous
 62
     2
370
    13
100
AcDbLine
 10
4.829471817298331
 20
3.705346879874845
 30
0.0
 11
4.829471817298331
 21
3.703496010888014
 31
0.0
  0
LINE
  5
222
330
1F
100
AcDbEntity
  8
1
  6
Continuous
 62
     2
370
    13
100
AcDbLine
 10
4.829471817298331
 20
3.705346879874845
 30
0.0
 11
4.847471817298331
 21
3.705346879874845
 31
0.0
  0
LINE
  5
223
330
1F
100
AcDbEntity
  8
1
  6
Continuous
 62
     2
370
    13
100
AcDbLine
 10
4.829471817298332
 20
3.622148682272857
 30
0.0
 11
4.829471817298332
 21
3.619452588988614
 31
0.0
  0
LINE
  5
224
330
1F
100
AcDbEntity
  8
1
  6
Continuous
 62
     2
370
    13
100
AcDbLine
 10
4.829471817298331
 20
3.619452588988614
 30
0.0
 11
4.829471817298331
 21
3.614312864489803
 31
0.0
  0
LINE
  5
225
330
1F
100
AcDbEntity
  8
1
  6
Continuous
 62
     2
370
    13
100
AcDbLine
 10
4.829471817298331
 20
3.619452588988614
 30
0.0
 11
4.847471817298332
 21
3.619452588988614
 31
0.0
  0
LINE
  5
226
330
1F
100
AcDbEntity
  8
1
  6
Continuous
 62
     2
370
    13
100
AcDbLine
 10
4.829471817298331
 20
3.622148682272857
 30
0.0
 11
4.829471817298331
 21
3.703496010888014
 31
0.0
  0
LINE
  5
227
330
1F
100
AcDbEntity
  8
1
  6
Continuous
 62
     2
370
    13
100
AcDbLine
 10
4.829471817298331
 20
3.622148682272857
 30
0.0
 11
4.847471817298332
 21
3.622148682272857
 31
0.0
  0
LINE
  5
228
330
1F
100
AcDbEntity
  8
1
  6
Continuous
 62
     2
370
    13
100
AcDbLine
 10
4.829471817298331
 20
3.703496010888014
 30
0.0
 11
4.847471817298331
 21
3.703496010888014
 31
0.0
  0
LINE
  5
229
330
1F
100
AcDbEntity
  8
1
  6
Continuous
 62
     3
370
    13
100
AcDbLine
 10
5.026781159938016
 20
3.422745933415966
 30
0.0
 11
5.026781159938016
 21
3.416704805911537
 31
0.0
  0
LINE
  5
22A
330
1F
100
AcDbEntity
  8
1
  6
Continuous
 62
     3
370
    13
100
AcDbLine
 10
4.502081962048597
 20
3.258862017539131
 30
0.0
 11
4.502761990519536
 21
3.323773647612697
 31
0.0
  0
LINE
  5
22B
330
1F
100
AcDbEntity
  8
1
  6
Continuous
 62
     3
370
    13
100
AcDbLine
 10
4.501169014809122
 20
3.305038018902671
 30
0.0
 11
4.497520670305815
 21
3.305038018902671
 31
0.0
  0
LINE
  5
22C
330
1F
100
AcDbEntity
  8
1
  6
Continuous
 62
     3
370
    13
100
AcDbLine
 10
4.50191592273042
 20
3.262254209923757
 30
0.0
 11
4.501169014809122
 21
3.305038018902671
 31
0.0
  0
LINE
  5
22D
330
1F
100
AcDbEntity
  8
1
  6
Continuous
 62
     3
370
    13
100
AcDbLine
 10
4.516247762758354
 20
3.652020617382252
 30
0.0
 11
4.543695871838393
 21
3.652020617382252
 31
0.0
  0
LINE
  5
22E
330
1F
100
AcDbEntity
  8
1
  6
Continuous
 62
     3
370
    13
100
AcDbLine
 10
4.543695871838393
 20
3.742097767973883
 30
0.0
 11
4.516247762758354
 21
3.742097767973883
 31
0.0
  0
LINE
  5
22F
330
1F
100
AcDbEntity
  8
1
  6
Continuous
 62
     3
370
    13
100
AcDbLine
 10
4.516247762758354
 20
3.652020617382252
 30
0.0
 11
4.516247762758354
 21
3.742097767973883
 31
0.0
  0
LINE
  5
230
330
1F
100
AcDbEntity
  8
1
  6
Continuous
 62
     4
370
    13
100
AcDbLine
 10
4.890972314581451
 20
3.654506754883025
 30
0.0
 11
4.887472111827759
 21
3.65438937671405
 31
0.0
  0
LINE
  5
231
330
1F
100
AcDbEntity
  8
1
  6
Continuous
 62
     3
370
    13
100
AcDbLine
 10
4.418471817298347
 20
4.071158862835315
 30
0.0
 11
4.415971817298347
 21
4.073686127472667
 31
0.0
  0
LINE
  5
232
330
1F
100
AcDbEntity
  8
1
  6
Continuous
 62
     3
370
    13
100
AcDbLine
 10
4.492008658963356
 20
4.07003801890267
 30
0.0
 11
4.4810554330932
 21
4.073686127472668
 31
0.0
  0
LINE
  5
233
330
1F
100
AcDbEntity
  8
1
  6
Continuous
 62
     3
370
    13
100
AcDbLine
 10
5.002971817298138
 20
3.584313003401734
 30
0.0
 11
4.972971817297912
 21
3.61431300340196
 31
0.0
  0
LINE
  5
234
330
1F
100
AcDbEntity
  8
1
  6
Continuous
 62
     3
370
    13
100
AcDbLine
 10
4.892471817298346
 20
3.913313003401897
 30
0.0
 11
4.862471817298346
 21
3.883313003401898
 31
0.0
  0
LINE
  5
235
330
1F
100
AcDbEntity
  8
1
  6
Continuous
 62
     3
370
    13
100
AcDbLine
 10
4.972971817298041
 20
3.883313003401801
 30
0.0
 11
5.002971817298138
 21
3.913313003401897
 31
0.0
  0
LINE
  5
236
330
1F
100
AcDbEntity
  8
1
  6
Continuous
 62
     3
370
    13
100
AcDbLine
 10
4.503971817298398
 20
3.614313003401994
 30
0.0
 11
4.503971817298398
 21
3.883313003401897
 31
0.0
  0
LINE
  5
237
330
1F
100
AcDbEntity
  8
1
  6
Continuous
 62
     2
370
    13
100
AcDbLine
 10
4.669471817298332
 20
3.622148682272857
 30
0.0
 11
4.669471817298331
 21
3.703496010888014
 31
0.0
  0
LINE
  5
238
330
1F
100
AcDbEntity
  8
1
  6
Continuous
 62
     3
370
    13
100
AcDbLine
 10
4.892471817298346
 20
3.979313003401897
 30
0.0
 11
4.862471817298346
 21
3.949313003401897
 31
0.0
  0
LINE
  5
239
330
1F
100
AcDbEntity
  8
1
  6
Continuous
 62
     2
370
    13
100
AcDbLine
 10
4.789471817298332
 20
3.622148682272857
 30
0.0
 11
4.807471817298332
 21
3.622148682272857
 31
0.0
  0
LINE
  5
23A
330
1F
100
AcDbEntity
  8
1
  6
Continuous
 62
     3
370
    13
100
AcDbLine
 10
4.848471817298346
 20
3.979313003401897
 30
0.0
 11
4.818471817298346
 21
3.949313003401897
 31
0.0
  0
LINE
  5
23B
330
1F
100
AcDbEntity
  8
1
  6
Continuous
 62
     4
370
    13
100
AcDbLine
 10
4.887700773262967
 20
3.655809050827073
 30
0.0
 11
4.888468098535337
 21
3.656576376099443
 31
0.0
  0
LINE
  5
23C
330
1F
100
AcDbEntity
  8
1
  6
Continuous
 62
     3
370
    13
100
AcDbLine
 10
4.974181644077068
 20
3.323773647612696
 30
0.0
 11
4.502761990519535
 21
3.323773647612696
 31
0.0
  0
LINE
  5
23D
330
1F
100
AcDbEntity
  8
1
  6
Continuous
 62
     3
370
    13
100
AcDbLine
 10
4.862471817298346
 20
3.843313003401897
 30
0.0
 11
4.862471817298346
 21
3.883313003401897
 31
0.0
  0
LINE
  5
23E
330
1F
100
AcDbEntity
  8
1
  6
Continuous
 62
     3
370
    13
100
AcDbLine
 10
4.972971817298346
 20
3.843313003401897
 30
0.0
 11
4.862471817298346
 21
3.843313003401897
 31
0.0
  0
LINE
  5
23F
330
1F
100
AcDbEntity
  8
1
  6
Continuous
 62
     3
370
    13
100
AcDbLine
 10
4.614471817298346
 20
3.949313003401897
 30
0.0
 11
4.658471817298346
 21
3.949313003401897
 31
0.0
  0
LINE
  5
240
330
1F
100
AcDbEntity
  8
1
  6
Continuous
 62
     3
370
    13
100
AcDbLine
 10
4.503971817298651
 20
3.883313003401801
 30
0.0
 11
4.473971817298555
 21
3.913313003401897
 31
0.0
  0
LINE
  5
241
330
1F
100
AcDbEntity
  8
1
  6
Continuous
 62
     4
370
    13
100
AcDbLine
 10
4.589471522768913
 20
3.654389376714049
 30
0.0
 11
4.585971320015228
 21
3.654506754883024
 31
0.0
  0
LINE
  5
242
330
1F
100
AcDbEntity
  8
1
  6
Continuous
 62
     2
370
    13
100
AcDbLine
 10
4.789471817298332
 20
3.619452588988614
 30
0.0
 11
4.807471817298332
 21
3.619452588988614
 31
0.0
  0
LINE
  5
243
330
1F
100
AcDbEntity
  8
1
  6
Continuous
 62
     2
370
    13
100
AcDbLine
 10
4.607471817298332
 20
3.619452588988614
 30
0.0
 11
4.607471817298332
 21
3.614312864489803
 31
0.0
  0
LINE
  5
244
330
1F
100
AcDbEntity
  8
1
  6
Continuous
 62
     2
370
    13
100
AcDbLine
 10
4.789471817298332
 20
3.622148682272857
 30
0.0
 11
4.789471817298332
 21
3.619452588988614
 31
0.0
  0
LINE
  5
245
330
1F
100
AcDbEntity
  8
1
  6
Continuous
 62
     2
370
    13
100
AcDbLine
 10
4.749471817298332
 20
3.619452588988614
 30
0.0
 11
4.749471817298332
 21
3.614312864489803
 31
0.0
  0
LINE
  5
246
330
1F
100
AcDbEntity
  8
1
  6
Continuous
 62
    95
370
    13
100
AcDbLine
 10
4.607474583631026
 20
3.646338358382473
 30
0.0
 11
4.610474799997996
 21
3.646338358382473
 31
0.0
  0
LINE
  5
247
330
1F
100
AcDbEntity
  8
1
  6
Continuous
 62
    95
370
    13
100
AcDbLine
 10
4.626473136850604
 20
3.646338358382473
 30
0.0
 11
4.629473353217575
 21
3.646338358382473
 31
0.0
  0
LINE
  5
248
330
1F
100
AcDbEntity
  8
1
  6
Continuous
 62
    95
370
    13
100
AcDbLine
 10
4.647474651419399
 20
3.646338358382473
 30
0.0
 11
4.65047486778637
 21
3.646338358382473
 31
0.0
  0
LINE
  5
249
330
1F
100
AcDbEntity
  8
1
  6
Continuous
 62
    95
370
    13
100
AcDbLine
 10
4.666473204638977
 20
3.646338358382473
 30
0.0
 11
4.669473421005948
 21
3.646338358382473
 31
0.0
  0
LINE
  5
24A
330
1F
100
AcDbEntity
  8
1
  6
Continuous
 62
    95
370
    13
100
AcDbLine
 10
4.687474719207773
 20
3.646338358382473
 30
0.0
 11
4.690474935574743
 21
3.646338358382473
 31
0.0
  0
LINE
  5
24B
330
1F
100
AcDbEntity
  8
1
  6
Continuous
 62
    95
370
    13
100
AcDbLine
 10
4.70647327242735
 20
3.646338358382473
 30
0.0
 11
4.709473488794321
 21
3.646338358382473
 31
0.0
  0
LINE
  5
24C
330
1F
100
AcDbEntity
  8
1
  6
Continuous
 62
    95
370
    13
100
AcDbLine
 10
4.727474786996145
 20
3.646338358382473
 30
0.0
 11
4.730475003363116
 21
3.646338358382473
 31
0.0
  0
LINE
  5
24D
330
1F
100
AcDbEntity
  8
1
  6
Continuous
 62
    95
370
    13
100
AcDbLine
 10
4.74646911455887
 20
3.646338358382473
 30
0.0
 11
4.74946933092584
 21
3.646338358382473
 31
0.0
  0
LINE
  5
24E
330
1F
100
AcDbEntity
  8
1
  6
Continuous
 62
    95
370
    13
100
AcDbLine
 10
4.767470629127664
 20
3.646338358382473
 30
0.0
 11
4.770470845494635
 21
3.646338358382473
 31
0.0
  0
LINE
  5
24F
330
1F
100
AcDbEntity
  8
1
  6
Continuous
 62
    95
370
    13
100
AcDbLine
 10
4.786469182347243
 20
3.646338358382473
 30
0.0
 11
4.789469398714214
 21
3.646338358382473
 31
0.0
  0
LINE
  5
250
330
1F
100
AcDbEntity
  8
1
  6
Continuous
 62
    95
370
    13
100
AcDbLine
 10
4.807470696916039
 20
3.646338358382473
 30
0.0
 11
4.810470913283009
 21
3.646338358382473
 31
0.0
  0
LINE
  5
251
330
1F
100
AcDbEntity
  8
1
  6
Continuous
 62
    95
370
    13
100
AcDbLine
 10
4.826469250135616
 20
3.646338358382473
 30
0.0
 11
4.829469466502587
 21
3.646338358382473
 31
0.0
  0
LINE
  5
252
330
1F
100
AcDbEntity
  8
1
  6
Continuous
 62
    95
370
    13
100
AcDbLine
 10
4.847470764704412
 20
3.646338358382473
 30
0.0
 11
4.850470981071382
 21
3.646338358382473
 31
0.0
  0
LINE
  5
253
330
1F
100
AcDbEntity
  8
1
  6
Continuous
 62
    95
370
    13
100
AcDbLine
 10
4.86646931792399
 20
3.646338358382473
 30
0.0
 11
4.869469534290961
 21
3.646338358382473
 31
0.0
  0
LINE
  5
254
330
1F
100
AcDbEntity
  8
1
  6
Continuous
 62
    95
370
    13
100
AcDbLine
 10
4.505151744993378
 20
3.648412369656714
 30
0.0
 11
4.554792604848128
 21
3.648412369656714
 31
0.0
  0
LINE
  5
255
330
1F
100
AcDbEntity
  8
1
  6
Continuous
 62
    95
370
    13
100
AcDbLine
 10
4.504014904079774
 20
3.639602073322897
 30
0.0
 11
4.503971810933472
 21
3.63989501567601
 31
0.0
  0
LINE
  5
256
330
1F
100
AcDbEntity
  8
1
  6
Continuous
 62
    95
370
    13
100
AcDbLine
 10
4.504014904079775
 20
3.639602073322911
 30
0.0
 11
4.585971817298339
 21
3.639602073322911
 31
0.0
  0
LINE
  5
257
330
1F
100
AcDbEntity
  8
1
  6
Continuous
 62
    95
370
    13
100
AcDbLine
 10
4.585971817298339
 20
3.639602073322897
 30
0.0
 11
4.585971817298339
 21
3.645458906645181
 31
0.0
  0
LINE
  5
258
330
1F
100
AcDbEntity
  8
1
  6
Continuous
 62
    95
370
    13
100
AcDbLine
 10
4.589472114173339
 20
3.64630685156899
 30
0.0
 11
4.585971817298339
 21
3.64630685156899
 31
0.0
  0
LINE
  5
259
330
1F
100
AcDbEntity
  8
1
  6
Continuous
 62
    95
370
    13
100
AcDbLine
 10
4.612971817298339
 20
3.645458906645181
 30
0.0
 11
4.612971817298339
 21
3.639602073322897
 31
0.0
  0
LINE
  5
25A
330
1F
100
AcDbEntity
  8
1
  6
Continuous
 62
    95
370
    13
100
AcDbLine
 10
4.612971817298339
 20
3.639602073322911
 30
0.0
 11
4.629475067298338
 21
3.639602073322911
 31
0.0
  0
LINE
  5
25B
330
1F
100
AcDbEntity
  8
1
  6
Continuous
 62
    95
370
    13
100
AcDbLine
 10
4.647472551673338
 20
3.639602073322911
 30
0.0
 11
4.669474270423337
 21
3.639602073322911
 31
0.0
  0
LINE
  5
25C
330
1F
100
AcDbEntity
  8
1
  6
Continuous
 62
    95
370
    13
100
AcDbLine
 10
4.687475676673336
 20
3.639602073322911
 30
0.0
 11
4.709473473548336
 21
3.639602073322911
 31
0.0
  0
LINE
  5
25D
330
1F
100
AcDbEntity
  8
1
  6
Continuous
 62
    95
370
    13
100
AcDbLine
 10
4.727474879798335
 20
3.639602073322911
 30
0.0
 11
4.749468754798335
 21
3.639602073322911
 31
0.0
  0
LINE
  5
25E
330
1F
100
AcDbEntity
  8
1
  6
Continuous
 62
    95
370
    13
100
AcDbLine
 10
4.767470161048334
 20
3.639602073322911
 30
0.0
 11
4.789467957923333
 21
3.639602073322911
 31
0.0
  0
LINE
  5
25F
330
1F
100
AcDbEntity
  8
1
  6
Continuous
 62
    95
370
    13
100
AcDbLine
 10
4.807469364173332
 20
3.639602073322911
 30
0.0
 11
4.829471082923332
 21
3.639602073322911
 31
0.0
  0
LINE
  5
260
330
1F
100
AcDbEntity
  8
1
  6
Continuous
 62
    95
370
    13
100
AcDbLine
 10
4.847468567298331
 20
3.639602073322911
 30
0.0
 11
4.863971817298331
 21
3.639602073322911
 31
0.0
  0
LINE
  5
261
330
1F
100
AcDbEntity
  8
1
  6
Continuous
 62
    95
370
    13
100
AcDbLine
 10
4.86397181729833
 20
3.639602073322897
 30
0.0
 11
4.86397181729833
 21
3.645458906645181
 31
0.0
  0
LINE
  5
262
330
1F
100
AcDbEntity
  8
1
  6
Continuous
 62
    95
370
    13
100
AcDbLine
 10
4.88747152042333
 20
3.64630685156899
 30
0.0
 11
4.89097181729833
 21
3.64630685156899
 31
0.0
  0
LINE
  5
263
330
1F
100
AcDbEntity
  8
1
  6
Continuous
 62
    95
370
    13
100
AcDbLine
 10
4.89097181729833
 20
3.645458906645181
 30
0.0
 11
4.89097181729833
 21
3.639602073322897
 31
0.0
  0
LINE
  5
264
330
1F
100
AcDbEntity
  8
1
  6
Continuous
 62
    95
370
    13
100
AcDbLine
 10
4.922151714757741
 20
3.648412369656714
 30
0.0
 11
4.971791789203553
 21
3.648412369656714
 31
0.0
  0
LINE
  5
265
330
1F
100
AcDbEntity
  8
1
  6
Continuous
 62
    95
370
    13
100
AcDbLine
 10
4.612971817298339
 20
3.630511683769471
 30
0.0
 11
4.629475067298338
 21
3.630511683769471
 31
0.0
  0
LINE
  5
266
330
1F
100
AcDbEntity
  8
1
  6
Continuous
 62
    95
370
    13
100
AcDbLine
 10
4.647472551673338
 20
3.630511683769471
 30
0.0
 11
4.669474270423337
 21
3.630511683769471
 31
0.0
  0
LINE
  5
267
330
1F
100
AcDbEntity
  8
1
  6
Continuous
 62
    95
370
    13
100
AcDbLine
 10
4.687475676673336
 20
3.630511683769471
 30
0.0
 11
4.709473473548336
 21
3.630511683769471
 31
0.0
  0
LINE
  5
268
330
1F
100
AcDbEntity
  8
1
  6
Continuous
 62
    95
370
    13
100
AcDbLine
 10
4.727474879798335
 20
3.630511683769471
 30
0.0
 11
4.749468754798335
 21
3.630511683769471
 31
0.0
  0
LINE
  5
269
330
1F
100
AcDbEntity
  8
1
  6
Continuous
 62
    95
370
    13
100
AcDbLine
 10
4.767470161048334
 20
3.630511683769471
 30
0.0
 11
4.789467957923333
 21
3.630511683769471
 31
0.0
  0
LINE
  5
26A
330
1F
100
AcDbEntity
  8
1
  6
Continuous
 62
    95
370
    13
100
AcDbLine
 10
4.807469364173332
 20
3.630511683769471
 30
0.0
 11
4.829471082923332
 21
3.630511683769471
 31
0.0
  0
LINE
  5
26B
330
1F
100
AcDbEntity
  8
1
  6
Continuous
 62
    95
370
    13
100
AcDbLine
 10
4.847468567298331
 20
3.630511683769471
 30
0.0
 11
4.863971817298331
 21
3.630511683769471
 31
0.0
  0
LINE
  5
26C
330
1F
100
AcDbEntity
  8
1
  6
Continuous
 62
    95
370
    13
100
AcDbLine
 10
4.612971817298339
 20
3.630511683769471
 30
0.0
 11
4.612971817298339
 21
3.614313121570182
 31
0.0
  0
LINE
  5
26D
330
1F
100
AcDbEntity
  8
1
  6
Continuous
 62
    95
370
    13
100
AcDbLine
 10
4.585971817298339
 20
3.614313121570182
 30
0.0
 11
4.585971817298339
 21
3.630511683769471
 31
0.0
  0
LINE
  5
26E
330
1F
100
AcDbEntity
  8
1
  6
Continuous
 62
    95
370
    13
100
AcDbLine
 10
4.503972276152463
 20
3.630511683769471
 30
0.0
 11
4.585971817298339
 21
3.630511683769471
 31
0.0
  0
LINE
  5
26F
330
1F
100
AcDbEntity
  8
1
  6
Continuous
 62
    95
370
    13
100
AcDbLine
 10
4.89097181729833
 20
3.630511683769471
 30
0.0
 11
4.89097181729833
 21
3.614313121570182
 31
0.0
  0
LINE
  5
270
330
1F
100
AcDbEntity
  8
1
  6
Continuous
 62
    95
370
    13
100
AcDbLine
 10
4.86397181729833
 20
3.614313121570182
 30
0.0
 11
4.86397181729833
 21
3.630511683769471
 31
0.0
  0
LINE
  5
271
330
1F
100
AcDbEntity
  8
1
  6
Continuous
 62
    95
370
    13
100
AcDbLine
 10
4.89097181729833
 20
3.639602073322911
 30
0.0
 11
4.972928730516894
 21
3.639602073322911
 31
0.0
  0
LINE
  5
272
330
1F
100
AcDbEntity
  8
1
  6
Continuous
 62
    95
370
    13
100
AcDbLine
 10
4.89097181729833
 20
3.639602073322911
 30
0.0
 11
4.89097181729833
 21
3.630511683769471
 31
0.0
  0
LINE
  5
273
330
1F
100
AcDbEntity
  8
1
  6
Continuous
 62
    95
370
    13
100
AcDbLine
 10
4.89097181729833
 20
3.630511683769471
 30
0.0
 11
4.972971358444207
 21
3.630511683769471
 31
0.0
  0
LINE
  5
274
330
1F
100
AcDbEntity
  8
1
  6
Continuous
 62
     2
370
    13
100
AcDbLine
 10
4.669471817298334
 20
3.712948160794367
 30
0.0
 11
4.687471817298334
 21
3.712948160794367
 31
0.0
  0
LINE
  5
275
330
1F
100
AcDbEntity
  8
1
  6
Continuous
 62
     2
370
    13
100
AcDbLine
 10
4.669471817298332
 20
3.71185941433152
 30
0.0
 11
4.669471817298331
 21
3.705346879874845
 31
0.0
  0
LINE
  5
276
330
1F
100
AcDbEntity
  8
1
  6
Continuous
 62
     2
370
    13
100
AcDbLine
 10
4.669471817298332
 20
3.71185941433152
 30
0.0
 11
4.687471817298332
 21
3.71185941433152
 31
0.0
  0
LINE
  5
277
330
1F
100
AcDbEntity
  8
1
  6
Continuous
 62
     2
370
    13
100
AcDbLine
 10
4.669471817298331
 20
3.705346879874845
 30
0.0
 11
4.669471817298331
 21
3.703496010888014
 31
0.0
  0
LINE
  5
278
330
1F
100
AcDbEntity
  8
1
  6
Continuous
 62
     2
370
    13
100
AcDbLine
 10
4.669471817298331
 20
3.705346879874845
 30
0.0
 11
4.687471817298331
 21
3.705346879874845
 31
0.0
  0
LINE
  5
279
330
1F
100
AcDbEntity
  8
1
  6
Continuous
 62
     2
370
    13
100
AcDbLine
 10
4.669471817298331
 20
3.703496010888014
 30
0.0
 11
4.687471817298331
 21
3.703496010888014
 31
0.0
  0
LINE
  5
27A
330
1F
100
AcDbEntity
  8
1
  6
Continuous
 62
     2
370
    13
100
AcDbLine
 10
4.687471817298332
 20
3.711859414331519
 30
0.0
 11
4.687471817298332
 21
3.712948160794362
 31
0.0
  0
LINE
  5
27B
330
1F
100
AcDbEntity
  8
1
  6
Continuous
 62
     2
370
    13
100
AcDbLine
 10
4.687471817298332
 20
3.71185941433152
 30
0.0
 11
4.687471817298331
 21
3.705346879874845
 31
0.0
  0
LINE
  5
27C
330
1F
100
AcDbEntity
  8
1
  6
Continuous
 62
     2
370
    13
100
AcDbLine
 10
4.687471817298331
 20
3.705346879874845
 30
0.0
 11
4.687471817298331
 21
3.703496010888014
 31
0.0
  0
LINE
  5
27D
330
1F
100
AcDbEntity
  8
1
  6
Continuous
 62
     3
370
    13
100
AcDbLine
 10
4.575432273298575
 20
3.768659417738329
 30
0.0
 11
4.575432273298575
 21
3.801271212678064
 31
0.0
  0
LINE
  5
27E
330
1F
100
AcDbEntity
  8
1
  6
Continuous
 62
     3
370
    13
100
AcDbLine
 10
4.415971817298347
 20
3.514313003401832
 30
0.0
 11
4.415971817298347
 21
4.073686127472667
 31
0.0
  0
LINE
  5
27F
330
1F
100
AcDbEntity
  8
1
  6
Continuous
 62
     3
370
    13
100
AcDbLine
 10
4.416917809241255
 20
3.353686127472663
 30
0.0
 11
4.415971817298347
 21
3.353686127472663
 31
0.0
  0
LINE
  5
280
330
1F
100
AcDbEntity
  8
1
  6
Continuous
 62
     3
370
    13
100
AcDbLine
 10
4.450162474658676
 20
3.422745933415966
 30
0.0
 11
4.450162474658676
 21
4.071158862835315
 31
0.0
  0
LINE
  5
281
330
1F
100
AcDbEntity
  8
1
  6
Continuous
 62
     3
370
    13
100
AcDbLine
 10
4.418471817298347
 20
3.416704805911537
 30
0.0
 11
4.418471817298347
 21
4.071158862835315
 31
0.0
  0
LINE
  5
282
330
1F
100
AcDbEntity
  8
1
  6
Continuous
 62
     3
370
    13
100
AcDbLine
 10
4.418471817298347
 20
3.416704805911537
 30
0.0
 11
4.450162474658676
 21
3.416704805911537
 31
0.0
  0
LINE
  5
283
330
1F
100
AcDbEntity
  8
1
  6
Continuous
 62
     3
370
    13
100
AcDbLine
 10
4.450162474658676
 20
3.422745933415966
 30
0.0
 11
4.450162474658676
 21
3.416704805911537
 31
0.0
  0
LINE
  5
284
330
1F
100
AcDbEntity
  8
1
  6
Continuous
 62
     4
370
    13
100
AcDbLine
 10
4.955421837190771
 20
3.65202103050413
 30
0.0
 11
4.955421837190771
 21
3.64845131175413
 31
0.0
  0
LINE
  5
285
330
1F
100
AcDbEntity
  8
1
  6
Continuous
 62
     2
370
    13
100
AcDbLine
 10
4.589471817298332
 20
3.711859414331519
 30
0.0
 11
4.589471817298332
 21
3.712948160794362
 31
0.0
  0
LINE
  5
286
330
1F
100
AcDbEntity
  8
1
  6
Continuous
 62
     2
370
    13
100
AcDbLine
 10
4.589471817298334
 20
3.712948160794367
 30
0.0
 11
4.607471817298334
 21
3.712948160794367
 31
0.0
  0
LINE
  5
287
330
1F
100
AcDbEntity
  8
1
  6
Continuous
 62
     2
370
    13
100
AcDbLine
 10
4.589471817298332
 20
3.71185941433152
 30
0.0
 11
4.589471817298331
 21
3.705346879874845
 31
0.0
  0
LINE
  5
288
330
1F
100
AcDbEntity
  8
1
  6
Continuous
 62
     2
370
    13
100
AcDbLine
 10
4.589471817298332
 20
3.71185941433152
 30
0.0
 11
4.607471817298332
 21
3.71185941433152
 31
0.0
  0
LINE
  5
289
330
1F
100
AcDbEntity
  8
1
  6
Continuous
 62
     2
370
    13
100
AcDbLine
 10
4.589471817298331
 20
3.705346879874845
 30
0.0
 11
4.589471817298331
 21
3.703496010888014
 31
0.0
  0
LINE
  5
28A
330
1F
100
AcDbEntity
  8
1
  6
Continuous
 62
     2
370
    13
100
AcDbLine
 10
4.589471817298331
 20
3.705346879874845
 30
0.0
 11
4.607471817298331
 21
3.705346879874845
 31
0.0
  0
LINE
  5
28B
330
1F
100
AcDbEntity
  8
1
  6
Continuous
 62
    95
370
    13
100
AcDbLine
 10
4.468284803881809
 20
5.826135969567646
 30
0.0
 11
4.468206574161694
 21
5.830617747231441
 31
0.0
  0
LINE
  5
28C
330
1F
100
AcDbEntity
  8
1
  6
Continuous
 62
    95
370
    13
100
AcDbLine
 10
4.497761151807978
 20
5.826135976785675
 30
0.0
 11
4.497682922213853
 21
5.830617747231443
 31
0.0
  0
LINE
  5
28D
330
1F
100
AcDbEntity
  8
1
  6
Continuous
 62
    95
370
    13
100
AcDbLine
 10
4.976299520538669
 20
5.826141732610946
 30
0.0
 11
4.976378284590225
 21
5.830617747231618
 31
0.0
  0
LINE
  5
28E
330
1F
100
AcDbEntity
  8
1
  6
Continuous
 62
     4
370
    18
100
AcDbLine
 10
4.470146123736945
 20
6.642037243456752
 30
0.0
 11
5.006797510859717
 21
6.642037243456752
 31
0.0
  0
LINE
  5
28F
330
1F
100
AcDbEntity
  8
1
  6
Continuous
 62
    95
370
    13
100
AcDbLine
 10
4.464360599502894
 20
5.830617747231621
 30
0.0
 11
4.464360599502894
 21
5.834202400710224
 31
0.0
  0
LINE
  5
290
330
1F
100
AcDbEntity
  8
1
  6
Continuous
 62
    95
370
    13
100
AcDbLine
 10
4.464360599503579
 20
5.830617747231621
 30
0.0
 11
4.500565350006472
 21
5.830617747231621
 31
0.0
  0
LINE
  5
291
330
1F
100
AcDbEntity
  8
1
  6
Continuous
 62
    95
370
    13
100
AcDbLine
 10
4.500565350006472
 20
5.830617747231443
 30
0.0
 11
4.976378284590195
 21
5.830617747231443
 31
0.0
  0
LINE
  5
292
330
1F
100
AcDbEntity
  8
1
  6
Continuous
 62
    95
370
    13
100
AcDbLine
 10
4.976378284590195
 20
5.830617747231621
 30
0.0
 11
5.012583035090617
 21
5.830617747231621
 31
0.0
  0
LINE
  5
293
330
1F
100
AcDbEntity
  8
1
  6
Continuous
 62
     3
370
    18
100
AcDbLine
 10
5.026781159938017
 20
5.681354930919891
 30
0.0
 11
5.023428182959392
 21
5.297141825024616
 31
0.0
  0
LINE
  5
294
330
1F
100
AcDbEntity
  8
1
  6
Continuous
 62
     3
370
    18
100
AcDbLine
 10
4.497382807716708
 20
5.514596958081686
 30
0.0
 11
4.979560826879983
 21
5.514596958081686
 31
0.0
  0
LINE
  5
295
330
1F
100
AcDbEntity
  8
1
  6
Continuous
 62
     3
370
    18
100
AcDbLine
 10
5.060971817298346
 20
5.826141825024598
 30
0.0
 11
4.995888201503491
 21
5.826141825024592
 31
0.0
  0
LINE
  5
296
330
1F
100
AcDbEntity
  8
1
  6
Continuous
 62
     3
370
    18
100
AcDbLine
 10
4.984934975633335
 20
5.617141825024615
 30
0.0
 11
4.99588820150349
 21
5.826141825024598
 31
0.0
  0
LINE
  5
297
330
1F
100
AcDbEntity
  8
1
  6
Continuous
 62
     3
370
    18
100
AcDbLine
 10
4.481055433093199
 20
5.826141825024539
 30
0.0
 11
4.415971817298347
 21
5.826141825024532
 31
0.0
  0
LINE
  5
298
330
1F
100
AcDbEntity
  8
1
  6
Continuous
 62
     3
370
    18
100
AcDbLine
 10
5.058471817298346
 20
5.681354930919891
 30
0.0
 11
5.060971817298346
 21
5.826141825024598
 31
0.0
  0
LINE
  5
299
330
1F
100
AcDbEntity
  8
1
  6
Continuous
 62
     3
370
    18
100
AcDbLine
 10
5.036977515709133
 20
6.627874826094966
 30
0.0
 11
5.037501226020609
 21
6.597871482444896
 31
0.0
  0
LINE
  5
29A
330
1F
100
AcDbEntity
  8
1
  6
Continuous
 62
     3
370
    18
100
AcDbLine
 10
5.038548546622492
 20
6.537870525347899
 30
0.0
 11
5.043378864054136
 21
6.261141825024599
 31
0.0
  0
LINE
  5
29B
330
1F
100
AcDbEntity
  8
1
  6
Continuous
 62
     3
370
    18
100
AcDbLine
 10
5.043378864054124
 20
6.261141825024599
 30
0.0
 11
5.043551891423412
 21
6.261141825024599
 31
0.0
  0
LINE
  5
29C
330
1F
100
AcDbEntity
  8
1
  6
Continuous
 62
     4
370
    18
100
AcDbLine
 10
4.95542183719077
 20
5.837734275080325
 30
0.0
 11
4.955876584811719
 21
5.863786750118918
 31
0.0
  0
LINE
  5
29D
330
1F
100
AcDbEntity
  8
1
  6
Continuous
 62
     4
370
    18
100
AcDbLine
 10
4.941521797428387
 20
5.837734275074355
 30
0.0
 11
4.941067049784944
 21
5.863786750118917
 31
0.0
  0
LINE
  5
29E
330
1F
100
AcDbEntity
  8
1
  6
Continuous
 62
     4
370
    18
100
AcDbLine
 10
4.88542183719077
 20
5.837734275080325
 30
0.0
 11
4.885876584811719
 21
5.863786750118918
 31
0.0
  0
LINE
  5
29F
330
1F
100
AcDbEntity
  8
1
  6
Continuous
 62
     4
370
    18
100
AcDbLine
 10
4.871521797428386
 20
5.837734275074355
 30
0.0
 11
4.871067049784944
 21
5.863786750118917
 31
0.0
  0
LINE
  5
2A0
330
1F
100
AcDbEntity
  8
1
  6
Continuous
 62
     4
370
    18
100
AcDbLine
 10
4.815421837190769
 20
5.837734275080325
 30
0.0
 11
4.81587658481172
 21
5.863786750118918
 31
0.0
  0
LINE
  5
2A1
330
1F
100
AcDbEntity
  8
1
  6
Continuous
 62
     4
370
    18
100
AcDbLine
 10
4.801521797428387
 20
5.837734275074355
 30
0.0
 11
4.801067049784943
 21
5.863786750118917
 31
0.0
  0
LINE
  5
2A2
330
1F
100
AcDbEntity
  8
1
  6
Continuous
 62
     4
370
    18
100
AcDbLine
 10
4.74542183719077
 20
5.837734275080325
 30
0.0
 11
4.745876584811719
 21
5.863786750118918
 31
0.0
  0
LINE
  5
2A3
330
1F
100
AcDbEntity
  8
1
  6
Continuous
 62
     4
370
    18
100
AcDbLine
 10
4.731521797428387
 20
5.837734275074355
 30
0.0
 11
4.731067049784943
 21
5.863786750118917
 31
0.0
  0
LINE
  5
2A4
330
1F
100
AcDbEntity
  8
1
  6
Continuous
 62
     4
370
    18
100
AcDbLine
 10
4.67542183719077
 20
5.837734275080325
 30
0.0
 11
4.675876584811719
 21
5.863786750118918
 31
0.0
  0
LINE
  5
2A5
330
1F
100
AcDbEntity
  8
1
  6
Continuous
 62
     4
370
    18
100
AcDbLine
 10
4.661521797428386
 20
5.837734275074355
 30
0.0
 11
4.661067049784944
 21
5.863786750118917
 31
0.0
  0
LINE
  5
2A6
330
1F
100
AcDbEntity
  8
1
  6
Continuous
 62
     4
370
    18
100
AcDbLine
 10
4.605421837190769
 20
5.837734275080325
 30
0.0
 11
4.60587658481172
 21
5.863786750118918
 31
0.0
  0
LINE
  5
2A7
330
1F
100
AcDbEntity
  8
1
  6
Continuous
 62
     4
370
    18
100
AcDbLine
 10
4.591521797428387
 20
5.837734275074355
 30
0.0
 11
4.591067049784943
 21
5.863786750118917
 31
0.0
  0
LINE
  5
2A8
330
1F
100
AcDbEntity
  8
1
  6
Continuous
 62
     4
370
    18
100
AcDbLine
 10
4.53542183719077
 20
5.837734275080325
 30
0.0
 11
4.535876584811719
 21
5.863786750118918
 31
0.0
  0
LINE
  5
2A9
330
1F
100
AcDbEntity
  8
1
  6
Continuous
 62
     3
370
    18
100
AcDbLine
 10
4.450162474658675
 20
5.681354930919891
 30
0.0
 11
4.418471817298346
 21
5.681354930919891
 31
0.0
  0
LINE
  5
2AA
330
1F
100
AcDbEntity
  8
1
  6
Continuous
 62
     3
370
    18
100
AcDbLine
 10
5.053550368374976
 20
6.251316349088972
 30
0.0
 11
5.060971817298343
 21
5.826141825024598
 31
0.0
  0
LINE
  5
2AB
330
1F
100
AcDbEntity
  8
1
  6
Continuous
 62
     3
370
    18
100
AcDbLine
 10
4.492008658963355
 20
5.617141825024615
 30
0.0
 11
4.984934975633335
 21
5.617141825024615
 31
0.0
  0
LINE
  5
2AC
330
1F
100
AcDbEntity
  8
1
  6
Continuous
 62
     3
370
    18
100
AcDbLine
 10
4.497382807716708
 20
5.514596958081686
 30
0.0
 11
4.492008658963355
 21
5.617141825024615
 31
0.0
  0
LINE
  5
2AD
330
1F
100
AcDbEntity
  8
1
  6
Continuous
 62
     3
370
    18
100
AcDbLine
 10
5.02342818295939
 20
5.297141825024616
 30
0.0
 11
4.4535154516373
 21
5.297141825024616
 31
0.0
  0
LINE
  5
2AE
330
1F
100
AcDbEntity
  8
1
  6
Continuous
 62
     3
370
    18
100
AcDbLine
 10
4.979560826879982
 20
5.514596958081686
 30
0.0
 11
4.984934975633335
 21
5.617141825024615
 31
0.0
  0
LINE
  5
2AF
330
1F
100
AcDbEntity
  8
1
  6
Continuous
 62
     3
370
    18
100
AcDbLine
 10
5.058471817298346
 20
5.681354930919891
 30
0.0
 11
5.026781159938017
 21
5.681354930919891
 31
0.0
  0
LINE
  5
2B0
330
1F
100
AcDbEntity
  8
1
  6
Continuous
 62
     4
370
    18
100
AcDbLine
 10
4.43573098321769
 20
6.106243151749437
 30
0.0
 11
4.44014726604502
 21
6.612299039521704
 31
0.0
  0
LINE
  5
2B1
330
1F
100
AcDbEntity
  8
1
  6
Continuous
 62
     4
370
    18
100
AcDbLine
 10
4.439804562975423
 20
6.057203694360703
 30
0.0
 11
4.439804562975423
 21
5.986243151749436
 31
0.0
  0
LINE
  5
2B2
330
1F
100
AcDbEntity
  8
1
  6
Continuous
 62
    95
370
    13
100
AcDbLine
 10
5.042173897049933
 20
6.59393783832384
 30
0.0
 11
5.036956668214313
 21
6.59393783832384
 31
0.0
  0
LINE
  5
2B3
330
1F
100
AcDbEntity
  8
1
  6
Continuous
 62
    95
370
    13
100
AcDbLine
 10
5.050971817297103
 20
6.05687110331323
 30
0.0
 11
5.050971817297103
 21
6.05714897831323
 31
0.0
  0
LINE
  5
2B4
330
1F
100
AcDbEntity
  8
1
  6
Continuous
 62
    95
370
    13
100
AcDbLine
 10
5.041641213489786
 20
6.05687110331323
 30
0.0
 11
5.050971817297103
 21
6.05687110331323
 31
0.0
  0
LINE
  5
2B5
330
1F
100
AcDbEntity
  8
1
  6
Continuous
 62
     3
370
    18
100
AcDbLine
 10
4.4535154516373
 20
5.297141825024616
 30
0.0
 11
4.450162474658675
 21
5.681354930919891
 31
0.0
  0
LINE
  5
2B6
330
1F
100
AcDbEntity
  8
1
  6
Continuous
 62
     4
370
    18
100
AcDbLine
 10
4.435302622415343
 20
5.830904509558552
 30
0.0
 11
4.435302622415343
 21
5.986243151749436
 31
0.0
  0
LINE
  5
2B7
330
1F
100
AcDbEntity
  8
1
  6
Continuous
 62
    95
370
    13
100
AcDbLine
 10
5.000187499059481
 20
6.642037274544621
 30
0.0
 11
5.00211749564063
 21
6.643967274375532
 31
0.0
  0
LINE
  5
2B8
330
1F
100
AcDbEntity
  8
1
  6
Continuous
 62
    95
370
    13
100
AcDbLine
 10
5.050782087382175
 20
6.596125054911997
 30
0.0
 11
5.050782087382175
 21
6.539624601453017
 31
0.0
  0
LINE
  5
2B9
330
1F
100
AcDbEntity
  8
1
  6
Continuous
 62
    95
370
    13
100
AcDbLine
 10
5.050782087382175
 20
6.537874828182506
 30
0.0
 11
5.050782087382175
 21
6.539624601453017
 31
0.0
  0
LINE
  5
2BA
330
1F
100
AcDbEntity
  8
1
  6
Continuous
 62
    95
370
    13
100
AcDbLine
 10
5.042173897049933
 20
6.541811818041173
 30
0.0
 11
5.037411533231208
 21
6.541811818041173
 31
0.0
  0
LINE
  5
2BB
330
1F
100
AcDbEntity
  8
1
  6
Continuous
 62
    95
370
    13
100
AcDbLine
 10
5.042173897049933
 20
6.541811818041173
 30
0.0
 11
5.042173897049933
 21
6.59393783832384
 31
0.0
  0
LINE
  5
2BC
330
1F
100
AcDbEntity
  8
1
  6
Continuous
 62
    95
370
    13
100
AcDbLine
 10
5.050782087382175
 20
6.596125054911997
 30
0.0
 11
5.050782087382175
 21
6.597874828182507
 31
0.0
  0
LINE
  5
2BD
330
1F
100
AcDbEntity
  8
1
  6
Continuous
 62
    95
370
    13
100
AcDbLine
 10
5.050782087382175
 20
6.537874828182506
 30
0.0
 11
5.037446079764935
 21
6.537874828182506
 31
0.0
  0
LINE
  5
2BE
330
1F
100
AcDbEntity
  8
1
  6
Continuous
 62
    95
370
    13
100
AcDbLine
 10
5.050782087382175
 20
6.539624601453017
 30
0.0
 11
5.042173897049933
 21
6.541811818041173
 31
0.0
  0
LINE
  5
2BF
330
1F
100
AcDbEntity
  8
1
  6
Continuous
 62
    95
370
    13
100
AcDbLine
 10
5.042173897049933
 20
6.59393783832384
 30
0.0
 11
5.050782087382175
 21
6.596125054911997
 31
0.0
  0
LINE
  5
2C0
330
1F
100
AcDbEntity
  8
1
  6
Continuous
 62
    95
370
    13
100
AcDbLine
 10
4.863402689708351
 20
6.643967237820556
 30
0.0
 11
4.613540944890091
 21
6.643967237820478
 31
0.0
  0
LINE
  5
2C1
330
1F
100
AcDbEntity
  8
1
  6
Continuous
 62
    95
370
    13
100
AcDbLine
 10
4.863402689706577
 20
6.643967237820556
 30
0.0
 11
4.863402689706577
 21
6.642363502432004
 31
0.0
  0
LINE
  5
2C2
330
1F
100
AcDbEntity
  8
1
  6
Continuous
 62
    95
370
    13
100
AcDbLine
 10
4.613540944890091
 20
6.643967237820478
 30
0.0
 11
4.613540944890091
 21
6.642363502432004
 31
0.0
  0
LINE
  5
2C3
330
1F
100
AcDbEntity
  8
1
  6
Continuous
 62
    95
370
    13
100
AcDbLine
 10
4.863402689706577
 20
6.642363502432004
 30
0.0
 11
4.613540944890091
 21
6.642363502432004
 31
0.0
  0
LINE
  5
2C4
330
1F
100
AcDbEntity
  8
1
  6
Continuous
 62
     4
370
    18
100
AcDbLine
 10
5.006797510859717
 20
6.612560815649871
 30
0.0
 11
4.470146123736945
 21
6.612560815649871
 31
0.0
  0
LINE
  5
2C5
330
1F
100
AcDbEntity
  8
1
  6
Continuous
 62
     4
370
    18
100
AcDbLine
 10
5.033972654983672
 20
6.174009516198087
 30
0.0
 11
5.050971817298333
 21
6.174157865640161
 31
0.0
  0
LINE
  5
2C6
330
1F
100
AcDbEntity
  8
1
  6
Continuous
 62
     4
370
    18
100
AcDbLine
 10
5.0342269819257
 20
6.144866535219618
 30
0.0
 11
5.033972654983672
 21
6.174009516198087
 31
0.0
  0
LINE
  5
2C7
330
1F
100
AcDbEntity
  8
1
  6
Continuous
 62
     4
370
    18
100
AcDbLine
 10
5.050971817298333
 20
6.174157865640161
 30
0.0
 11
5.051992860829852
 21
6.057157865640162
 31
0.0
  0
LINE
  5
2C8
330
1F
100
AcDbEntity
  8
1
  6
Continuous
 62
     4
370
    18
100
AcDbLine
 10
4.465300909067397
 20
6.057157865640162
 30
0.0
 11
5.011641012181319
 21
6.057157865640162
 31
0.0
  0
LINE
  5
2C9
330
1F
100
AcDbEntity
  8
1
  6
Continuous
 62
     4
370
    18
100
AcDbLine
 10
5.011644438844617
 20
6.057157880587057
 30
0.0
 11
5.006797510859718
 21
6.612560815649871
 31
0.0
  0
LINE
  5
2CA
330
1F
100
AcDbEntity
  8
1
  6
Continuous
 62
     4
370
    18
100
AcDbLine
 10
4.470146123736945
 20
6.612560815649871
 30
0.0
 11
4.465299195800969
 21
6.057157886192998
 31
0.0
  0
LINE
  5
2CB
330
1F
100
AcDbEntity
  8
1
  6
Continuous
 62
    95
370
    13
100
AcDbLine
 10
4.425971817298335
 20
5.985856729200426
 30
0.0
 11
4.425971817298335
 21
5.986243239083284
 31
0.0
  0
LINE
  5
2CC
330
1F
100
AcDbEntity
  8
1
  6
Continuous
 62
    95
370
    13
100
AcDbLine
 10
4.435302545767503
 20
5.985856729200426
 30
0.0
 11
4.425971817298335
 21
5.985856729200426
 31
0.0
  0
LINE
  5
2CD
330
1F
100
AcDbEntity
  8
1
  6
Continuous
 62
    95
370
    13
100
AcDbLine
 10
4.436061425640418
 20
5.830617747231442
 30
0.0
 11
4.436063944628832
 21
5.83090639471354
 31
0.0
  0
LINE
  5
2CE
330
1F
100
AcDbEntity
  8
1
  6
Continuous
 62
    95
370
    13
100
AcDbLine
 10
4.436061425640417
 20
5.830617747231442
 30
0.0
 11
4.464360206233945
 21
5.830617747231442
 31
0.0
  0
LINE
  5
2CF
330
1F
100
AcDbEntity
  8
1
  6
Continuous
 62
     4
370
    18
100
AcDbLine
 10
4.425544717452572
 20
5.986243151749436
 30
0.0
 11
4.425544717452572
 21
6.106243151749437
 31
0.0
  0
LINE
  5
2D0
330
1F
100
AcDbEntity
  8
1
  6
Continuous
 62
     4
370
    18
100
AcDbLine
 10
4.439804562975423
 20
5.986243151749436
 30
0.0
 11
4.425544717452572
 21
5.986243151749436
 31
0.0
  0
LINE
  5
2D1
330
1F
100
AcDbEntity
  8
1
  6
Continuous
 62
     4
370
    18
100
AcDbLine
 10
4.46542183719077
 20
5.837734275080325
 30
0.0
 11
4.465876584811719
 21
5.863786750118918
 31
0.0
  0
LINE
  5
2D2
330
1F
100
AcDbEntity
  8
1
  6
Continuous
 62
     4
370
    18
100
AcDbLine
 10
5.04164101218132
 20
6.057067526425616
 30
0.0
 11
5.04164101218132
 21
5.830904509558552
 31
0.0
  0
LINE
  5
2D3
330
1F
100
AcDbEntity
  8
1
  6
Continuous
 62
     4
370
    18
100
AcDbLine
 10
5.04164101218132
 20
5.830904509558552
 30
0.0
 11
5.018471817309533
 21
5.830904509558552
 31
0.0
  0
LINE
  5
2D4
330
1F
100
AcDbEntity
  8
1
  6
Continuous
 62
     7
370
    18
100
AcDbLine
 10
4.1986826309414
 20
6.994613073837774
 30
0.0
 11
4.198677853823464
 21
6.994613073837774
 31
0.0
  0
LINE
  5
2D5
330
1F
100
AcDbEntity
  8
1
  6
Continuous
 62
     6
370
    18
100
AcDbLine
 10
4.763862442298331
 20
6.46957636011353
 30
0.0
 11
4.713081192298331
 21
6.46957636011353
 31
0.0
  0
LINE
  5
2D6
330
1F
100
AcDbEntity
  8
1
  6
Continuous
 62
     6
370
    18
100
AcDbLine
 10
4.713081192298331
 20
6.46957636011353
 30
0.0
 11
4.689643692298331
 21
6.481238087078812
 31
0.0
  0
LINE
  5
2D7
330
1F
100
AcDbEntity
  8
1
  6
Continuous
 62
     6
370
    18
100
AcDbLine
 10
4.689643692298331
 20
6.518814762855834
 30
0.0
 11
4.713081192298331
 21
6.530476489821117
 31
0.0
  0
LINE
  5
2D8
330
1F
100
AcDbEntity
  8
1
  6
Continuous
 62
     6
370
    18
100
AcDbLine
 10
4.688341608964998
 20
6.45661888570766
 30
0.0
 11
4.688341608964998
 21
6.420337957371225
 31
0.0
  0
LINE
  5
2D9
330
1F
100
AcDbEntity
  8
1
  6
Continuous
 62
     6
370
    18
100
AcDbLine
 10
4.713081192298331
 20
6.46957636011353
 30
0.0
 11
4.688341608964998
 21
6.45661888570766
 31
0.0
  0
LINE
  5
2DA
330
1F
100
AcDbEntity
  8
1
  6
Continuous
 62
     6
370
    18
100
AcDbLine
 10
4.713081192298331
 20
6.530476489821117
 30
0.0
 11
4.763862442298331
 21
6.530476489821117
 31
0.0
  0
LINE
  5
2DB
330
1F
100
AcDbEntity
  8
1
  6
Continuous
 62
     6
370
    18
100
AcDbLine
 10
4.689643692298331
 20
6.481238087078812
 30
0.0
 11
4.689643692298331
 21
6.518814762855834
 31
0.0
  0
LINE
  5
2DC
330
1F
100
AcDbEntity
  8
1
  6
Continuous
 62
     6
370
    18
100
AcDbLine
 10
4.788602025631665
 20
6.518814762855834
 30
0.0
 11
4.788602025631665
 21
6.481238087078812
 31
0.0
  0
LINE
  5
2DD
330
1F
100
AcDbEntity
  8
1
  6
Continuous
 62
     6
370
    18
100
AcDbLine
 10
4.763862442298331
 20
6.407380482965356
 30
0.0
 11
4.788602025631665
 21
6.419042209930639
 31
0.0
  0
LINE
  5
2DE
330
1F
100
AcDbEntity
  8
1
  6
Continuous
 62
     6
370
    18
100
AcDbLine
 10
4.688341608964998
 20
6.420337957371225
 30
0.0
 11
4.713081192298331
 21
6.407380482965356
 31
0.0
  0
LINE
  5
2DF
330
1F
100
AcDbEntity
  8
1
  6
Continuous
 62
     6
370
    18
100
AcDbLine
 10
4.763862442298331
 20
6.530476489821117
 30
0.0
 11
4.788602025631665
 21
6.518814762855834
 31
0.0
  0
LINE
  5
2E0
330
1F
100
AcDbEntity
  8
1
  6
Continuous
 62
     6
370
    18
100
AcDbLine
 10
4.788602025631665
 20
6.45661888570766
 30
0.0
 11
4.763862442298331
 21
6.46957636011353
 31
0.0
  0
LINE
  5
2E1
330
1F
100
AcDbEntity
  8
1
  6
Continuous
 62
     6
370
    18
100
AcDbLine
 10
4.713081192298331
 20
6.407380482965356
 30
0.0
 11
4.763862442298331
 21
6.407380482965356
 31
0.0
  0
LINE
  5
2E2
330
1F
100
AcDbEntity
  8
1
  6
Continuous
 62
     6
370
    18
100
AcDbLine
 10
4.788602025631665
 20
6.419042209930639
 30
0.0
 11
4.788602025631665
 21
6.45661888570766
 31
0.0
  0
LINE
  5
2E3
330
1F
100
AcDbEntity
  8
1
  6
Continuous
 62
     6
370
    18
100
AcDbLine
 10
4.788602025631665
 20
6.481238087078812
 30
0.0
 11
4.763862442298331
 21
6.46957636011353
 31
0.0
  0
LINE
  5
2E4
330
1F
100
AcDbEntity
  8
1
  6
Continuous
 62
     4
370
    18
100
AcDbLine
 10
4.425544717452572
 20
6.106243151749436
 30
0.0
 11
4.441433964309152
 21
6.106243151749436
 31
0.0
  0
LINE
  5
2E5
330
1F
100
AcDbEntity
  8
1
  6
Continuous
 62
    95
370
    13
100
AcDbLine
 10
5.00211749564063
 20
6.643967274375532
 30
0.0
 11
5.002098147053451
 21
6.643967274375532
 31
0.0
  0
LINE
  5
2E6
330
1F
100
AcDbEntity
  8
1
  6
Continuous
 62
    95
370
    13
100
AcDbLine
 10
5.00209814705345
 20
6.6439672378206
 30
0.0
 11
5.00304987037705
 21
6.644927302946488
 31
0.0
  0
LINE
  5
2E7
330
1F
100
AcDbEntity
  8
1
  6
Continuous
 62
    95
370
    13
100
AcDbLine
 10
4.927247896813374
 20
6.642037258940411
 30
0.0
 11
4.863402690812383
 21
6.643967274342108
 31
0.0
  0
LINE
  5
2E8
330
1F
100
AcDbEntity
  8
1
  6
Continuous
 62
    95
370
    13
100
AcDbLine
 10
5.050782087382175
 20
6.597874828182506
 30
0.0
 11
5.036922402961793
 21
6.597874828182506
 31
0.0
  0
LINE
  5
2E9
330
1F
100
AcDbEntity
  8
1
  6
Continuous
 62
    95
370
    13
100
AcDbLine
 10
5.012583428362723
 20
5.830617747231442
 30
0.0
 11
5.04088220895625
 21
5.830617747231442
 31
0.0
  0
LINE
  5
2EA
330
1F
100
AcDbEntity
  8
1
  6
Continuous
 62
    95
370
    13
100
AcDbLine
 10
4.500644114057998
 20
5.826141732610946
 30
0.0
 11
4.500565350006443
 21
5.830617747231618
 31
0.0
  0
LINE
  5
2EB
330
1F
100
AcDbEntity
  8
1
  6
Continuous
 62
     3
370
    18
100
AcDbLine
 10
4.481055433093199
 20
5.826141825024598
 30
0.0
 11
4.995888201503491
 21
5.826141825024598
 31
0.0
  0
LINE
  5
2EC
330
1F
100
AcDbEntity
  8
1
  6
Continuous
 62
     3
370
    18
100
AcDbLine
 10
4.994983912512564
 20
6.669141825024993
 30
0.0
 11
4.481959722084105
 21
6.669141825024993
 31
0.0
  0
LINE
  5
2ED
330
1F
100
AcDbEntity
  8
1
  6
Continuous
 62
    95
370
    13
100
AcDbLine
 10
4.434769737546734
 20
6.59393783832384
 30
0.0
 11
4.439986966382361
 21
6.59393783832384
 31
0.0
  0
LINE
  5
2EE
330
1F
100
AcDbEntity
  8
1
  6
Continuous
 62
    95
370
    13
100
AcDbLine
 10
4.434769737546734
 20
6.541811818041173
 30
0.0
 11
4.434769737546734
 21
6.59393783832384
 31
0.0
  0
LINE
  5
2EF
330
1F
100
AcDbEntity
  8
1
  6
Continuous
 62
    95
370
    13
100
AcDbLine
 10
4.426161547214492
 20
6.537874828182506
 30
0.0
 11
4.439497554831733
 21
6.537874828182506
 31
0.0
  0
LINE
  5
2F0
330
1F
100
AcDbEntity
  8
1
  6
Continuous
 62
    95
370
    13
100
AcDbLine
 10
4.434769737546734
 20
6.541811818041173
 30
0.0
 11
4.439532101365465
 21
6.541811818041173
 31
0.0
  0
LINE
  5
2F1
330
1F
100
AcDbEntity
  8
1
  6
Continuous
 62
    95
370
    13
100
AcDbLine
 10
4.426161547214492
 20
6.539624601453017
 30
0.0
 11
4.434769737546734
 21
6.541811818041173
 31
0.0
  0
LINE
  5
2F2
330
1F
100
AcDbEntity
  8
1
  6
Continuous
 62
    95
370
    13
100
AcDbLine
 10
4.426161547214492
 20
6.537874828182506
 30
0.0
 11
4.426161547214492
 21
6.539624601453017
 31
0.0
  0
LINE
  5
2F3
330
1F
100
AcDbEntity
  8
1
  6
Continuous
 62
    95
370
    13
100
AcDbLine
 10
4.474826138956037
 20
6.643967274375532
 30
0.0
 11
4.476756135537187
 21
6.642037274544621
 31
0.0
  0
LINE
  5
2F4
330
1F
100
AcDbEntity
  8
1
  6
Continuous
 62
    95
370
    13
100
AcDbLine
 10
5.008658830714859
 20
5.826135969567646
 30
0.0
 11
5.008737060434974
 21
5.830617747231441
 31
0.0
  0
LINE
  5
2F5
330
1F
100
AcDbEntity
  8
1
  6
Continuous
 62
    95
370
    13
100
AcDbLine
 10
4.979182482788689
 20
5.826135976785675
 30
0.0
 11
4.979260712382814
 21
5.830617747231443
 31
0.0
  0
LINE
  5
2F6
330
1F
100
AcDbEntity
  8
1
  6
Continuous
 62
     4
370
    18
100
AcDbLine
 10
5.036796368551643
 20
6.612299039521704
 30
0.0
 11
5.040620756968144
 21
6.174067533305165
 31
0.0
  0
LINE
  5
2F7
330
1F
100
AcDbEntity
  8
1
  6
Continuous
 62
    95
370
    13
100
AcDbLine
 10
4.549695737783427
 20
6.642037258940415
 30
0.0
 11
4.613540943786055
 21
6.643967274342161
 31
0.0
  0
LINE
  5
2F8
330
1F
100
AcDbEntity
  8
1
  6
Continuous
 62
     4
370
    18
100
AcDbLine
 10
5.006797510859717
 20
6.642037243456752
 30
0.0
 11
5.006797510859717
 21
6.612560815649871
 31
0.0
  0
LINE
  5
2F9
330
1F
100
AcDbEntity
  8
1
  6
Continuous
 62
    95
370
    13
100
AcDbLine
 10
5.012583035090613
 20
5.830617747231621
 30
0.0
 11
5.012583035090613
 21
5.834223564715982
 31
0.0
  0
LINE
  5
2FA
330
1F
100
AcDbEntity
  8
1
  6
Continuous
 62
     4
370
    18
100
AcDbLine
 10
4.458471817309519
 20
5.830904509558552
 30
0.0
 11
4.435302622415343
 21
5.830904509558552
 31
0.0
  0
LINE
  5
2FB
330
1F
100
AcDbEntity
  8
1
  6
Continuous
 62
     4
370
    18
100
AcDbLine
 10
4.465302622415343
 20
6.057157871246102
 30
0.0
 11
4.465302622415343
 21
5.836568111982944
 31
0.0
  0
LINE
  5
2FC
330
1F
100
AcDbEntity
  8
1
  6
Continuous
 62
     4
370
    18
100
AcDbLine
 10
4.521521797428387
 20
5.837734275074355
 30
0.0
 11
4.521067049784943
 21
5.863786750118917
 31
0.0
  0
LINE
  5
2FD
330
1F
100
AcDbEntity
  8
1
  6
Continuous
 62
     3
370
    18
100
AcDbLine
 10
4.418471817298346
 20
5.681354930919891
 30
0.0
 11
4.415971817298347
 21
5.826141825024532
 31
0.0
  0
LINE
  5
2FE
330
1F
100
AcDbEntity
  8
1
  6
Continuous
 62
     3
370
    18
100
AcDbLine
 10
4.492008658963355
 20
5.617141825024615
 30
0.0
 11
4.481055433093199
 21
5.826141825024598
 31
0.0
  0
LINE
  5
2FF
330
1F
100
AcDbEntity
  8
1
  6
Continuous
 62
     4
370
    18
100
AcDbLine
 10
4.470146123736945
 20
6.642037243456752
 30
0.0
 11
4.470146123736945
 21
6.612560815649871
 31
0.0
  0
LINE
  5
300
330
1F
100
AcDbEntity
  8
1
  6
Continuous
 62
     3
370
    18
100
AcDbLine
 10
4.439966118887568
 20
6.627874826094966
 30
0.0
 11
4.439442408576092
 21
6.597871482444896
 31
0.0
  0
LINE
  5
301
330
1F
100
AcDbEntity
  8
1
  6
Continuous
 62
     3
370
    18
100
AcDbLine
 10
4.438395087974209
 20
6.537870525347899
 30
0.0
 11
4.433564770542565
 21
6.261141825024599
 31
0.0
  0
LINE
  5
302
330
1F
100
AcDbEntity
  8
1
  6
Continuous
 62
     3
370
    18
100
AcDbLine
 10
4.433564770542565
 20
6.261141825024599
 30
0.0
 11
4.431426348647047
 21
6.261141825024599
 31
0.0
  0
LINE
  5
303
330
1F
100
AcDbEntity
  8
1
  6
Continuous
 62
     3
370
    18
100
AcDbLine
 10
4.423427567085795
 20
6.253281444276097
 30
0.0
 11
4.415971817298347
 21
5.826141825024598
 31
0.0
  0
LINE
  5
304
330
1F
100
AcDbEntity
  8
1
  6
Continuous
 62
    95
370
    13
100
AcDbLine
 10
5.04088220895625
 20
5.830617747231441
 30
0.0
 11
5.040879696706593
 21
5.830905622528463
 31
0.0
  0
LINE
  5
305
330
1F
100
AcDbEntity
  8
1
  6
Continuous
 62
     4
370
    18
100
AcDbLine
 10
5.011521797428387
 20
5.837734275074355
 30
0.0
 11
5.011067049784943
 21
5.863786750118917
 31
0.0
  0
LINE
  5
306
330
1F
100
AcDbEntity
  8
1
  6
Continuous
 62
    95
370
    13
100
AcDbLine
 10
4.434769737546734
 20
6.59393783832384
 30
0.0
 11
4.426161547214492
 21
6.596125054911997
 31
0.0
  0
LINE
  5
307
330
1F
100
AcDbEntity
  8
1
  6
Continuous
 62
    95
370
    13
100
AcDbLine
 10
4.426161547214492
 20
6.597874828182506
 30
0.0
 11
4.440021231634874
 21
6.597874828182506
 31
0.0
  0
LINE
  5
308
330
1F
100
AcDbEntity
  8
1
  6
Continuous
 62
    95
370
    13
100
AcDbLine
 10
4.426161547214492
 20
6.596125054911997
 30
0.0
 11
4.426161547214492
 21
6.597874828182507
 31
0.0
  0
LINE
  5
309
330
1F
100
AcDbEntity
  8
1
  6
Continuous
 62
    95
370
    13
100
AcDbLine
 10
4.426161547214492
 20
6.596125054911997
 30
0.0
 11
4.426161547214492
 21
6.539624601453017
 31
0.0
  0
LINE
  5
30A
330
1F
100
AcDbEntity
  8
1
  6
Continuous
 62
    95
370
    13
100
AcDbLine
 10
4.473893764219622
 20
6.644927302946488
 30
0.0
 11
4.474845487543391
 21
6.643967237820435
 31
0.0
  0
LINE
  5
30B
330
1F
100
AcDbEntity
  8
1
  6
Continuous
 62
     4
370
    18
100
AcDbLine
 10
5.051992860829852
 20
6.057157865640162
 30
0.0
 11
5.03678140211707
 21
6.057025117251071
 31
0.0
  0
LINE
  5
30C
330
1F
100
AcDbEntity
  8
1
  6
Continuous
 62
     4
370
    18
100
AcDbLine
 10
5.01164101218132
 20
5.836568112101733
 30
0.0
 11
5.01164101218132
 21
6.057157865640162
 31
0.0
  0
LINE
  5
30D
330
1F
100
AcDbEntity
  8
1
  6
Continuous
 62
    95
370
    13
100
AcDbLine
 10
5.003049870020795
 20
6.64492730294658
 30
0.0
 11
4.473893764575874
 21
6.644927302946414
 31
0.0
  0
LINE
  5
30E
330
1F
100
AcDbEntity
  8
1
  6
Continuous
 62
     4
370
    13
100
AcDbLine
 10
4.890971817298346
 20
3.721659417738329
 30
0.0
 11
4.89097205055167
 21
3.72158009486244
 31
0.0
  0
LINE
  5
30F
330
1F
100
AcDbEntity
  8
1
  6
Continuous
 62
     4
370
    13
100
AcDbLine
 10
4.585971584044997
 20
3.72158009486244
 30
0.0
 11
4.585971817298347
 21
3.721659417738329
 31
0.0
  0
LINE
  5
310
330
1F
100
AcDbEntity
  8
1
  6
Continuous
 62
    95
370
    13
100
AcDbLine
 10
4.887472245073257
 20
3.648412369656714
 30
0.0
 11
4.887473157734977
 21
3.648450422675797
 31
0.0
  0
LINE
  5
311
330
1F
100
AcDbEntity
  8
1
  6
Continuous
 62
    95
370
    13
100
AcDbLine
 10
4.607471411048339
 20
3.64630685156899
 30
0.0
 11
4.607474583631026
 21
3.646338358382473
 31
0.0
  0
LINE
  5
312
330
1F
100
AcDbEntity
  8
1
  6
Continuous
 62
    95
370
    13
100
AcDbLine
 10
4.869469534290961
 20
3.646338358382473
 30
0.0
 11
4.86947222354833
 21
3.64630685156899
 31
0.0
  0
ARC
  5
313
330
1F
100
AcDbEntity
  8
1
  6
Continuous
 62
     3
370
    13
100
AcDbCircle
 10
7.179099915329573
 20
3.345582843975559
 30
0.0
 40
0.0200000000000014
100
AcDbArc
 50
270.0
 51
358.9999999999969
  0
ARC
  5
314
330
1F
100
AcDbEntity
  8
1
  6
Continuous
 62
     4
370
    18
100
AcDbCircle
 10
7.757962216380438
 20
3.667376824327017
 30
0.0
 40
0.0300000000000005
100
AcDbArc
 50
270.0
 51
0.0
  0
ARC
  5
315
330
1F
100
AcDbEntity
  8
1
  6
Continuous
 62
     4
370
    13
100
AcDbCircle
 10
7.819094950278662
 20
3.799686798918592
 30
0.0
 40
0.03
100
AcDbArc
 50
0.0
 51
89.00000000000003
  0
ARC
  5
316
330
1F
100
AcDbEntity
  8
1
  6
Continuous
 62
     3
370
    18
100
AcDbCircle
 10
6.820199531846526
 20
3.282799034996643
 30
0.0
 40
0.0040000000000001
100
AcDbArc
 50
237.9999999999945
 51
0.0
  0
ARC
  5
317
330
1F
100
AcDbEntity
  8
1
  6
Continuous
 62
     7
370
    18
100
AcDbCircle
 10
4.216898198042412
 20
3.141619732950901
 30
0.0
 40
0.03
100
AcDbArc
 50
127.3862783840587
 51
127.3977618734772
  0
ARC
  5
318
330
1F
100
AcDbEntity
  8
1
  6
Continuous
 62
     3
370
    18
100
AcDbCircle
 10
4.994983912512564
 20
6.627141825024597
 30
0.0
 40
0.042
100
AcDbArc
 50
1.00000000000301
 51
90.0
  0
ARC
  5
319
330
1F
100
AcDbEntity
  8
1
  6
Continuous
 62
     3
370
    18
100
AcDbCircle
 10
5.043551891423412
 20
6.251141825024598
 30
0.0
 40
0.01
100
AcDbArc
 50
0.9999999999997088
 51
90.0
  0
ARC
  5
31A
330
1F
100
AcDbEntity
  8
1
  6
Continuous
 62
     4
370
    18
100
AcDbCircle
 10
4.493471817298332
 20
5.863305073544155
 30
0.0
 40
0.0275994360143981
100
AcDbArc
 50
0.9999999999991047
 51
179.0
  0
ARC
  5
31B
330
1F
100
AcDbEntity
  8
1
  6
Continuous
 62
     4
370
    18
100
AcDbCircle
 10
4.913471817298332
 20
5.863305073544155
 30
0.0
 40
0.0275994360143981
100
AcDbArc
 50
0.999999999998668
 51
179.0
  0
ARC
  5
31C
330
1F
100
AcDbEntity
  8
1
  6
Continuous
 62
     4
370
    18
100
AcDbCircle
 10
4.843471817298332
 20
5.863305073544155
 30
0.0
 40
0.0275994360143981
100
AcDbArc
 50
0.999999999998668
 51
179.0
  0
ARC
  5
31D
330
1F
100
AcDbEntity
  8
1
  6
Continuous
 62
     4
370
    18
100
AcDbCircle
 10
4.773471817298331
 20
5.863305073544155
 30
0.0
 40
0.0275994360143981
100
AcDbArc
 50
0.9999999999986657
 51
179.0
  0
ARC
  5
31E
330
1F
100
AcDbEntity
  8
1
  6
Continuous
 62
     4
370
    18
100
AcDbCircle
 10
4.703471817298332
 20
5.863305073544155
 30
0.0
 40
0.0275994360143981
100
AcDbArc
 50
0.999999999998668
 51
179.0
  0
ARC
  5
31F
330
1F
100
AcDbEntity
  8
1
  6
Continuous
 62
     4
370
    18
100
AcDbCircle
 10
4.633471817298332
 20
5.863305073544155
 30
0.0
 40
0.0275994360143981
100
AcDbArc
 50
0.9999999999986657
 51
179.0
  0
ARC
  5
320
330
1F
100
AcDbEntity
  8
1
  6
Continuous
 62
     4
370
    18
100
AcDbCircle
 10
4.563471817298331
 20
5.863305073544155
 30
0.0
 40
0.0275994360143981
100
AcDbArc
 50
0.999999999998667
 51
179.0
  0
ARC
  5
321
330
1F
100
AcDbEntity
  8
1
  6
Continuous
 62
     4
370
    18
100
AcDbCircle
 10
4.528471817309519
 20
5.837855588122632
 30
0.0
 40
0.00695107856408
100
AcDbArc
 50
181.0000000000008
 51
359.0000000492254
  0
ARC
  5
322
330
1F
100
AcDbEntity
  8
1
  6
Continuous
 62
     4
370
    18
100
AcDbCircle
 10
4.470146123736945
 20
6.612037243456752
 30
0.0
 40
0.03
100
AcDbArc
 50
90.0
 51
179.4999999999991
  0
ARC
  5
323
330
1F
100
AcDbEntity
  8
1
  6
Continuous
 62
     4
370
    18
100
AcDbCircle
 10
4.598471817309519
 20
5.837855588122632
 30
0.0
 40
0.00695107856408
100
AcDbArc
 50
181.0000000000008
 51
359.0000000492254
  0
ARC
  5
324
330
1F
100
AcDbEntity
  8
1
  6
Continuous
 62
     4
370
    18
100
AcDbCircle
 10
4.878471817309519
 20
5.837855588122632
 30
0.0
 40
0.00695107856408
100
AcDbArc
 50
181.0000000000008
 51
359.0000000492254
  0
ARC
  5
325
330
1F
100
AcDbEntity
  8
1
  6
Continuous
 62
     4
370
    18
100
AcDbCircle
 10
4.668471817309519
 20
5.837855588122632
 30
0.0
 40
0.00695107856408
100
AcDbArc
 50
181.0000000000008
 51
359.0000000492254
  0
ARC
  5
326
330
1F
100
AcDbEntity
  8
1
  6
Continuous
 62
     4
370
    18
100
AcDbCircle
 10
4.738471817309519
 20
5.837855588122632
 30
0.0
 40
0.00695107856408
100
AcDbArc
 50
181.0000000000008
 51
359.0000000492254
  0
ARC
  5
327
330
1F
100
AcDbEntity
  8
1
  6
Continuous
 62
     4
370
    18
100
AcDbCircle
 10
5.006797510859718
 20
6.612037243456752
 30
0.0
 40
0.03
100
AcDbArc
 50
0.5000000000003761
 51
90.0
  0
ARC
  5
328
330
1F
100
AcDbEntity
  8
1
  6
Continuous
 62
     4
370
    18
100
AcDbCircle
 10
4.983471817298331
 20
5.863305073544155
 30
0.0
 40
0.0275994360143981
100
AcDbArc
 50
0.999999999998668
 51
179.0
  0
ARC
  5
329
330
1F
100
AcDbEntity
  8
1
  6
Continuous
 62
     3
370
    18
100
AcDbCircle
 10
4.481959722084137
 20
6.627141825024599
 30
0.0
 40
0.042
100
AcDbArc
 50
90.00000000004403
 51
178.9999999999996
  0
ARC
  5
32A
330
1F
100
AcDbEntity
  8
1
  6
Continuous
 62
     3
370
    18
100
AcDbCircle
 10
4.431426348647047
 20
6.253141825024599
 30
0.0
 40
0.008
100
AcDbArc
 50
90.0
 51
179.0000000000001
  0
ARC
  5
32B
330
1F
100
AcDbEntity
  8
1
  6
Continuous
 62
     4
370
    18
100
AcDbCircle
 10
4.458471817309519
 20
5.837855588122632
 30
0.0
 40
0.00695107856408
100
AcDbArc
 50
349.3260629328903
 51
359.0000000492254
  0
ARC
  5
32C
330
1F
100
AcDbEntity
  8
1
  6
Continuous
 62
     4
370
    18
100
AcDbCircle
 10
4.808471817309519
 20
5.837855588122632
 30
0.0
 40
0.00695107856408
100
AcDbArc
 50
181.0000000000008
 51
359.0000000492254
  0
ARC
  5
32D
330
1F
100
AcDbEntity
  8
1
  6
Continuous
 62
     4
370
    18
100
AcDbCircle
 10
5.018471817309533
 20
5.837855588122632
 30
0.0
 40
0.00695107856408
100
AcDbArc
 50
180.9999999999988
 51
190.6739360707251
  0
ARC
  5
32E
330
1F
100
AcDbEntity
  8
1
  6
Continuous
 62
     4
370
    18
100
AcDbCircle
 10
4.948471817309519
 20
5.837855588122632
 30
0.0
 40
0.00695107856408
100
AcDbArc
 50
181.0000000000008
 51
359.0000000492253
  0
ELLIPSE
  5
32F
330
1F
100
AcDbEntity
  8
1
  6
Continuous
 62
     4
370
    18
100
AcDbEllipse
 10
7.819094950278663
 20
3.799686798918593
 30
0.0
 11
-0.0005235721931185
 21
-0.0299954308546918
 31
0.0
210
0.0
220
0.0
230
1.0
 40
0.0087252065059467
 41
1.570948625839794
 42
3.141592653589793
  0
ELLIPSE
  5
330
330
1F
100
AcDbEntity
  8
1
  6
Continuous
 62
     4
370
    18
100
AcDbEllipse
 10
7.380953776397118
 20
3.799644298394964
 30
0.0
 11
0.0
 21
0.03
 31
0.0
210
0.0
220
0.0
230
1.0
 40
0.008726535498376
 41
4.712388980384689
 42
5.834990129556324
  0
ELLIPSE
  5
331
330
1F
100
AcDbEntity
  8
1
  6
Continuous
 62
     4
370
    13
100
AcDbEllipse
 10
7.263863427213757
 20
3.809376824326879
 30
0.0
 11
0.0
 21
0.0300000000028271
 31
0.0
210
0.0
220
0.0
230
1.0
 40
0.0087268677915241
 41
4.712388980384689
 42
5.289553863809135
  0
ELLIPSE
  5
332
330
1F
100
AcDbEntity
  8
1
  6
Continuous
 62
     4
370
    13
100
AcDbEllipse
 10
7.26395377639712
 20
3.799644298394965
 30
0.0
 11
0.0
 21
-0.03
 31
0.0
210
0.0
220
0.0
230
1.0
 40
0.008726535498376
 41
1.570796326794896
 42
2.626136173912746
  0
ELLIPSE
  5
333
330
1F
100
AcDbEntity
  8
1
  6
Continuous
 62
     3
370
    13
100
AcDbEllipse
 10
4.543695871838388
 20
3.651145730746991
 30
0.0
 11
0.010000000000008
 21
0.0
 31
0.0
210
0.0
220
0.0
230
1.0
 40
0.0874886635259592
 41
0.0349065850404922
 42
1.570796326794896
  0
ELLIPSE
  5
334
330
1F
100
AcDbEntity
  8
1
  6
Continuous
 62
     3
370
    13
100
AcDbEllipse
 10
4.543695871838399
 20
3.742972654609143
 30
0.0
 11
0.0099999999999936
 21
0.0
 31
0.0
210
0.0
220
0.0
230
1.0
 40
0.0874886635259352
 41
4.712388980384689
 42
6.248278722139933
  0
ELLIPSE
  5
335
330
1F
100
AcDbEntity
  8
1
  6
Continuous
 62
     3
370
    13
100
AcDbEllipse
 10
4.570457148920449
 20
3.646771297570692
 30
0.0
 11
0.014999999999996
 21
0.0
 31
0.0
210
0.0
220
0.0
230
1.0
 40
0.0874886635259641
 41
3.176499238629453
 42
4.712388980384689
  0
ELLIPSE
  5
336
330
1F
100
AcDbEntity
  8
1
  6
Continuous
 62
     3
370
    13
100
AcDbEllipse
 10
4.570457148920458
 20
3.74734708778544
 30
0.0
 11
0.0150000000000089
 21
0.0
 31
0.0
210
0.0
220
0.0
230
0.9999999999999998
 40
0.0874886635259284
 41
1.570796326794896
 42
3.106686068549527
  0
ELLIPSE
  5
337
330
1F
100
AcDbEntity
  8
1
  6
Continuous
 62
     3
370
    13
100
AcDbEllipse
 10
4.933247762758305
 20
3.651145730746991
 30
0.0
 11
0.0100000000000076
 21
0.0
 31
0.0
210
0.0
220
0.0
230
1.0
 40
0.0874886635259574
 41
1.570796326794896
 42
3.106686068549348
  0
ELLIPSE
  5
338
330
1F
100
AcDbEntity
  8
1
  6
Continuous
 62
     3
370
    13
100
AcDbEllipse
 10
4.933247762758294
 20
3.742972654609143
 30
0.0
 11
0.0099999999999936
 21
0.0
 31
0.0
210
0.0
220
0.0
230
1.0
 40
0.0874886635259352
 41
3.176499238629445
 42
4.712388980384689
  0
ELLIPSE
  5
339
330
1F
100
AcDbEntity
  8
1
  6
Continuous
 62
     3
370
    13
100
AcDbEllipse
 10
4.960695871838394
 20
3.651145730746992
 30
0.0
 11
0.0099999999999985
 21
0.0
 31
0.0
210
0.0
220
0.0
230
1.0
 40
0.0874886635259697
 41
0.0349065850399036
 42
1.570796326794896
  0
ELLIPSE
  5
33A
330
1F
100
AcDbEntity
  8
1
  6
Continuous
 62
     3
370
    13
100
AcDbEllipse
 10
4.960695871838402
 20
3.742972654609142
 30
0.0
 11
0.0099999999999864
 21
0.0
 31
0.0
210
0.0
220
0.0
230
0.9999999999999998
 40
0.0874886635259281
 41
4.712388980384689
 42
6.248278722140565
  0
ELLIPSE
  5
33B
330
1F
100
AcDbEntity
  8
1
  6
Continuous
 62
     3
370
    13
100
AcDbEllipse
 10
4.906486485676243
 20
3.646771297570692
 30
0.0
 11
0.0149999999999956
 21
0.0
 31
0.0
210
0.0
220
0.0
230
0.9999999999999998
 40
0.0874886635259596
 41
4.712388980384689
 42
6.248278722140005
  0
ELLIPSE
  5
33C
330
1F
100
AcDbEntity
  8
1
  6
Continuous
 62
     3
370
    13
100
AcDbEllipse
 10
4.906486485676234
 20
3.74734708778544
 30
0.0
 11
0.0150000000000089
 21
0.0
 31
0.0
210
0.0
220
0.0
230
1.0
 40
0.0874886635259284
 41
0.0349065850402665
 42
1.570796326794896
  0
ELLIPSE
  5
33D
330
1F
100
AcDbEntity
  8
1
  6
Continuous
 62
     3
370
    13
100
AcDbEllipse
 10
4.98026187805777
 20
3.386952398125679
 30
0.0
 11
0.0005911589500062
 21
0.0338520013814103
 31
0.0
210
0.0
220
0.0
230
1.0
 40
0.0174497451120385
 41
3.1593506711476
 42
4.712693706020584
  0
ELLIPSE
  5
33E
330
1F
100
AcDbEntity
  8
1
  6
Continuous
 62
     3
370
    18
100
AcDbEllipse
 10
4.501985742990132
 20
3.262254209923769
 30
0.0
 11
-0.0000698521680772
 21
0.0039999998142975
 31
0.0
210
0.0
220
0.0
230
1.0
 40
0.0174497451120119
 41
1.570491601161287
 42
3.699793288590217
  0
ELLIPSE
  5
33F
330
1F
100
AcDbEntity
  8
1
  6
Continuous
 62
     3
370
    13
100
AcDbEllipse
 10
4.848471817298342
 20
4.017174564638592
 30
0.0
 11
0.0299999999999949
 21
0.0
 31
0.0
210
0.0
220
0.0
230
0.9999999999999998
 40
0.2679491924311245
 41
1.570796326794896
 42
3.141592653589793
  0
ELLIPSE
  5
340
330
1F
100
AcDbEntity
  8
1
  6
Continuous
 62
    95
370
    13
100
AcDbEllipse
 10
4.612971817298339
 20
3.636613489228636
 30
0.0
 11
0.003
 21
0.0
 31
0.0
210
0.0
220
0.0
230
1.0
 40
0.9961946980917458
 41
1.570796326794896
 42
3.141592653589774
  0
ELLIPSE
  5
341
330
1F
100
AcDbEntity
  8
1
  6
Continuous
 62
    95
370
    13
100
AcDbEllipse
 10
4.612971817298338
 20
3.630250216541225
 30
0.0
 11
0.003
 21
0.0
 31
0.0
210
0.0
220
0.0
230
1.0
 40
0.0871557427485886
 41
1.570796326794896
 42
3.141592653589899
  0
ELLIPSE
  5
342
330
1F
100
AcDbEntity
  8
1
  6
Continuous
 62
    95
370
    13
100
AcDbEllipse
 10
4.585971817298339
 20
3.643293047334935
 30
0.0
 11
0.0
 21
0.003013804234055
 31
0.0
210
0.0
220
0.0
230
0.9999999999999998
 40
0.9954196646555832
 41
4.712388980384689
 42
6.283185307179586
  0
ELLIPSE
  5
343
330
1F
100
AcDbEntity
  8
1
  6
Continuous
 62
    95
370
    13
100
AcDbEllipse
 10
4.585971817298339
 20
3.630250216541228
 30
0.0
 11
-0.003
 21
0.0
 31
0.0
210
0.0
220
0.0
230
1.0
 40
0.0871557427476771
 41
3.141592653589793
 42
4.712388980384689
  0
ELLIPSE
  5
344
330
1F
100
AcDbEntity
  8
1
  6
Continuous
 62
    95
370
    13
100
AcDbEllipse
 10
4.585971817298339
 20
3.636613489228636
 30
0.0
 11
-0.003
 21
0.0
 31
0.0
210
0.0
220
0.0
230
1.0
 40
0.9961946980916719
 41
3.141592653589774
 42
4.712388980384689
  0
ELLIPSE
  5
345
330
1F
100
AcDbEntity
  8
1
  6
Continuous
 62
    95
370
    13
100
AcDbEllipse
 10
4.89097181729833
 20
3.643293047334935
 30
0.0
 11
0.0
 21
0.003013804234054
 31
0.0
210
0.0
220
0.0
230
1.0
 40
0.9954196646555622
 41
0.0
 42
1.570796326794896
  0
ELLIPSE
  5
346
330
1F
100
AcDbEntity
  8
1
  6
Continuous
 62
    95
370
    13
100
AcDbEllipse
 10
4.89097181729833
 20
3.636613489228636
 30
0.0
 11
0.003
 21
0.0
 31
0.0
210
0.0
220
0.0
230
1.0
 40
0.9961946980917458
 41
1.570796326794896
 42
3.141592653589774
  0
ELLIPSE
  5
347
330
1F
100
AcDbEntity
  8
1
  6
Continuous
 62
    95
370
    13
100
AcDbEllipse
 10
4.890971817298329
 20
3.630250216541225
 30
0.0
 11
0.003
 21
0.0
 31
0.0
210
0.0
220
0.0
230
1.0
 40
0.0871557427485886
 41
1.570796326794896
 42
3.141592653589899
  0
ELLIPSE
  5
348
330
1F
100
AcDbEntity
  8
1
  6
Continuous
 62
    95
370
    13
100
AcDbEllipse
 10
4.863971817298331
 20
3.630250216541228
 30
0.0
 11
-0.003
 21
0.0
 31
0.0
210
0.0
220
0.0
230
1.0
 40
0.0871557427476771
 41
3.141592653589793
 42
4.712388980384689
  0
ELLIPSE
  5
349
330
1F
100
AcDbEntity
  8
1
  6
Continuous
 62
    95
370
    13
100
AcDbEllipse
 10
4.863971817298331
 20
3.636613489228636
 30
0.0
 11
-0.003
 21
0.0
 31
0.0
210
0.0
220
0.0
230
1.0
 40
0.9961946980916719
 41
3.141592653589774
 42
4.712388980384689
  0
ELLIPSE
  5
34A
330
1F
100
AcDbEntity
  8
1
  6
Continuous
 62
     3
370
    13
100
AcDbEllipse
 10
5.02484478421016
 20
3.386952398125617
 30
0.0
 11
0.0
 21
0.0338520029531242
 31
0.0
210
0.0
220
0.0
230
0.9999999999999998
 40
0.0174550649282214
 41
0.0174532925209792
 42
1.570796326794896
  0
ELLIPSE
  5
34B
330
1F
100
AcDbEntity
  8
1
  6
Continuous
 62
     3
370
    13
100
AcDbEllipse
 10
4.496681756538923
 20
3.386952398125648
 30
0.0
 11
-0.0005911589500061
 21
0.0338520013813793
 31
0.0
210
0.0
220
0.0
230
1.0
 40
0.0174497451120411
 41
1.570491601158318
 42
3.123834636031984
  0
ELLIPSE
  5
34C
330
1F
100
AcDbEntity
  8
1
  6
Continuous
 62
     3
370
    13
100
AcDbEllipse
 10
4.452098850386533
 20
3.386952398125631
 30
0.0
 11
0.0
 21
0.0338520029530906
 31
0.0
210
0.0
220
0.0
230
1.0
 40
0.0174550649282161
 41
4.712388980384689
 42
6.265732014659662
  0
ELLIPSE
  5
34D
330
1F
100
AcDbEntity
  8
1
  6
Continuous
 62
     3
370
    13
100
AcDbEllipse
 10
4.516247762758297
 20
3.651145730746992
 30
0.0
 11
0.009999999999998
 21
0.0
 31
0.0
210
0.0
220
0.0
230
1.0
 40
0.0874886635259693
 41
1.570796326794896
 42
3.10668606854993
  0
ELLIPSE
  5
34E
330
1F
100
AcDbEntity
  8
1
  6
Continuous
 62
     3
370
    13
100
AcDbEllipse
 10
4.516247762758301
 20
3.742972654609144
 30
0.0
 11
0.0100000000000041
 21
0.0
 31
0.0
210
0.0
220
0.0
230
1.0
 40
0.0874886635259285
 41
3.17649923863005
 42
4.712388980384689
  0
ELLIPSE
  5
34F
330
1F
100
AcDbEntity
  8
1
  6
Continuous
 62
     3
370
    13
100
AcDbEllipse
 10
4.62847181729835
 20
4.017174564638592
 30
0.0
 11
0.0299999999999949
 21
0.0
 31
0.0
210
0.0
220
0.0
230
0.9999999999999998
 40
0.2679491924311245
 41
0.0
 42
1.570796326794896
  0
ELLIPSE
  5
350
330
1F
100
AcDbEntity
  8
1
  6
Continuous
 62
     3
370
    18
100
AcDbEllipse
 10
4.97495789160656
 20
3.262254209923765
 30
0.0
 11
0.0000698521680771
 21
0.0039999998142927
 31
0.0
210
0.0
220
0.0
230
0.9999999999999998
 40
0.0174497451120221
 41
2.583392018588888
 42
4.712693706019116
  0
ELLIPSE
  5
351
330
1F
100
AcDbEntity
  8
1
  6
Continuous
 62
    95
370
    13
100
AcDbEllipse
 10
5.003040508098411
 20
6.613922580417628
 30
-0.0000000001800705
 11
0.0218310479276797
 21
0.0220223958323079
 31
-0.0000000000003929
210
0.0000000000179961
220
0.0
230
0.9999999999999998
 40
0.9996980702960867
 41
0.0070523587097489
 42
0.7808838713230948
  0
ELLIPSE
  5
352
330
1F
100
AcDbEntity
  8
1
  6
Continuous
 62
     4
370
    18
100
AcDbEllipse
 10
5.006797510859717
 20
6.612037243456755
 30
0.0
 11
0.0299988576919252
 21
0.0002617960649514
 31
0.0
210
0.0
220
0.0
230
1.0
 40
0.0174517421055195
 41
0.0
 42
1.57064402775
  0
ELLIPSE
  5
353
330
1F
100
AcDbEntity
  8
1
  6
Continuous
 62
    95
370
    13
100
AcDbEllipse
 10
4.474835583278723
 20
6.612962551846579
 30
-0.0000000000140935
 11
0.0219269698999718
 21
-0.0219270068229658
 31
-0.0000000000000345
210
0.0000000000015748
220
0.0
230
1.0
 40
0.9996954372126493
 41
2.356347636731138
 42
2.839567099626145
  0
ELLIPSE
  5
354
330
1F
100
AcDbEntity
  8
1
  6
Continuous
 62
     4
370
    18
100
AcDbEllipse
 10
4.470146123736946
 20
6.612037243456753
 30
0.0
 11
-0.0299988576919252
 21
0.0002617960649517
 31
0.0
210
0.0
220
0.0
230
1.0
 40
0.0174517421055195
 41
4.712541279429586
 42
6.28318530718001
  0
ELLIPSE
  5
355
330
1F
100
AcDbEntity
  8
1
  6
Continuous
 62
    95
370
    13
100
AcDbEllipse
 10
5.002108051317944
 20
6.612962551846578
 30
0.0000000000157542
 11
-0.0219269698999718
 21
-0.0219270068229658
 31
-0.0000000000000345
210
-0.0000000000015748
220
0.0
230
1.0
 40
0.9996954372126493
 41
3.443618207553441
 42
3.926837670448448
  0
ELLIPSE
  5
356
330
1F
100
AcDbEntity
  8
1
  6
Continuous
 62
    95
370
    13
100
AcDbEllipse
 10
4.473903126498425
 20
6.613922580417465
 30
-0.0000000001610257
 11
0.0218310479048263
 21
-0.0220223958549357
 31
-0.0000000000003929
210
0.0000000000179961
220
0.0
230
1.0
 40
0.9996980702967073
 41
2.360708783309565
 42
3.134540295917313
  0
ELLIPSE
  5
357
330
1F
100
AcDbEntity
  8
1
  6
Continuous
 62
    95
370
    13
100
AcDbEllipse
 10
4.474854849822121
 20
6.612962515291485
 30
0.0
 11
0.0218310479048263
 21
-0.0220223958549357
 31
-0.0000000000003929
210
0.0000000000179961
220
0.0
230
1.0
 40
0.9996980702967073
 41
2.360708794797469
 42
2.361332848623575
  0
POLYLINE
  5
358
330
1F
100
AcDbEntity
  8
1
  6
Continuous
 62
     4
370
    18
100
AcDb2dPolyline
 66
     1
 10
0.0
 20
0.0
 30
0.0
  0
VERTEX
  5
359
330
358
100
AcDbEntity
  8
1
  6
Continuous
 62
     4
370
    18
100
AcDbVertex
100
AcDb2dVertex
 10
7.264082824072982
 20
3.825746332379506
 30
0.0
  0
VERTEX
  5
35A
330
358
100
AcDbEntity
  8
1
  6
Continuous
 62
     4
370
    18
100
AcDbVertex
100
AcDb2dVertex
 10
7.264183814287144
 20
3.825745541200048
 30
0.0
  0
VERTEX
  5
35B
330
358
100
AcDbEntity
  8
1
  6
Continuous
 62
     4
370
    18
100
AcDbVertex
100
AcDb2dVertex
 10
7.264263163740297
 20
3.825744919471674
 30
0.0
  0
SEQEND
  5
35C
330
358
100
AcDbEntity
  8
1
  6
Continuous
 62
     4
370
    18
  0
POLYLINE
  5
35D
330
1F
100
AcDbEntity
  8
1
  6
Continuous
 62
     4
370
    18
100
AcDb2dPolyline
 66
     1
 10
0.0
 20
0.0
 30
0.0
  0
VERTEX
  5
35E
330
35D
100
AcDbEntity
  8
1
  6
Continuous
 62
     4
370
    18
100
AcDbVertex
100
AcDb2dVertex
 10
7.264263163740297
 20
3.825744919471674
 30
0.0
  0
VERTEX
  5
35F
330
35D
100
AcDbEntity
  8
1
  6
Continuous
 62
     4
370
    18
100
AcDbVertex
100
AcDb2dVertex
 10
7.313355045413051
 20
3.82626008111454
 30
0.0
  0
VERTEX
  5
360
330
35D
100
AcDbEntity
  8
1
  6
Continuous
 62
     4
370
    18
100
AcDbVertex
100
AcDb2dVertex
 10
7.351924242041541
 20
3.826681218522113
 30
0.0
  0
SEQEND
  5
361
330
35D
100
AcDbEntity
  8
1
  6
Continuous
 62
     4
370
    18
  0
POLYLINE
  5
362
330
1F
100
AcDbEntity
  8
1
  6
Continuous
 62
     4
370
    18
100
AcDb2dPolyline
 66
     1
 10
0.0
 20
0.0
 30
0.0
  0
VERTEX
  5
363
330
362
100
AcDbEntity
  8
1
  6
Continuous
 62
     4
370
    18
100
AcDbVertex
100
AcDb2dVertex
 10
7.264263163740297
 20
3.825744919471674
 30
0.0
  0
VERTEX
  5
364
330
362
100
AcDbEntity
  8
1
  6
Continuous
 62
     4
370
    18
100
AcDbVertex
100
AcDb2dVertex
 10
7.264254462367858
 20
3.838452118338167
 30
0.0
  0
VERTEX
  5
365
330
362
100
AcDbEntity
  8
1
  6
Continuous
 62
     4
370
    18
100
AcDbVertex
100
AcDb2dVertex
 10
7.264227115310184
 20
3.839317972505556
 30
0.0
  0
VERTEX
  5
366
330
362
100
AcDbEntity
  8
1
  6
Continuous
 62
     4
370
    18
100
AcDbVertex
100
AcDb2dVertex
 10
7.264218579672971
 20
3.839373092148404
 30
0.0
  0
VERTEX
  5
367
330
362
100
AcDbEntity
  8
1
  6
Continuous
 62
     4
370
    18
100
AcDbVertex
100
AcDb2dVertex
 10
7.26421709109456
 20
3.839375877312254
 30
0.0
  0
VERTEX
  5
368
330
362
100
AcDbEntity
  8
1
  6
Continuous
 62
     4
370
    18
100
AcDbVertex
100
AcDb2dVertex
 10
7.264215583673953
 20
3.839376824131322
 30
0.0
  0
SEQEND
  5
369
330
362
100
AcDbEntity
  8
1
  6
Continuous
 62
     4
370
    18
  0
POLYLINE
  5
36A
330
1F
100
AcDbEntity
  8
1
  6
Continuous
 62
     4
370
    13
100
AcDb2dPolyline
 66
     1
 10
0.0
 20
0.0
 30
0.0
  0
VERTEX
  5
36B
330
36A
100
AcDbEntity
  8
1
  6
Continuous
 62
     4
370
    13
100
AcDbVertex
100
AcDb2dVertex
 10
7.043625818923644
 20
3.839376824327026
 30
0.0
  0
VERTEX
  5
36C
330
36A
100
AcDbEntity
  8
1
  6
Continuous
 62
     4
370
    13
100
AcDbVertex
100
AcDb2dVertex
 10
7.038366198987315
 20
3.839037980055763
 30
0.0
  0
VERTEX
  5
36D
330
36A
100
AcDbEntity
  8
1
  6
Continuous
 62
     4
370
    13
100
AcDbVertex
100
AcDb2dVertex
 10
7.038063774200765
 20
3.838839652806588
 30
0.0
  0
VERTEX
  5
36E
330
36A
100
AcDbEntity
  8
1
  6
Continuous
 62
     4
370
    13
100
AcDbVertex
100
AcDb2dVertex
 10
7.037962216380463
 20
3.838588809903162
 30
0.0
  0
SEQEND
  5
36F
330
36A
100
AcDbEntity
  8
1
  6
Continuous
 62
     4
370
    13
  0
POLYLINE
  5
370
330
1F
100
AcDbEntity
  8
1
  6
Continuous
 62
     4
370
    13
100
AcDb2dPolyline
 66
     1
 10
0.0
 20
0.0
 30
0.0
  0
VERTEX
  5
371
330
370
100
AcDbEntity
  8
1
  6
Continuous
 62
     4
370
    13
100
AcDbVertex
100
AcDb2dVertex
 10
4.888469571497467
 20
3.65658009486244
 30
0.0
  0
VERTEX
  5
372
330
370
100
AcDbEntity
  8
1
  6
Continuous
 62
     4
370
    13
100
AcDbVertex
100
AcDb2dVertex
 10
4.888469299919871
 20
3.656578012283054
 30
0.0
  0
VERTEX
  5
373
330
370
100
AcDbEntity
  8
1
  6
Continuous
 62
     4
370
    13
100
AcDbVertex
100
AcDb2dVertex
 10
4.888468098535337
 20
3.656576376099443
 30
0.0
  0
SEQEND
  5
374
330
370
100
AcDbEntity
  8
1
  6
Continuous
 62
     4
370
    13
  0
POLYLINE
  5
375
330
1F
100
AcDbEntity
  8
1
  6
Continuous
 62
     4
370
    13
100
AcDb2dPolyline
 66
     1
 10
0.0
 20
0.0
 30
0.0
  0
VERTEX
  5
376
330
375
100
AcDbEntity
  8
1
  6
Continuous
 62
     4
370
    13
100
AcDbVertex
100
AcDb2dVertex
 10
4.58847553606133
 20
3.656576376099443
 30
0.0
  0
VERTEX
  5
377
330
375
100
AcDbEntity
  8
1
  6
Continuous
 62
     4
370
    13
100
AcDbVertex
100
AcDb2dVertex
 10
4.588474157916451
 20
3.65657845854696
 30
0.0
  0
VERTEX
  5
378
330
375
100
AcDbEntity
  8
1
  6
Continuous
 62
     4
370
    13
100
AcDbVertex
100
AcDb2dVertex
 10
4.588474063099199
 20
3.65658009486244
 30
0.0
  0
SEQEND
  5
379
330
375
100
AcDbEntity
  8
1
  6
Continuous
 62
     4
370
    13
  0
POLYLINE
  5
37A
330
1F
100
AcDbEntity
  8
1
  6
Continuous
 62
     4
370
    18
100
AcDb2dPolyline
 66
     1
 10
0.0
 20
0.0
 30
0.0
  0
VERTEX
  5
37B
330
37A
100
AcDbEntity
  8
1
  6
Continuous
 62
     4
370
    18
100
AcDbVertex
100
AcDb2dVertex
 10
4.439804562975461
 20
6.057203694360701
 30
0.0
  0
VERTEX
  5
37C
330
37A
100
AcDbEntity
  8
1
  6
Continuous
 62
     4
370
    18
100
AcDbVertex
100
AcDb2dVertex
 10
4.440697892772027
 20
6.084666318055336
 30
0.0
  0
VERTEX
  5
37D
330
37A
100
AcDbEntity
  8
1
  6
Continuous
 62
     4
370
    18
100
AcDbVertex
100
AcDb2dVertex
 10
4.441433964308957
 20
6.106243151749442
 30
0.0
  0
SEQEND
  5
37E
330
37A
100
AcDbEntity
  8
1
  6
Continuous
 62
     4
370
    18
  0
POLYLINE
  5
37F
330
1F
100
AcDbEntity
  8
1
  6
Continuous
 62
     4
370
    18
100
AcDb2dPolyline
 66
     1
 10
0.0
 20
0.0
 30
0.0
  0
VERTEX
  5
380
330
37F
100
AcDbEntity
  8
1
  6
Continuous
 62
     4
370
    18
100
AcDbVertex
100
AcDb2dVertex
 10
5.036781402117082
 20
6.057025117251072
 30
0.0
  0
VERTEX
  5
381
330
37F
100
AcDbEntity
  8
1
  6
Continuous
 62
     4
370
    18
100
AcDbVertex
100
AcDb2dVertex
 10
5.036781917255149
 20
6.057126107465235
 30
0.0
  0
VERTEX
  5
382
330
37F
100
AcDbEntity
  8
1
  6
Continuous
 62
     4
370
    18
100
AcDbVertex
100
AcDb2dVertex
 10
5.036782322038519
 20
6.057205456918387
 30
0.0
  0
SEQEND
  5
383
330
37F
100
AcDbEntity
  8
1
  6
Continuous
 62
     4
370
    18
  0
POLYLINE
  5
384
330
1F
100
AcDbEntity
  8
1
  6
Continuous
 62
     4
370
    18
100
AcDb2dPolyline
 66
     1
 10
0.0
 20
0.0
 30
0.0
  0
VERTEX
  5
385
330
384
100
AcDbEntity
  8
1
  6
Continuous
 62
     4
370
    18
100
AcDbVertex
100
AcDb2dVertex
 10
5.036782322038519
 20
6.057205456918387
 30
0.0
  0
VERTEX
  5
386
330
384
100
AcDbEntity
  8
1
  6
Continuous
 62
     4
370
    18
100
AcDbVertex
100
AcDb2dVertex
 10
5.035405381782526
 20
6.106297338591141
 30
0.0
  0
VERTEX
  5
387
330
384
100
AcDbEntity
  8
1
  6
Continuous
 62
     4
370
    18
100
AcDbVertex
100
AcDb2dVertex
 10
5.034226981925746
 20
6.144866535219631
 30
0.0
  0
SEQEND
  5
388
330
384
100
AcDbEntity
  8
1
  6
Continuous
 62
     4
370
    18
  0
POLYLINE
  5
389
330
1F
100
AcDbEntity
  8
1
  6
Continuous
 62
     4
370
    18
100
AcDb2dPolyline
 66
     1
 10
0.0
 20
0.0
 30
0.0
  0
VERTEX
  5
38A
330
389
100
AcDbEntity
  8
1
  6
Continuous
 62
     4
370
    18
100
AcDbVertex
100
AcDb2dVertex
 10
5.036782322038519
 20
6.057205456918387
 30
0.0
  0
VERTEX
  5
38B
330
389
100
AcDbEntity
  8
1
  6
Continuous
 62
     4
370
    18
100
AcDbVertex
100
AcDb2dVertex
 10
5.024342550309452
 20
6.05721342852574
 30
0.0
  0
VERTEX
  5
38C
330
389
100
AcDbEntity
  8
1
  6
Continuous
 62
     4
370
    18
100
AcDbVertex
100
AcDb2dVertex
 10
5.011644438877212
 20
6.057157876852043
 30
0.0
  0
SEQEND
  5
38D
330
389
100
AcDbEntity
  8
1
  6
Continuous
 62
     4
370
    18
  0
POLYLINE
  5
38E
330
1F
100
AcDbEntity
  8
1
  6
Continuous
 62
     4
370
    18
100
AcDb2dPolyline
 66
     1
 10
0.0
 20
0.0
 30
0.0
  0
VERTEX
  5
38F
330
38E
100
AcDbEntity
  8
1
  6
Continuous
 62
     4
370
    18
100
AcDbVertex
100
AcDb2dVertex
 10
4.458471817309519
 20
5.830904509558552
 30
0.0
  0
VERTEX
  5
390
330
38E
100
AcDbEntity
  8
1
  6
Continuous
 62
     4
370
    18
100
AcDbVertex
100
AcDb2dVertex
 10
4.463317148559853
 20
5.832872323981777
 30
0.0
  0
VERTEX
  5
391
330
38E
100
AcDbEntity
  8
1
  6
Continuous
 62
     4
370
    18
100
AcDbVertex
100
AcDb2dVertex
 10
4.465302622415343
 20
5.836568111982944
 30
0.0
  0
SEQEND
  5
392
330
38E
100
AcDbEntity
  8
1
  6
Continuous
 62
     4
370
    18
  0
POLYLINE
  5
393
330
1F
100
AcDbEntity
  8
1
  6
Continuous
 62
     4
370
    18
100
AcDb2dPolyline
 66
     1
 10
0.0
 20
0.0
 30
0.0
  0
VERTEX
  5
394
330
393
100
AcDbEntity
  8
1
  6
Continuous
 62
     4
370
    18
100
AcDbVertex
100
AcDb2dVertex
 10
4.439804562975476
 20
6.0572036943607
 30
0.0
  0
VERTEX
  5
395
330
393
100
AcDbEntity
  8
1
  6
Continuous
 62
     4
370
    18
100
AcDbVertex
100
AcDb2dVertex
 10
4.446661191874973
 20
6.057219684650695
 30
0.0
  0
VERTEX
  5
396
330
393
100
AcDbEntity
  8
1
  6
Continuous
 62
     4
370
    18
100
AcDbVertex
100
AcDb2dVertex
 10
4.452338441599619
 20
6.057213995099877
 30
0.0
  0
VERTEX
  5
397
330
393
100
AcDbEntity
  8
1
  6
Continuous
 62
     4
370
    18
100
AcDbVertex
100
AcDb2dVertex
 10
4.458648343566236
 20
6.057193721942902
 30
0.0
  0
VERTEX
  5
398
330
393
100
AcDbEntity
  8
1
  6
Continuous
 62
     4
370
    18
100
AcDbVertex
100
AcDb2dVertex
 10
4.465299195719451
 20
6.057157876852043
 30
0.0
  0
SEQEND
  5
399
330
393
100
AcDbEntity
  8
1
  6
Continuous
 62
     4
370
    18
  0
POLYLINE
  5
39A
330
1F
100
AcDbEntity
  8
1
  6
Continuous
 62
     4
370
    18
100
AcDb2dPolyline
 66
     1
 10
0.0
 20
0.0
 30
0.0
  0
VERTEX
  5
39B
330
39A
100
AcDbEntity
  8
1
  6
Continuous
 62
     4
370
    18
100
AcDbVertex
100
AcDb2dVertex
 10
5.01164101218132
 20
5.836568112101733
 30
0.0
  0
VERTEX
  5
39C
330
39A
100
AcDbEntity
  8
1
  6
Continuous
 62
     4
370
    18
100
AcDbVertex
100
AcDb2dVertex
 10
5.014515907334039
 20
5.832140653154885
 30
0.0
  0
VERTEX
  5
39D
330
39A
100
AcDbEntity
  8
1
  6
Continuous
 62
     4
370
    18
100
AcDbVertex
100
AcDb2dVertex
 10
5.018471817309533
 20
5.830904509558552
 30
0.0
  0
SEQEND
  5
39E
330
39A
100
AcDbEntity
  8
1
  6
Continuous
 62
     4
370
    18
  0
MTEXT
  5
39F
102
{ACAD_REACTORS
330
3BD
330
3BE
102
}
330
1F
100
AcDbEntity
  8
1
  6
Continuous
 62
     3
370
    18
100
AcDbMText
 10
76.12810233272523
 20
3.221180970616114
 30
0.0
 40
0.093
 41
0.0
 46
0.0
 71
     7
 72
     5
  1
\W1.0000;
  7
blockfont
 73
     2
 44
0.9036144578313253
  0
MTEXT
  5
3A2
102
{ACAD_REACTORS
330
3BD
330
3BE
102
}
330
1F
100
AcDbEntity
  8
1
  6
Continuous
 62
     3
370
    18
100
AcDbMText
 10
40.26787142935307
 20
6.644644568671438
 30
0.0
 40
0.093
 41
0.0
 46
0.0
 71
     7
 72
     5
  1
\W1.0000;
  7
blockfont
 73
     2
 44
0.9036144578313253
  0
MTEXT
  5
3A3
102
{ACAD_REACTORS
330
3BD
330
3BE
102
}
330
1F
100
AcDbEntity
  8
1
  6
Continuous
 62
     3
370
    18
100
AcDbMText
 10
40.26787142935307
 20
6.644644568671438
 30
0.0
 40
0.093
 41
0.0
 46
0.0
 71
     7
 72
     5
  1
\W1.0000;
  7
blockfont
 73
     2
 44
0.9036144578313253
  0
MTEXT
  5
3A4
102
{ACAD_REACTORS
330
3BD
330
3BE
102
}
330
1F
100
AcDbEntity
  8
1
  6
Continuous
 62
     3
370
    18
100
AcDbMText
 10
58.26163437445356
 20
6.597112416219691
 30
0.0
 40
0.093
 41
0.0
 46
0.0
 71
     7
 72
     5
  1
\W1.0000;
  7
blockfont
 73
     2
 44
0.9036144578313253
  0
MTEXT
  5
3A5
102
{ACAD_REACTORS
330
3BD
330
3BE
102
}
330
1F
100
AcDbEntity
  8
1
  6
Continuous
 62
     3
370
    18
100
AcDbMText
 10
76.1281023327248
 20
3.221180970616118
 30
0.0
 40
0.093
 41
0.0
 46
0.0
 71
     7
 72
     5
  1
\W1.0000;
  7
blockfont
 73
     2
 44
0.9036144578313253
  0
MTEXT
  5
3A6
102
{ACAD_REACTORS
330
3BD
330
3BE
102
}
330
1F
100
AcDbEntity
  8
1
  6
Continuous
 62
     3
370
    18
100
AcDbMText
 10
58.26163437445356
 20
6.597112416219691
 30
0.0
 40
0.093
 41
0.0
 46
0.0
 71
     7
 72
     5
  1
\W1.0000;
  7
blockfont
 73
     2
 44
0.9036144578313253
  0
MTEXT
  5
3A7
102
{ACAD_REACTORS
330
3BD
330
3BE
102
}
330
1F
100
AcDbEntity
  8
1
  6
Continuous
 62
     3
370
    18
100
AcDbMText
 10
76.1281023327248
 20
3.221180970616118
 30
0.0
 40
0.093
 41
0.0
 46
0.0
 71
     7
 72
     5
  1
\W1.0000;
  7
blockfont
 73
     2
 44
0.9036144578313253
  0
MTEXT
  5
3A8
102
{ACAD_REACTORS
330
3BD
330
3BE
102
}
330
1F
100
AcDbEntity
  8
1
  6
Continuous
 62
     3
370
    18
100
AcDbMText
 10
31.69461899999999
 20
2.827653749999999
 30
0.0
 40
0.093
 41
0.0
 46
0.0
 71
     7
 72
     5
  1
\W1.0000;
  7
blockfont
 73
     2
 44
0.9036144578313253
  0
MTEXT
  5
3A9
102
{ACAD_REACTORS
330
3BD
330
3BE
102
}
330
1F
100
AcDbEntity
  8
1
  6
Continuous
 62
     3
370
    18
100
AcDbMText
 10
76.12810233272523
 20
3.221180970616114
 30
0.0
 40
0.093
 41
0.0
 46
0.0
 71
     7
 72
     5
  1
\W1.0000;
  7
blockfont
 73
     2
 44
0.9036144578313253
  0
MTEXT
  5
3AA
102
{ACAD_REACTORS
330
3BD
330
3BE
102
}
330
1F
100
AcDbEntity
  8
1
  6
Continuous
 62
     3
370
    18
100
AcDbMText
 10
58.13433938762432
 20
3.268713123067864
 30
0.0
 40
0.093
 41
0.0
 46
0.0
 71
     7
 72
     5
  1
\W1.0000;
  7
blockfont
 73
     2
 44
0.9036144578313253
  0
MTEXT
  5
3AB
102
{ACAD_REACTORS
330
3BD
330
3BE
102
}
330
1F
100
AcDbEntity
  8
1
  6
Continuous
 62
     3
370
    18
100
AcDbMText
 10
58.13433938762474
 20
3.26871312306786
 30
0.0
 40
0.093
 41
0.0
 46
0.0
 71
     7
 72
     5
  1
\W1.0000;
  7
blockfont
 73
     2
 44
0.9036144578313253
  0
MTEXT
  5
3AC
102
{ACAD_REACTORS
330
3BD
330
3BE
102
}
330
1F
100
AcDbEntity
  8
1
  6
Continuous
 62
     3
370
    18
100
AcDbMText
 10
58.13433938762432
 20
3.268713123067864
 30
0.0
 40
0.093
 41
0.0
 46
0.0
 71
     7
 72
     5
  1
\W1.0000;
  7
blockfont
 73
     2
 44
0.9036144578313253
  0
MTEXT
  5
3AD
102
{ACAD_REACTORS
330
3BD
330
3BE
102
}
330
1F
100
AcDbEntity
  8
1
  6
Continuous
 62
     3
370
    18
100
AcDbMText
 10
58.13433938762474
 20
3.26871312306786
 30
0.0
 40
0.093
 41
0.0
 46
0.0
 71
     7
 72
     5
  1
\W1.0000;
  7
blockfont
 73
     2
 44
0.9036144578313253
  0
MTEXT
  5
3AE
102
{ACAD_REACTORS
330
3BD
330
3BE
102
}
330
1F
100
AcDbEntity
  8
1
  6
Continuous
 62
     3
370
    18
100
AcDbMText
 10
31.69461899999999
 20
2.827653749999999
 30
0.0
 40
0.093
 41
0.0
 46
0.0
 71
     7
 72
     5
  1
\W1.0000;
  7
blockfont
 73
     2
 44
0.9036144578313253
  0
MTEXT
  5
3AF
102
{ACAD_REACTORS
330
3BD
102
}
330
1F
100
AcDbEntity
  8
1
  6
Continuous
 62
     3
370
    18
100
AcDbMText
 10
40.26787142935307
 20
6.644644568671438
 30
0.0
 40
0.093
 41
0.0
 46
0.0
 71
     7
 72
     5
  1
\W1.0000;
  7
blockfont
 73
     2
 44
0.9036144578313253
  0
MTEXT
  5
3B0
102
{ACAD_REACTORS
330
3BD
102
}
330
1F
100
AcDbEntity
  8
1
  6
Continuous
 62
     3
370
    18
100
AcDbMText
 10
58.26163437445356
 20
6.597112416219691
 30
0.0
 40
0.093
 41
0.0
 46
0.0
 71
     7
 72
     5
  1
\W1.0000;
  7
blockfont
 73
     2
 44
0.9036144578313253
  0
MTEXT
  5
3B1
102
{ACAD_REACTORS
330
3BD
102
}
330
1F
100
AcDbEntity
  8
1
  6
Continuous
 62
     3
370
    18
100
AcDbMText
 10
76.12810233272523
 20
3.221180970616114
 30
0.0
 40
0.093
 41
0.0
 46
0.0
 71
     7
 72
     5
  1
\W1.0000;
  7
blockfont
 73
     2
 44
0.9036144578313253
  0
MTEXT
  5
3B2
102
{ACAD_REACTORS
330
3BD
102
}
330
1F
100
AcDbEntity
  8
1
  6
Continuous
 62
     3
370
    18
100
AcDbMText
 10
40.26787142935307
 20
6.644644568671438
 30
0.0
 40
0.093
 41
0.0
 46
0.0
 71
     7
 72
     5
  1
\W1.0000;
  7
blockfont
 73
     2
 44
0.9036144578313253
  0
MTEXT
  5
3B3
102
{ACAD_REACTORS
330
3BD
102
}
330
1F
100
AcDbEntity
  8
1
  6
Continuous
 62
     3
370
    18
100
AcDbMText
 10
76.1281023327248
 20
3.221180970616118
 30
0.0
 40
0.093
 41
0.0
 46
0.0
 71
     7
 72
     5
  1
\W1.0000;
  7
blockfont
 73
     2
 44
0.9036144578313253
  0
MTEXT
  5
3B4
102
{ACAD_REACTORS
330
3BD
102
}
330
1F
100
AcDbEntity
  8
1
  6
Continuous
 62
     3
370
    18
100
AcDbMText
 10
58.26163437445356
 20
6.597112416219691
 30
0.0
 40
0.093
 41
0.0
 46
0.0
 71
     7
 72
     5
  1
\W1.0000;
  7
blockfont
 73
     2
 44
0.9036144578313253
  0
MTEXT
  5
3B5
102
{ACAD_REACTORS
330
3BD
102
}
330
1F
100
AcDbEntity
  8
1
  6
Continuous
 62
     3
370
    18
100
AcDbMText
 10
76.1281023327248
 20
3.221180970616118
 30
0.0
 40
0.093
 41
0.0
 46
0.0
 71
     7
 72
     5
  1
\W1.0000;
  7
blockfont
 73
     2
 44
0.9036144578313253
  0
MTEXT
  5
3B6
102
{ACAD_REACTORS
330
3BD
102
}
330
1F
100
AcDbEntity
  8
1
  6
Continuous
 62
     3
370
    18
100
AcDbMText
 10
31.69461899999999
 20
2.827653749999999
 30
0.0
 40
0.093
 41
0.0
 46
0.0
 71
     7
 72
     5
  1
\W1.0000;
  7
blockfont
 73
     2
 44
0.9036144578313253
  0
MTEXT
  5
3B7
102
{ACAD_REACTORS
330
3BD
102
}
330
1F
100
AcDbEntity
  8
1
  6
Continuous
 62
     3
370
    18
100
AcDbMText
 10
76.12810233272523
 20
3.221180970616114
 30
0.0
 40
0.093
 41
0.0
 46
0.0
 71
     7
 72
     5
  1
\W1.0000;
  7
blockfont
 73
     2
 44
0.9036144578313253
  0
MTEXT
  5
3B8
102
{ACAD_REACTORS
330
3BD
102
}
330
1F
100
AcDbEntity
  8
1
  6
Continuous
 62
     3
370
    18
100
AcDbMText
 10
58.13433938762432
 20
3.268713123067864
 30
0.0
 40
0.093
 41
0.0
 46
0.0
 71
     7
 72
     5
  1
\W1.0000;
  7
blockfont
 73
     2
 44
0.9036144578313253
  0
MTEXT
  5
3B9
102
{ACAD_REACTORS
330
3BD
102
}
330
1F
100
AcDbEntity
  8
1
  6
Continuous
 62
     3
370
    18
100
AcDbMText
 10
58.13433938762474
 20
3.26871312306786
 30
0.0
 40
0.093
 41
0.0
 46
0.0
 71
     7
 72
     5
  1
\W1.0000;
  7
blockfont
 73
     2
 44
0.9036144578313253
  0
MTEXT
  5
3BA
102
{ACAD_REACTORS
330
3BD
102
}
330
1F
100
AcDbEntity
  8
1
  6
Continuous
 62
     3
370
    18
100
AcDbMText
 10
58.13433938762432
 20
3.268713123067864
 30
0.0
 40
0.093
 41
0.0
 46
0.0
 71
     7
 72
     5
  1
\W1.0000;
  7
blockfont
 73
     2
 44
0.9036144578313253
  0
MTEXT
  5
3BB
102
{ACAD_REACTORS
330
3BD
102
}
330
1F
100
AcDbEntity
  8
1
  6
Continuous
 62
     3
370
    18
100
AcDbMText
 10
58.13433938762474
 20
3.26871312306786
 30
0.0
 40
0.093
 41
0.0
 46
0.0
 71
     7
 72
     5
  1
\W1.0000;
  7
blockfont
 73
     2
 44
0.9036144578313253
  0
MTEXT
  5
3BC
102
{ACAD_REACTORS
330
3BD
102
}
330
1F
100
AcDbEntity
  8
1
  6
Continuous
 62
     3
370
    18
100
AcDbMText
 10
31.69461899999999
 20
2.827653749999999
 30
0.0
 40
0.093
 41
0.0
 46
0.0
 71
     7
 72
     5
  1
\W1.0000;
  7
blockfont
 73
     2
 44
0.9036144578313253
  0
ENDSEC
  0
SECTION
  2
OBJECTS
  0
DICTIONARY
  5
C
330
0
100
AcDbDictionary
281
     1
  3
ACAD_CIP_PREVIOUS_PRODUCT_INFO
350
41C
  3
ACAD_COLOR
350
416
  3
ACAD_DETAILVIEWSTYLE
350
413
  3
ACAD_GROUP
350
D
  3
ACAD_LAYOUT
350
1A
  3
ACAD_MATERIAL
350
43
  3
ACAD_MLEADERSTYLE
350
6B
  3
ACAD_MLINESTYLE
350
17
  3
ACAD_PLOTSETTINGS
350
19
  3
ACAD_PLOTSTYLENAME
350
E
  3
ACAD_SCALELIST
350
47
  3
ACAD_SECTIONVIEWSTYLE
350
414
  3
ACAD_TABLESTYLE
350
69
  3
ACAD_VISUALSTYLE
350
2A
  3
ACDB_RECOMPOSE_DATA
350
42D
  3
AcDbVariableDictionary
350
3D0
  0
DICTIONARY
  5
3CE
330
8
100
AcDbDictionary
280
     1
281
     1
  0
SUN
  5
6D
330
29
100
AcDbSun
 90
        1
290
     0
 63
     7
421
 16777215
 40
1.0
291
     1
 91
  2455826
 92
 54000000
292
     0
 70
     0
 71
   256
280
     1
  0
DICTIONARY
  5
41D
330
10
100
AcDbDictionary
280
     1
281
     1
  3
ADSK_XREC_LAYER_RECONCILED
360
41E
  0
DICTIONARY
  5
41F
330
78
100
AcDbDictionary
280
     1
281
     1
  3
ADSK_XREC_LAYER_RECONCILED
360
420
  0
XRECORD
  5
41C
102
{ACAD_REACTORS
330
C
102
}
330
C
100
AcDbXrecord
280
     1
300
ACD
300
2023
300

  0
DICTIONARY
  5
416
102
{ACAD_REACTORS
330
C
102
}
330
C
100
AcDbDictionary
281
     1
  0
DICTIONARY
  5
413
102
{ACAD_REACTORS
330
C
102
}
330
C
100
AcDbDictionary
281
     1
  3
Imperial24
350
418
  0
DICTIONARY
  5
D
102
{ACAD_REACTORS
330
C
102
}
330
C
100
AcDbDictionary
281
     1
  3
%UL=V1.0 PH=Q6JVDYXLVWEM8C
350
3BE
  3
A_SIZE_CUSTOMER_LAND/H
350
3BD
  0
DICTIONARY
  5
1A
102
{ACAD_REACTORS
330
C
102
}
330
C
100
AcDbDictionary
281
     1
  3
Layout1
350
1E
  3
Layout2
350
26
  3
Model
350
22
  0
DICTIONARY
  5
43
102
{ACAD_REACTORS
330
C
102
}
330
C
100
AcDbDictionary
281
     1
  3
ByBlock
350
45
  3
ByLayer
350
44
  3
Global
350
46
  0
DICTIONARY
  5
6B
102
{ACAD_REACTORS
330
C
102
}
330
C
100
AcDbDictionary
281
     1
  3
Standard
350
6C
  0
DICTIONARY
  5
17
102
{ACAD_REACTORS
330
C
102
}
330
C
100
AcDbDictionary
281
     1
  3
Standard
350
18
  0
DICTIONARY
  5
19
102
{ACAD_REACTORS
330
C
102
}
330
C
100
AcDbDictionary
281
     1
  0
ACDBDICTIONARYWDFLT
  5
E
102
{ACAD_REACTORS
330
C
102
}
330
C
100
AcDbDictionary
281
     1
  3
Normal
350
F
100
AcDbDictionaryWithDefault
340
F
  0
DICTIONARY
  5
47
102
{ACAD_REACTORS
330
C
102
}
330
C
100
AcDbDictionary
281
     1
  3
A0
350
48
  3
A1
350
49
  3
A2
350
4A
  3
A3
350
4B
  3
A4
350
4C
  3
A5
350
4D
  3
A6
350
4E
  3
A7
350
4F
  3
A8
350
50
  3
A9
350
51
  3
B0
350
52
  3
B1
350
53
  3
B2
350
54
  3
B3
350
55
  3
B4
350
56
  3
B5
350
57
  3
B6
350
58
  3
B7
350
59
  3
B8
350
5A
  3
B9
350
5B
  3
C0
350
5C
  3
C1
350
5D
  3
C2
350
5E
  3
C3
350
5F
  3
C4
350
60
  3
C5
350
61
  3
C6
350
62
  3
C7
350
63
  3
C8
350
64
  3
C9
350
65
  3
D0
350
66
  3
D1
350
67
  3
D2
350
68
  0
DICTIONARY
  5
414
102
{ACAD_REACTORS
330
C
102
}
330
C
100
AcDbDictionary
281
     1
  3
Imperial24
350
417
  0
DICTIONARY
  5
69
102
{ACAD_REACTORS
330
C
102
}
330
C
100
AcDbDictionary
281
     1
  3
Standard
350
6A
  0
DICTIONARY
  5
2A
102
{ACAD_REACTORS
330
C
102
}
330
C
100
AcDbDictionary
281
     1
  3
2dWireframe
350
2F
  3
Basic
350
32
  3
Brighten
350
36
  3
ColorChange
350
3A
  3
Conceptual
350
34
  3
Dim
350
35
  3
EdgeColorOff
350
3D
  3
Facepattern
350
39
  3
Flat
350
2B
  3
FlatWithEdges
350
2C
  3
Gouraud
350
2D
  3
GouraudWithEdges
350
2E
  3
Hidden
350
31
  3
JitterOff
350
3B
  3
Linepattern
350
38
  3
OverhangOff
350
3C
  3
Realistic
350
33
  3
Shaded
350
42
  3
Shaded with edges
350
41
  3
Shades of Gray
350
3E
  3
Sketchy
350
3F
  3
Thicken
350
37
  3
Wireframe
350
30
  3
X-Ray
350
40
  0
XRECORD
  5
42D
102
{ACAD_REACTORS
330
C
102
}
330
C
100
AcDbXrecord
280
     1
 90
        1
330
6A
  0
DICTIONARY
  5
3D0
102
{ACAD_REACTORS
330
C
102
}
330
C
100
AcDbDictionary
281
     1
  3
CANNOSCALE
350
3D1
  3
CMLEADERSTYLE
350
412
  3
CTABLESTYLE
350
411
  3
CVIEWDETAILSTYLE
350
427
  3
CVIEWSECTIONSTYLE
350
428
  3
LAYEREVAL
350
42A
  3
LAYERNOTIFY
350
42B
  3
LIGHTINGUNITS
350
429
  3
MSLTSCALE
350
3D2
  0
XRECORD
  5
41E
102
{ACAD_REACTORS
330
41D
102
}
330
41D
100
AcDbXrecord
280
     1
290
     1
  0
XRECORD
  5
420
102
{ACAD_REACTORS
330
41F
102
}
330
41F
100
AcDbXrecord
280
     1
290
     1
  0
ACDBDETAILVIEWSTYLE
  5
418
102
{ACAD_REACTORS
330
413
102
}
330
413
100
AcDbModelDocViewStyle
 70
     0
  3
Imperial24
290
     1
300
Imperial24
 90
        0
100
AcDbDetailViewStyle
 70
     0
 71
     0
 90
        3
 71
     1
340
11
 62
   256
 40
0.24
340
0
 62
   256
 40
0.24
300

 40
0.36
280
     3
 71
     2
340
16
 90
       25
 62
   256
 71
     3
340
11
 62
   256
 40
0.24
 90
        1
 40
0.75
 90
        1
300
%<\AcVar ViewType \f "%tc1">% %<\AcVar ViewDetailId>%\PSCALE %<\AcVar ViewScale \f "%sn">%
 71
     4
340
16
 90
       25
 62
   256
340
16
 90
       25
 62
   256
280
     0
  0
GROUP
  5
3BE
102
{ACAD_REACTORS
330
D
102
}
330
D
100
AcDbGroup
300

 70
     0
 71
     1
340
3A3
340
3A4
340
39F
340
3A2
340
3A5
340
3A6
340
3A7
340
3A8
340
3A9
340
3AA
340
3AB
340
3AC
340
3AD
340
3AE
  0
GROUP
  5
3BD
102
{ACAD_REACTORS
330
D
102
}
330
D
100
AcDbGroup
300

 70
     0
 71
     1
340
3A3
340
3A4
340
39F
340
3A2
340
3A5
340
3A6
340
3A7
340
3A8
340
3A9
340
3AA
340
3AB
340
3AC
340
3AD
340
3AE
340
3A3
340
3A4
340
39F
340
3A2
340
3A5
340
3A6
340
3A7
340
3A8
340
3A9
340
3AA
340
3AB
340
3AC
340
3AD
340
3AE
340
3A3
340
3A4
340
39F
340
3A2
340
3A5
340
3A6
340
3A7
340
3A8
340
3A9
340
3AA
340
3AB
340
3AC
340
3AD
340
3AE
340
3AF
340
3B0
340
3B1
340
3B2
340
3B3
340
3B4
340
3B5
340
3B6
340
3B7
340
3B8
340
3B9
340
3BA
340
3BB
340
3BC
340
3A3
340
3A4
340
39F
340
3A2
340
3A5
340
3A6
340
3A7
340
3A8
340
3A9
340
3AA
340
3AB
340
3AC
340
3AD
340
3AE
340
3AF
340
3B0
340
3B1
340
3B2
340
3B3
340
3B4
340
3B5
340
3B6
340
3B7
340
3B8
340
3B9
340
3BA
340
3BB
340
3BC
  0
LAYOUT
  5
1E
102
{ACAD_REACTORS
330
1A
102
}
330
1A
100
AcDbPlotSettings
  1

  2
none_device
  4

  6

 40
0.0
 41
0.0
 42
0.0
 43
0.0
 44
0.0
 45
0.0
 46
0.0
 47
0.0
 48
0.0
 49
0.0
140
0.0
141
0.0
142
1.0
143
1.0
 70
   688
 72
     0
 73
     0
 74
     5
  7

 75
    16
147
1.0
 76
     0
 77
     2
 78
   300
148
0.0
149
0.0
100
AcDbLayout
  1
Layout1
 70
     1
 71
     1
 10
-0.5
 20
-0.5
 11
5.0
 21
5.0
 12
0.0
 22
0.0
 32
0.0
 14
-0.5
 24
-0.5
 34
-0.5
 15
5.0
 25
5.0
 35
5.0
146
0.0
 13
0.0
 23
0.0
 33
0.0
 16
1.0
 26
0.0
 36
0.0
 17
0.0
 27
1.0
 37
0.0
 76
     0
330
1B
  0
LAYOUT
  5
26
102
{ACAD_REACTORS
330
1A
102
}
330
1A
100
AcDbPlotSettings
  1

  2
none_device
  4

  6

 40
0.0
 41
0.0
 42
0.0
 43
0.0
 44
0.0
 45
0.0
 46
0.0
 47
0.0
 48
0.0
 49
0.0
140
0.0
141
0.0
142
1.0
143
1.0
 70
   688
 72
     0
 73
     0
 74
     5
  7

 75
    16
147
1.0
 76
     0
 77
     2
 78
   300
148
0.0
149
0.0
100
AcDbLayout
  1
Layout2
 70
     1
 71
     2
 10
0.0
 20
0.0
 11
0.0
 21
0.0
 12
0.0
 22
0.0
 32
0.0
 14
0.0
 24
0.0
 34
0.0
 15
0.0
 25
0.0
 35
0.0
146
0.0
 13
0.0
 23
0.0
 33
0.0
 16
1.0
 26
0.0
 36
0.0
 17
0.0
 27
1.0
 37
0.0
 76
     0
330
23
  0
LAYOUT
  5
22
102
{ACAD_REACTORS
330
1A
102
}
330
1A
100
AcDbPlotSettings
  1

  2
none_device
  4
Letter_(8.50_x_11.00_Inches)
  6

 40
6.349999999999999
 41
6.349999999999999
 42
6.350005079999999
 43
6.350005079999999
 44
215.9
 45
279.4
 46
0.0
 47
0.0
 48
0.0
 49
0.0
140
0.0
141
0.0
142
1.0
143
1.0
 70
  1712
 72
     0
 73
     0
 74
     0
  7

 75
     0
147
1.0
 76
     0
 77
     2
 78
   300
148
0.0
149
0.0
100
AcDbLayout
  1
Model
 70
     1
 71
     0
 10
-0.5
 20
-0.5
 11
5.0
 21
5.0
 12
0.0
 22
0.0
 32
0.0
 14
-0.5
 24
-0.5
 34
-0.5
 15
5.0
 25
5.0
 35
5.0
146
0.0
 13
0.0
 23
0.0
 33
0.0
 16
1.0
 26
0.0
 36
0.0
 17
0.0
 27
1.0
 37
0.0
 76
     0
330
1F
331
29
  0
MATERIAL
  5
45
102
{ACAD_REACTORS
330
43
102
}
330
43
100
AcDbMaterial
  1
ByBlock
 73
     1
 78
     1
172
     1
176
     1
270
     1
274
     1
  0
MATERIAL
  5
44
102
{ACAD_REACTORS
330
43
102
}
330
43
100
AcDbMaterial
  1
ByLayer
 73
     1
 78
     1
172
     1
176
     1
270
     1
274
     1
  0
MATERIAL
  5
46
102
{ACAD_REACTORS
330
43
102
}
330
43
100
AcDbMaterial
  1
Global
 73
     1
 78
     1
172
     1
176
     1
270
     1
274
     1
  0
MLEADERSTYLE
  5
6C
102
{ACAD_REACTORS
330
6B
102
}
330
6B
100
AcDbMLeaderStyle
179
     2
170
     2
171
     1
172
     0
 90
        2
 40
0.0
 41
0.0
173
     1
 91
-1056964608
340
14
 92
       -2
290
     1
 42
0.09
291
     1
 43
0.36
  3
Standard
 44
0.18
300

342
11
174
     1
178
     6
175
     1
176
     0
 93
-1056964608
 45
0.18
292
     0
297
     0
 46
0.18
 94
-1056964608
 47
1.0
 49
1.0
140
1.0
293
     1
141
0.0
294
     1
177
     0
142
1.0
295
     0
296
     0
143
0.125
271
     0
272
     9
273
     9
298
     0
  0
MLINESTYLE
  5
18
102
{ACAD_REACTORS
330
17
102
}
330
17
100
AcDbMlineStyle
  2
STANDARD
 70
     0
  3

 62
   256
 51
90.0
 52
90.0
 71
     2
 49
0.5
 62
   256
  6
BYLAYER
 49
-0.5
 62
   256
  6
BYLAYER
  0
ACDBPLACEHOLDER
  5
F
102
{ACAD_REACTORS
330
E
102
}
330
E
  0
SCALE
  5
48
102
{ACAD_REACTORS
330
47
102
}
330
47
100
AcDbScale
 70
     0
300
1:1
140
1.0
141
1.0
290
     1
  0
SCALE
  5
49
102
{ACAD_REACTORS
330
47
102
}
330
47
100
AcDbScale
 70
     0
300
1:2
140
1.0
141
2.0
290
     0
  0
SCALE
  5
4A
102
{ACAD_REACTORS
330
47
102
}
330
47
100
AcDbScale
 70
     0
300
1:4
140
1.0
141
4.0
290
     0
  0
SCALE
  5
4B
102
{ACAD_REACTORS
330
47
102
}
330
47
100
AcDbScale
 70
     0
300
1:5
140
1.0
141
5.0
290
     0
  0
SCALE
  5
4C
102
{ACAD_REACTORS
330
47
102
}
330
47
100
AcDbScale
 70
     0
300
1:8
140
1.0
141
8.0
290
     0
  0
SCALE
  5
4D
102
{ACAD_REACTORS
330
47
102
}
330
47
100
AcDbScale
 70
     0
300
1:10
140
1.0
141
10.0
290
     0
  0
SCALE
  5
4E
102
{ACAD_REACTORS
330
47
102
}
330
47
100
AcDbScale
 70
     0
300
1:16
140
1.0
141
16.0
290
     0
  0
SCALE
  5
4F
102
{ACAD_REACTORS
330
47
102
}
330
47
100
AcDbScale
 70
     0
300
1:20
140
1.0
141
20.0
290
     0
  0
SCALE
  5
50
102
{ACAD_REACTORS
330
47
102
}
330
47
100
AcDbScale
 70
     0
300
1:30
140
1.0
141
30.0
290
     0
  0
SCALE
  5
51
102
{ACAD_REACTORS
330
47
102
}
330
47
100
AcDbScale
 70
     0
300
1:40
140
1.0
141
40.0
290
     0
  0
SCALE
  5
52
102
{ACAD_REACTORS
330
47
102
}
330
47
100
AcDbScale
 70
     0
300
1:50
140
1.0
141
50.0
290
     0
  0
SCALE
  5
53
102
{ACAD_REACTORS
330
47
102
}
330
47
100
AcDbScale
 70
     0
300
1:100
140
1.0
141
100.0
290
     0
  0
SCALE
  5
54
102
{ACAD_REACTORS
330
47
102
}
330
47
100
AcDbScale
 70
     0
300
2:1
140
2.0
141
1.0
290
     0
  0
SCALE
  5
55
102
{ACAD_REACTORS
330
47
102
}
330
47
100
AcDbScale
 70
     0
300
4:1
140
4.0
141
1.0
290
     0
  0
SCALE
  5
56
102
{ACAD_REACTORS
330
47
102
}
330
47
100
AcDbScale
 70
     0
300
8:1
140
8.0
141
1.0
290
     0
  0
SCALE
  5
57
102
{ACAD_REACTORS
330
47
102
}
330
47
100
AcDbScale
 70
     0
300
10:1
140
10.0
141
1.0
290
     0
  0
SCALE
  5
58
102
{ACAD_REACTORS
330
47
102
}
330
47
100
AcDbScale
 70
     0
300
100:1
140
100.0
141
1.0
290
     0
  0
SCALE
  5
59
102
{ACAD_REACTORS
330
47
102
}
330
47
100
AcDbScale
 70
     0
300
1/128" = 1'-0"
140
0.0078125
141
12.0
290
     0
  0
SCALE
  5
5A
102
{ACAD_REACTORS
330
47
102
}
330
47
100
AcDbScale
 70
     0
300
1/64" = 1'-0"
140
0.015625
141
12.0
290
     0
  0
SCALE
  5
5B
102
{ACAD_REACTORS
330
47
102
}
330
47
100
AcDbScale
 70
     0
300
1/32" = 1'-0"
140
0.03125
141
12.0
290
     0
  0
SCALE
  5
5C
102
{ACAD_REACTORS
330
47
102
}
330
47
100
AcDbScale
 70
     0
300
1/16" = 1'-0"
140
0.0625
141
12.0
290
     0
  0
SCALE
  5
5D
102
{ACAD_REACTORS
330
47
102
}
330
47
100
AcDbScale
 70
     0
300
3/32" = 1'-0"
140
0.09375
141
12.0
290
     0
  0
SCALE
  5
5E
102
{ACAD_REACTORS
330
47
102
}
330
47
100
AcDbScale
 70
     0
300
1/8" = 1'-0"
140
0.125
141
12.0
290
     0
  0
SCALE
  5
5F
102
{ACAD_REACTORS
330
47
102
}
330
47
100
AcDbScale
 70
     0
300
3/16" = 1'-0"
140
0.1875
141
12.0
290
     0
  0
SCALE
  5
60
102
{ACAD_REACTORS
330
47
102
}
330
47
100
AcDbScale
 70
     0
300
1/4" = 1'-0"
140
0.25
141
12.0
290
     0
  0
SCALE
  5
61
102
{ACAD_REACTORS
330
47
102
}
330
47
100
AcDbScale
 70
     0
300
3/8" = 1'-0"
140
0.375
141
12.0
290
     0
  0
SCALE
  5
62
102
{ACAD_REACTORS
330
47
102
}
330
47
100
AcDbScale
 70
     0
300
1/2" = 1'-0"
140
0.5
141
12.0
290
     0
  0
SCALE
  5
63
102
{ACAD_REACTORS
330
47
102
}
330
47
100
AcDbScale
 70
     0
300
3/4" = 1'-0"
140
0.75
141
12.0
290
     0
  0
SCALE
  5
64
102
{ACAD_REACTORS
330
47
102
}
330
47
100
AcDbScale
 70
     0
300
1" = 1'-0"
140
1.0
141
12.0
290
     0
  0
SCALE
  5
65
102
{ACAD_REACTORS
330
47
102
}
330
47
100
AcDbScale
 70
     0
300
1-1/2" = 1'-0"
140
1.5
141
12.0
290
     0
  0
SCALE
  5
66
102
{ACAD_REACTORS
330
47
102
}
330
47
100
AcDbScale
 70
     0
300
3" = 1'-0"
140
3.0
141
12.0
290
     0
  0
SCALE
  5
67
102
{ACAD_REACTORS
330
47
102
}
330
47
100
AcDbScale
 70
     0
300
6" = 1'-0"
140
6.0
141
12.0
290
     0
  0
SCALE
  5
68
102
{ACAD_REACTORS
330
47
102
}
330
47
100
AcDbScale
 70
     0
300
1'-0" = 1'-0"
140
12.0
141
12.0
290
     0
  0
ACDBSECTIONVIEWSTYLE
  5
417
102
{ACAD_REACTORS
330
414
102
}
330
414
100
AcDbModelDocViewStyle
 70
     0
  3
Imperial24
290
     1
300
Imperial24
 90
        0
100
AcDbSectionViewStyle
 70
     0
 71
     0
 90
       78
 71
     1
340
11
 62
   256
 40
0.24
340
0
340
0
 62
   256
 40
0.24
300
I, O, Q, S, X, Z
 40
0.48
 90
        3
 40
0.18
 90
        1
 71
     2
340
16
 90
       25
 62
   256
340
16
 90
       50
 62
   256
 40
0.24
 40
0.0
 40
0.24
 71
     3
340
11
 62
   256
 40
0.24
 90
        1
 40
0.75
 90
        1
300
%<\AcVar ViewType \f "%tc1">% %<\AcVar ViewSectionStartId>%-%<\AcVar ViewSectionEndId>%\PSCALE %<\AcVar ViewScale \f "%sn">%
 71
     4
 62
   256
 62
   257
300
ANSI31
 40
1.0
 90
        0
290
     0
290
     0
 90
        6
 40
0.0
 40
1.570796326794896
 40
0.2617993877991494
 40
1.308996938995747
 40
-0.2617993877991494
 40
1.832595714594046
  0
TABLESTYLE
  5
6A
102
{ACAD_XDICTIONARY
360
40A
102
}
102
{ACAD_REACTORS
330
69
102
}
330
69
100
AcDbTableStyle
280
     0
  3
Standard
 70
     0
 71
     0
 40
0.06
 41
0.06
280
     0
281
     0
  7
Standard
140
0.18
170
     2
 62
     0
 63
     7
283
     0
 90
        4
 91
        0
  1

274
    -2
284
     1
 64
     0
275
    -2
285
     1
 65
     0
276
    -2
286
     1
 66
     0
277
    -2
287
     1
 67
     0
278
    -2
288
     1
 68
     0
279
    -2
289
     1
 69
     0
  7
Standard
140
0.25
170
     5
 62
     0
 63
     7
283
     0
 90
        4
 91
        0
  1

274
    -2
284
     1
 64
     0
275
    -2
285
     1
 65
     0
276
    -2
286
     1
 66
     0
277
    -2
287
     1
 67
     0
278
    -2
288
     1
 68
     0
279
    -2
289
     1
 69
     0
  7
Standard
140
0.18
170
     5
 62
     0
 63
     7
283
     0
 90
        4
 91
        0
  1

274
    -2
284
     1
 64
     0
275
    -2
285
     1
 65
     0
276
    -2
286
     1
 66
     0
277
    -2
287
     1
 67
     0
278
    -2
288
     1
 68
     0
279
    -2
289
     1
 69
     0
  0
VISUALSTYLE
  5
2F
102
{ACAD_REACTORS
330
2A
102
}
330
2A
100
AcDbVisualStyle
  2
2dWireframe
 70
     4
177
     3
291
     0
 70
    58
 90
        0
176
     1
 90
        2
176
     1
 90
        0
176
     1
 90
        0
176
     1
 40
0.6
176
     1
 40
30.0
176
     1
 62
     7
420
 16777215
176
     1
 90
        1
176
     1
 90
        4
176
     1
 62
     7
176
     1
 62
   257
176
     1
 90
        1
176
     1
 90
        1
176
     1
 40
1.0
176
     1
 90
        0
176
     1
 62
   257
176
     1
 40
1.0
176
     1
 90
        1
176
     1
 90
        6
176
     1
 90
        2
176
     1
 62
     7
176
     1
 90
        5
176
     1
 90
        0
176
     1
 90
        0
176
     1
290
     0
176
     1
 90
        1
176
     1
 40
0.0
176
     1
 90
        0
176
     1
290
     1
176
     1
290
     1
176
     1
290
     0
176
     1
290
     0
176
     1
290
     0
176
     1
290
     0
176
     1
290
     0
176
     1
290
     0
176
     1
290
     0
176
     1
 90
       50
176
     1
 40
0.0
176
     1
 40
1.0
176
     1
 90
        0
176
     1
 62
    18
420
        0
176
     1
 90
       50
176
     1
 90
        3
176
     1
 62
     5
420
      255
176
     1
290
     0
176
     1
 90
       50
176
     1
 90
       50
176
     1
 90
       50
176
     1
290
     0
176
     1
 90
       50
176
     1
 62
   256
176
     0
 40
1.0
176
     0
 90
        2
176
     1
  1
strokes_ogs.tif
176
     1
290
     0
176
     1
 40
1.0
176
     1
 40
1.0
176
     1
  0
VISUALSTYLE
  5
32
102
{ACAD_REACTORS
330
2A
102
}
330
2A
100
AcDbVisualStyle
  2
Basic
 70
     7
177
     3
291
     1
 70
    58
 90
        1
176
     1
 90
        0
176
     1
 90
        1
176
     1
 90
        0
176
     1
 40
0.6
176
     1
 40
30.0
176
     1
 62
     7
420
 16777215
176
     1
 90
        0
176
     1
 90
        4
176
     1
 62
     7
176
     1
 62
   257
176
     1
 90
        1
176
     1
 90
        1
176
     1
 40
1.0
176
     1
 90
        8
176
     1
 62
     7
176
     1
 40
1.0
176
     1
 90
        1
176
     1
 90
        6
176
     1
 90
        2
176
     1
 62
     7
176
     1
 90
        5
176
     1
 90
        0
176
     1
 90
        0
176
     1
290
     0
176
     1
 90
        1
176
     1
 40
0.0
176
     1
 90
        0
176
     1
290
     0
176
     1
290
     1
176
     1
290
     1
176
     1
290
     0
176
     1
290
     0
176
     1
290
     0
176
     1
290
     0
176
     1
290
     0
176
     1
290
     0
176
     1
 90
       50
176
     1
 40
0.0
176
     1
 40
1.0
176
     1
 90
        0
176
     1
 62
    18
420
        0
176
     1
 90
       50
176
     1
 90
        3
176
     1
 62
     5
420
      255
176
     1
290
     0
176
     1
 90
       50
176
     1
 90
       50
176
     1
 90
       50
176
     1
290
     0
176
     1
 90
       50
176
     1
 62
   256
176
     0
 40
1.0
176
     0
 90
        2
176
     1
  1
strokes_ogs.tif
176
     1
290
     0
176
     1
 40
1.0
176
     1
 40
1.0
176
     1
  0
VISUALSTYLE
  5
36
102
{ACAD_REACTORS
330
2A
102
}
330
2A
100
AcDbVisualStyle
  2
Brighten
 70
    12
177
     3
291
     1
 70
    58
 90
        2
176
     1
 90
        2
176
     1
 90
        0
176
     1
 90
        0
176
     1
 40
0.6
176
     1
 40
30.0
176
     1
 62
     7
420
 16777215
176
     1
 90
        1
176
     1
 90
        4
176
     1
 62
     7
176
     1
 62
   257
176
     1
 90
        1
176
     1
 90
        1
176
     1
 40
1.0
176
     1
 90
        8
176
     1
 62
     7
176
     1
 40
1.0
176
     1
 90
        1
176
     1
 90
        6
176
     1
 90
        2
176
     1
 62
     7
176
     1
 90
        5
176
     1
 90
        0
176
     1
 90
        0
176
     1
290
     0
176
     1
 90
        1
176
     1
 40
50.0
176
     1
 90
        0
176
     1
290
     0
176
     1
290
     1
176
     1
290
     1
176
     1
290
     0
176
     1
290
     0
176
     1
290
     0
176
     1
290
     0
176
     1
290
     0
176
     1
290
     0
176
     1
 90
       50
176
     1
 40
0.0
176
     1
 40
1.0
176
     1
 90
        0
176
     1
 62
    18
420
        0
176
     1
 90
       50
176
     1
 90
        3
176
     1
 62
     5
420
      255
176
     1
290
     0
176
     1
 90
       50
176
     1
 90
       50
176
     1
 90
       50
176
     1
290
     0
176
     1
 90
       50
176
     1
 62
   256
176
     0
 40
1.0
176
     0
 90
        2
176
     1
  1
strokes_ogs.tif
176
     1
290
     0
176
     1
 40
1.0
176
     1
 40
1.0
176
     1
  0
VISUALSTYLE
  5
3A
102
{ACAD_REACTORS
330
2A
102
}
330
2A
100
AcDbVisualStyle
  2
ColorChange
 70
    16
177
     3
291
     1
 70
    58
 90
        2
176
     1
 90
        2
176
     1
 90
        3
176
     1
 90
        0
176
     1
 40
0.6
176
     1
 40
30.0
176
     1
 62
     8
420
  8421504
176
     1
 90
        1
176
     1
 90
        4
176
     1
 62
     7
176
     1
 62
   257
176
     1
 90
        1
176
     1
 90
        1
176
     1
 40
1.0
176
     1
 90
        8
176
     1
 62
     8
420
  8421504
176
     1
 40
1.0
176
     1
 90
        1
176
     1
 90
        6
176
     1
 90
        2
176
     1
 62
     7
176
     1
 90
        5
176
     1
 90
        0
176
     1
 90
        0
176
     1
290
     0
176
     1
 90
        1
176
     1
 40
0.0
176
     1
 90
        0
176
     1
290
     0
176
     1
290
     1
176
     1
290
     1
176
     1
290
     0
176
     1
290
     0
176
     1
290
     0
176
     1
290
     0
176
     1
290
     0
176
     1
290
     0
176
     1
 90
       50
176
     1
 40
0.0
176
     1
 40
1.0
176
     1
 90
        0
176
     1
 62
    18
420
        0
176
     1
 90
       50
176
     1
 90
        3
176
     1
 62
     5
420
      255
176
     1
290
     0
176
     1
 90
       50
176
     1
 90
       50
176
     1
 90
       50
176
     1
290
     0
176
     1
 90
       50
176
     1
 62
   256
176
     0
 40
1.0
176
     0
 90
        2
176
     1
  1
strokes_ogs.tif
176
     1
290
     0
176
     1
 40
1.0
176
     1
 40
1.0
176
     1
  0
VISUALSTYLE
  5
34
102
{ACAD_REACTORS
330
2A
102
}
330
2A
100
AcDbVisualStyle
  2
Conceptual
 70
     9
177
     3
291
     0
 70
    58
 90
        3
176
     1
 90
        2
176
     1
 90
        0
176
     1
 90
        0
176
     1
 40
0.6
176
     1
 40
30.0
176
     1
 62
     7
420
 16777215
176
     1
 90
        2
176
     1
 90
        2
176
     1
 62
     7
176
     1
 62
   257
176
     1
 90
        1
176
     1
 90
        1
176
     1
 40
179.0
176
     1
 90
        8
176
     1
 62
     7
176
     1
 40
1.0
176
     1
 90
        1
176
     1
 90
        6
176
     1
 90
        2
176
     1
 62
     7
176
     1
 90
        3
176
     1
 90
        0
176
     1
 90
        0
176
     1
290
     0
176
     1
 90
        1
176
     1
 40
0.0
176
     1
 90
        0
176
     1
290
     0
176
     1
290
     1
176
     1
290
     1
176
     1
290
     0
176
     1
290
     0
176
     1
290
     0
176
     1
290
     0
176
     1
290
     0
176
     1
290
     0
176
     1
 90
       50
176
     1
 40
0.0
176
     1
 40
1.0
176
     1
 90
        0
176
     1
 62
    18
420
        0
176
     1
 90
       50
176
     1
 90
        3
176
     1
 62
     5
420
      255
176
     1
290
     0
176
     1
 90
       50
176
     1
 90
       50
176
     1
 90
       50
176
     1
290
     0
176
     1
 90
       50
176
     1
 62
   256
176
     0
 40
1.0
176
     0
 90
        2
176
     1
  1
strokes_ogs.tif
176
     1
290
     0
176
     1
 40
1.0
176
     1
 40
1.0
176
     1
  0
VISUALSTYLE
  5
35
102
{ACAD_REACTORS
330
2A
102
}
330
2A
100
AcDbVisualStyle
  2
Dim
 70
    11
177
     3
291
     1
 70
    58
 90
        2
176
     1
 90
        2
176
     1
 90
        0
176
     1
 90
        0
176
     1
 40
0.6
176
     1
 40
30.0
176
     1
 62
     7
420
 16777215
176
     1
 90
        1
176
     1
 90
        4
176
     1
 62
     7
176
     1
 62
   257
176
     1
 90
        1
176
     1
 90
        1
176
     1
 40
1.0
176
     1
 90
        8
176
     1
 62
     7
176
     1
 40
1.0
176
     1
 90
        1
176
     1
 90
        6
176
     1
 90
        2
176
     1
 62
     7
176
     1
 90
        5
176
     1
 90
        0
176
     1
 90
        0
176
     1
290
     0
176
     1
 90
        1
176
     1
 40
-50.0
176
     1
 90
        0
176
     1
290
     0
176
     1
290
     1
176
     1
290
     1
176
     1
290
     0
176
     1
290
     0
176
     1
290
     0
176
     1
290
     0
176
     1
290
     0
176
     1
290
     0
176
     1
 90
       50
176
     1
 40
0.0
176
     1
 40
1.0
176
     1
 90
        0
176
     1
 62
    18
420
        0
176
     1
 90
       50
176
     1
 90
        3
176
     1
 62
     5
420
      255
176
     1
290
     0
176
     1
 90
       50
176
     1
 90
       50
176
     1
 90
       50
176
     1
290
     0
176
     1
 90
       50
176
     1
 62
   256
176
     0
 40
1.0
176
     0
 90
        2
176
     1
  1
strokes_ogs.tif
176
     1
290
     0
176
     1
 40
1.0
176
     1
 40
1.0
176
     1
  0
VISUALSTYLE
  5
3D
102
{ACAD_REACTORS
330
2A
102
}
330
2A
100
AcDbVisualStyle
  2
EdgeColorOff
 70
    22
177
     3
291
     1
 70
    58
 90
        2
176
     0
 90
        2
176
     0
 90
        0
176
     0
 90
        0
176
     0
 40
0.6
176
     0
 40
30.0
176
     0
 62
     7
420
 16777215
176
     0
 90
        1
176
     0
 90
        4
176
     0
 62
     7
176
     0
 62
   257
176
     0
 90
        1
176
     0
 90
        1
176
     0
 40
1.0
176
     0
 90
        8
176
     2
 62
     7
176
     0
 40
1.0
176
     0
 90
        1
176
     0
 90
        6
176
     0
 90
        2
176
     0
 62
     7
176
     0
 90
        5
176
     0
 90
        0
176
     0
 90
        0
176
     0
290
     0
176
     0
 90
        1
176
     0
 40
0.0
176
     0
 90
        0
176
     0
290
     0
176
     0
290
     1
176
     0
290
     1
176
     0
290
     0
176
     0
290
     0
176
     0
290
     0
176
     0
290
     0
176
     0
290
     0
176
     0
290
     0
176
     0
 90
       50
176
     0
 40
0.0
176
     0
 40
1.0
176
     0
 90
        0
176
     0
 62
    18
420
        0
176
     0
 90
       50
176
     0
 90
        3
176
     0
 62
     5
420
      255
176
     0
290
     0
176
     0
 90
       50
176
     0
 90
       50
176
     0
 90
       50
176
     0
290
     0
176
     0
 90
       50
176
     0
 62
   256
176
     0
 40
1.0
176
     0
 90
        2
176
     0
  1
strokes_ogs.tif
176
     0
290
     0
176
     0
 40
1.0
176
     0
 40
1.0
176
     0
  0
VISUALSTYLE
  5
39
102
{ACAD_REACTORS
330
2A
102
}
330
2A
100
AcDbVisualStyle
  2
Facepattern
 70
    15
177
     3
291
     1
 70
    58
 90
        2
176
     1
 90
        2
176
     1
 90
        0
176
     1
 90
        0
176
     1
 40
0.6
176
     1
 40
30.0
176
     1
 62
     7
420
 16777215
176
     1
 90
        1
176
     1
 90
        4
176
     1
 62
     7
176
     1
 62
   257
176
     1
 90
        1
176
     1
 90
        1
176
     1
 40
1.0
176
     1
 90
        8
176
     1
 62
     7
176
     1
 40
1.0
176
     1
 90
        1
176
     1
 90
        6
176
     1
 90
        2
176
     1
 62
     7
176
     1
 90
        5
176
     1
 90
        0
176
     1
 90
        0
176
     1
290
     0
176
     1
 90
        1
176
     1
 40
0.0
176
     1
 90
        0
176
     1
290
     0
176
     1
290
     1
176
     1
290
     1
176
     1
290
     0
176
     1
290
     0
176
     1
290
     0
176
     1
290
     0
176
     1
290
     0
176
     1
290
     0
176
     1
 90
       50
176
     1
 40
0.0
176
     1
 40
1.0
176
     1
 90
        0
176
     1
 62
    18
420
        0
176
     1
 90
       50
176
     1
 90
        3
176
     1
 62
     5
420
      255
176
     1
290
     0
176
     1
 90
       50
176
     1
 90
       50
176
     1
 90
       50
176
     1
290
     0
176
     1
 90
       50
176
     1
 62
   256
176
     0
 40
1.0
176
     0
 90
        2
176
     1
  1
strokes_ogs.tif
176
     1
290
     0
176
     1
 40
1.0
176
     1
 40
1.0
176
     1
  0
VISUALSTYLE
  5
2B
102
{ACAD_REACTORS
330
2A
102
}
330
2A
100
AcDbVisualStyle
  2
Flat
 70
     0
177
     3
291
     1
 70
    58
 90
        2
176
     1
 90
        1
176
     1
 90
        1
176
     1
 90
        2
176
     1
 40
0.6
176
     1
 40
30.0
176
     1
 62
     7
420
 16777215
176
     1
 90
        0
176
     1
 90
        0
176
     1
 62
     7
176
     1
 62
   257
176
     1
 90
        1
176
     1
 90
        1
176
     1
 40
1.0
176
     1
 90
        8
176
     1
 62
     7
176
     1
 40
1.0
176
     1
 90
        1
176
     1
 90
        6
176
     1
 90
        2
176
     1
 62
     7
176
     1
 90
        5
176
     1
 90
        0
176
     1
 90
        0
176
     1
290
     0
176
     1
 90
       13
176
     1
 40
0.0
176
     1
 90
        0
176
     1
290
     0
176
     1
290
     1
176
     1
290
     1
176
     1
290
     0
176
     1
290
     0
176
     1
290
     0
176
     1
290
     0
176
     1
290
     0
176
     1
290
     0
176
     1
 90
       50
176
     1
 40
0.0
176
     1
 40
1.0
176
     1
 90
        0
176
     1
 62
    18
420
        0
176
     1
 90
       50
176
     1
 90
        3
176
     1
 62
     5
420
      255
176
     1
290
     0
176
     1
 90
       50
176
     1
 90
       50
176
     1
 90
       50
176
     1
290
     0
176
     1
 90
       50
176
     1
 62
   256
176
     0
 40
1.0
176
     0
 90
        2
176
     1
  1
strokes_ogs.tif
176
     1
290
     0
176
     1
 40
1.0
176
     1
 40
1.0
176
     1
  0
VISUALSTYLE
  5
2C
102
{ACAD_REACTORS
330
2A
102
}
330
2A
100
AcDbVisualStyle
  2
FlatWithEdges
 70
     1
177
     3
291
     1
 70
    58
 90
        2
176
     1
 90
        1
176
     1
 90
        1
176
     1
 90
        2
176
     1
 40
0.6
176
     1
 40
30.0
176
     1
 62
     7
420
 16777215
176
     1
 90
        1
176
     1
 90
        0
176
     1
 62
     7
176
     1
 62
   257
176
     1
 90
        1
176
     1
 90
        1
176
     1
 40
1.0
176
     1
 90
        0
176
     1
 62
   257
176
     1
 40
1.0
176
     1
 90
        1
176
     1
 90
        6
176
     1
 90
        2
176
     1
 62
     7
176
     1
 90
        5
176
     1
 90
        0
176
     1
 90
        0
176
     1
290
     0
176
     1
 90
       13
176
     1
 40
0.0
176
     1
 90
        0
176
     1
290
     0
176
     1
290
     1
176
     1
290
     1
176
     1
290
     0
176
     1
290
     0
176
     1
290
     0
176
     1
290
     0
176
     1
290
     0
176
     1
290
     0
176
     1
 90
       50
176
     1
 40
0.0
176
     1
 40
1.0
176
     1
 90
        0
176
     1
 62
    18
420
        0
176
     1
 90
       50
176
     1
 90
        3
176
     1
 62
     5
420
      255
176
     1
290
     0
176
     1
 90
       50
176
     1
 90
       50
176
     1
 90
       50
176
     1
290
     0
176
     1
 90
       50
176
     1
 62
   256
176
     0
 40
1.0
176
     0
 90
        2
176
     1
  1
strokes_ogs.tif
176
     1
290
     0
176
     1
 40
1.0
176
     1
 40
1.0
176
     1
  0
VISUALSTYLE
  5
2D
102
{ACAD_REACTORS
330
2A
102
}
330
2A
100
AcDbVisualStyle
  2
Gouraud
 70
     2
177
     3
291
     1
 70
    58
 90
        2
176
     1
 90
        2
176
     1
 90
        1
176
     1
 90
        2
176
     1
 40
0.6
176
     1
 40
30.0
176
     1
 62
     7
420
 16777215
176
     1
 90
        0
176
     1
 90
        0
176
     1
 62
     7
176
     1
 62
   257
176
     1
 90
        1
176
     1
 90
        1
176
     1
 40
1.0
176
     1
 90
        0
176
     1
 62
     7
176
     1
 40
1.0
176
     1
 90
        1
176
     1
 90
        6
176
     1
 90
        2
176
     1
 62
     7
176
     1
 90
        5
176
     1
 90
        0
176
     1
 90
        0
176
     1
290
     0
176
     1
 90
       13
176
     1
 40
0.0
176
     1
 90
        0
176
     1
290
     0
176
     1
290
     1
176
     1
290
     1
176
     1
290
     0
176
     1
290
     0
176
     1
290
     0
176
     1
290
     0
176
     1
290
     0
176
     1
290
     0
176
     1
 90
       50
176
     1
 40
0.0
176
     1
 40
1.0
176
     1
 90
        0
176
     1
 62
    18
420
        0
176
     1
 90
       50
176
     1
 90
        3
176
     1
 62
     5
420
      255
176
     1
290
     0
176
     1
 90
       50
176
     1
 90
       50
176
     1
 90
       50
176
     1
290
     0
176
     1
 90
       50
176
     1
 62
   256
176
     0
 40
1.0
176
     0
 90
        2
176
     1
  1
strokes_ogs.tif
176
     1
290
     0
176
     1
 40
1.0
176
     1
 40
1.0
176
     1
  0
VISUALSTYLE
  5
2E
102
{ACAD_REACTORS
330
2A
102
}
330
2A
100
AcDbVisualStyle
  2
GouraudWithEdges
 70
     3
177
     3
291
     1
 70
    58
 90
        2
176
     1
 90
        2
176
     1
 90
        1
176
     1
 90
        2
176
     1
 40
0.6
176
     1
 40
30.0
176
     1
 62
     7
420
 16777215
176
     1
 90
        1
176
     1
 90
        0
176
     1
 62
     7
176
     1
 62
   257
176
     1
 90
        1
176
     1
 90
        1
176
     1
 40
1.0
176
     1
 90
        0
176
     1
 62
   257
176
     1
 40
1.0
176
     1
 90
        1
176
     1
 90
        6
176
     1
 90
        2
176
     1
 62
     7
176
     1
 90
        5
176
     1
 90
        0
176
     1
 90
        0
176
     1
290
     0
176
     1
 90
       13
176
     1
 40
0.0
176
     1
 90
        0
176
     1
290
     0
176
     1
290
     1
176
     1
290
     1
176
     1
290
     0
176
     1
290
     0
176
     1
290
     0
176
     1
290
     0
176
     1
290
     0
176
     1
290
     0
176
     1
 90
       50
176
     1
 40
0.0
176
     1
 40
1.0
176
     1
 90
        0
176
     1
 62
    18
420
        0
176
     1
 90
       50
176
     1
 90
        3
176
     1
 62
     5
420
      255
176
     1
290
     0
176
     1
 90
       50
176
     1
 90
       50
176
     1
 90
       50
176
     1
290
     0
176
     1
 90
       50
176
     1
 62
   256
176
     0
 40
1.0
176
     0
 90
        2
176
     1
  1
strokes_ogs.tif
176
     1
290
     0
176
     1
 40
1.0
176
     1
 40
1.0
176
     1
  0
VISUALSTYLE
  5
31
102
{ACAD_REACTORS
330
2A
102
}
330
2A
100
AcDbVisualStyle
  2
Hidden
 70
     6
177
     3
291
     0
 70
    58
 90
        1
176
     1
 90
        2
176
     1
 90
        2
176
     1
 90
        0
176
     1
 40
0.6
176
     1
 40
30.0
176
     1
 62
     7
420
 16777215
176
     1
 90
        2
176
     1
 90
        2
176
     1
 62
     7
176
     1
 62
   257
176
     1
 90
        2
176
     1
 90
        1
176
     1
 40
40.0
176
     1
 90
        0
176
     1
 62
   257
176
     1
 40
1.0
176
     1
 90
        1
176
     1
 90
        6
176
     1
 90
        2
176
     1
 62
     7
176
     1
 90
        3
176
     1
 90
        0
176
     1
 90
        0
176
     1
290
     0
176
     1
 90
        1
176
     1
 40
0.0
176
     1
 90
        0
176
     1
290
     0
176
     1
290
     1
176
     1
290
     1
176
     1
290
     0
176
     1
290
     0
176
     1
290
     0
176
     1
290
     0
176
     1
290
     0
176
     1
290
     0
176
     1
 90
       50
176
     1
 40
0.0
176
     1
 40
1.0
176
     1
 90
        0
176
     1
 62
    18
420
        0
176
     1
 90
       50
176
     1
 90
        3
176
     1
 62
     5
420
      255
176
     1
290
     0
176
     1
 90
       50
176
     1
 90
       50
176
     1
 90
       50
176
     1
290
     0
176
     1
 90
       50
176
     1
 62
   256
176
     0
 40
1.0
176
     0
 90
        2
176
     1
  1
strokes_ogs.tif
176
     1
290
     0
176
     1
 40
1.0
176
     1
 40
1.0
176
     1
  0
VISUALSTYLE
  5
3B
102
{ACAD_REACTORS
330
2A
102
}
330
2A
100
AcDbVisualStyle
  2
JitterOff
 70
    20
177
     3
291
     1
 70
    58
 90
        2
176
     0
 90
        2
176
     0
 90
        0
176
     0
 90
        0
176
     0
 40
0.6
176
     0
 40
30.0
176
     0
 62
     7
420
 16777215
176
     0
 90
        1
176
     0
 90
        4
176
     0
 62
     7
176
     0
 62
   257
176
     0
 90
        1
176
     0
 90
        1
176
     0
 40
1.0
176
     0
 90
       10
176
     2
 62
     7
176
     0
 40
1.0
176
     0
 90
        1
176
     0
 90
        6
176
     0
 90
        2
176
     0
 62
     7
176
     0
 90
        5
176
     0
 90
        0
176
     0
 90
        0
176
     0
290
     0
176
     0
 90
        1
176
     0
 40
0.0
176
     0
 90
        0
176
     0
290
     0
176
     0
290
     1
176
     0
290
     1
176
     0
290
     0
176
     0
290
     0
176
     0
290
     0
176
     0
290
     0
176
     0
290
     0
176
     0
290
     0
176
     0
 90
       50
176
     0
 40
0.0
176
     0
 40
1.0
176
     0
 90
        0
176
     0
 62
    18
420
        0
176
     0
 90
       50
176
     0
 90
        3
176
     0
 62
     5
420
      255
176
     0
290
     0
176
     0
 90
       50
176
     0
 90
       50
176
     0
 90
       50
176
     0
290
     0
176
     0
 90
       50
176
     0
 62
   256
176
     0
 40
1.0
176
     0
 90
        2
176
     0
  1
strokes_ogs.tif
176
     0
290
     0
176
     0
 40
1.0
176
     0
 40
1.0
176
     0
  0
VISUALSTYLE
  5
38
102
{ACAD_REACTORS
330
2A
102
}
330
2A
100
AcDbVisualStyle
  2
Linepattern
 70
    14
177
     3
291
     1
 70
    58
 90
        2
176
     1
 90
        2
176
     1
 90
        0
176
     1
 90
        0
176
     1
 40
0.6
176
     1
 40
30.0
176
     1
 62
     7
420
 16777215
176
     1
 90
        1
176
     1
 90
        4
176
     1
 62
     7
176
     1
 62
   257
176
     1
 90
        7
176
     1
 90
        7
176
     1
 40
1.0
176
     1
 90
        8
176
     1
 62
     7
176
     1
 40
1.0
176
     1
 90
        1
176
     1
 90
        6
176
     1
 90
        2
176
     1
 62
     7
176
     1
 90
        5
176
     1
 90
        0
176
     1
 90
        0
176
     1
290
     0
176
     1
 90
        1
176
     1
 40
0.0
176
     1
 90
        0
176
     1
290
     0
176
     1
290
     1
176
     1
290
     1
176
     1
290
     0
176
     1
290
     0
176
     1
290
     0
176
     1
290
     0
176
     1
290
     0
176
     1
290
     0
176
     1
 90
       50
176
     1
 40
0.0
176
     1
 40
1.0
176
     1
 90
        0
176
     1
 62
    18
420
        0
176
     1
 90
       50
176
     1
 90
        3
176
     1
 62
     5
420
      255
176
     1
290
     0
176
     1
 90
       50
176
     1
 90
       50
176
     1
 90
       50
176
     1
290
     0
176
     1
 90
       50
176
     1
 62
   256
176
     0
 40
1.0
176
     0
 90
        2
176
     1
  1
strokes_ogs.tif
176
     1
290
     0
176
     1
 40
1.0
176
     1
 40
1.0
176
     1
  0
VISUALSTYLE
  5
3C
102
{ACAD_REACTORS
330
2A
102
}
330
2A
100
AcDbVisualStyle
  2
OverhangOff
 70
    21
177
     3
291
     1
 70
    58
 90
        2
176
     0
 90
        2
176
     0
 90
        0
176
     0
 90
        0
176
     0
 40
0.6
176
     0
 40
30.0
176
     0
 62
     7
420
 16777215
176
     0
 90
        1
176
     0
 90
        4
176
     0
 62
     7
176
     0
 62
   257
176
     0
 90
        1
176
     0
 90
        1
176
     0
 40
1.0
176
     0
 90
        9
176
     2
 62
     7
176
     0
 40
1.0
176
     0
 90
        1
176
     0
 90
        6
176
     0
 90
        2
176
     0
 62
     7
176
     0
 90
        5
176
     0
 90
        0
176
     0
 90
        0
176
     0
290
     0
176
     0
 90
        1
176
     0
 40
0.0
176
     0
 90
        0
176
     0
290
     0
176
     0
290
     1
176
     0
290
     1
176
     0
290
     0
176
     0
290
     0
176
     0
290
     0
176
     0
290
     0
176
     0
290
     0
176
     0
290
     0
176
     0
 90
       50
176
     0
 40
0.0
176
     0
 40
1.0
176
     0
 90
        0
176
     0
 62
    18
420
        0
176
     0
 90
       50
176
     0
 90
        3
176
     0
 62
     5
420
      255
176
     0
290
     0
176
     0
 90
       50
176
     0
 90
       50
176
     0
 90
       50
176
     0
290
     0
176
     0
 90
       50
176
     0
 62
   256
176
     0
 40
1.0
176
     0
 90
        2
176
     0
  1
strokes_ogs.tif
176
     0
290
     0
176
     0
 40
1.0
176
     0
 40
1.0
176
     0
  0
VISUALSTYLE
  5
33
102
{ACAD_REACTORS
330
2A
102
}
330
2A
100
AcDbVisualStyle
  2
Realistic
 70
     8
177
     3
291
     0
 70
    58
 90
        2
176
     1
 90
        3
176
     1
 90
        0
176
     1
 90
        2
176
     1
 40
0.6
176
     1
 40
30.0
176
     1
 62
     7
420
 16777215
176
     1
 90
        0
176
     1
 90
        0
176
     1
 62
     7
176
     1
 62
   257
176
     1
 90
        1
176
     1
 90
        1
176
     1
 40
1.0
176
     1
 90
        8
176
     1
 62
   257
176
     1
 40
1.0
176
     1
 90
        1
176
     1
 90
        6
176
     1
 90
        2
176
     1
 62
     7
176
     1
 90
        3
176
     1
 90
        0
176
     1
 90
        0
176
     1
290
     0
176
     1
 90
       13
176
     1
 40
0.0
176
     1
 90
        0
176
     1
290
     0
176
     1
290
     1
176
     1
290
     1
176
     1
290
     0
176
     1
290
     0
176
     1
290
     0
176
     1
290
     0
176
     1
290
     0
176
     1
290
     0
176
     1
 90
       50
176
     1
 40
0.0
176
     1
 40
1.0
176
     1
 90
        0
176
     1
 62
    18
420
        0
176
     1
 90
       50
176
     1
 90
        3
176
     1
 62
     5
420
      255
176
     1
290
     0
176
     1
 90
       50
176
     1
 90
       50
176
     1
 90
       50
176
     1
290
     0
176
     1
 90
       50
176
     1
 62
   256
176
     0
 40
1.0
176
     0
 90
        2
176
     1
  1
strokes_ogs.tif
176
     1
290
     0
176
     1
 40
1.0
176
     1
 40
1.0
176
     1
  0
VISUALSTYLE
  5
42
102
{ACAD_REACTORS
330
2A
102
}
330
2A
100
AcDbVisualStyle
  2
Shaded
 70
    27
177
     3
291
     0
 70
    58
 90
        2
176
     1
 90
        2
176
     1
 90
        1
176
     1
 90
        2
176
     1
 40
0.6
176
     1
 40
30.0
176
     1
 62
     7
420
 16777215
176
     1
 90
        0
176
     1
 90
        4
176
     1
 62
     7
176
     1
 62
   257
176
     1
 90
        1
176
     1
 90
        1
176
     1
 40
1.0
176
     1
 90
        8
176
     1
 62
   257
176
     1
 40
1.0
176
     1
 90
        1
176
     1
 90
        6
176
     1
 90
        2
176
     1
 62
     8
420
  7895160
176
     1
 90
        3
176
     1
 90
        0
176
     1
 90
        0
176
     1
290
     0
176
     1
 90
        5
176
     1
 40
0.0
176
     1
 90
        0
176
     1
290
     0
176
     1
290
     1
176
     1
290
     1
176
     1
290
     0
176
     1
290
     0
176
     1
290
     0
176
     1
290
     0
176
     1
290
     0
176
     1
290
     0
176
     1
 90
       50
176
     1
 40
0.0
176
     1
 40
1.0
176
     1
 90
        0
176
     1
 62
    18
420
        0
176
     1
 90
       50
176
     1
 90
        3
176
     1
 62
     5
420
      255
176
     1
290
     0
176
     1
 90
       50
176
     1
 90
       50
176
     1
 90
       50
176
     1
290
     0
176
     1
 90
       50
176
     1
 62
   256
176
     0
 40
1.0
176
     0
 90
        2
176
     1
  1
strokes_ogs.tif
176
     1
290
     0
176
     1
 40
1.0
176
     1
 40
1.0
176
     1
  0
VISUALSTYLE
  5
41
102
{ACAD_REACTORS
330
2A
102
}
330
2A
100
AcDbVisualStyle
  2
Shaded with edges
 70
    26
177
     3
291
     0
 70
    58
 90
        2
176
     1
 90
        2
176
     1
 90
        1
176
     1
 90
        2
176
     1
 40
0.6
176
     1
 40
30.0
176
     1
 62
     7
420
 16777215
176
     1
 90
        1
176
     1
 90
        2
176
     1
 62
     7
176
     1
 62
   257
176
     1
 90
        2
176
     1
 90
        1
176
     1
 40
1.0
176
     1
 90
        8
176
     1
 62
   257
176
     1
 40
1.0
176
     1
 90
        1
176
     1
 90
        6
176
     1
 90
        2
176
     1
 62
     7
176
     1
 90
        3
176
     1
 90
        0
176
     1
 90
        0
176
     1
290
     0
176
     1
 90
        5
176
     1
 40
0.0
176
     1
 90
        0
176
     1
290
     0
176
     1
290
     1
176
     1
290
     1
176
     1
290
     0
176
     1
290
     0
176
     1
290
     0
176
     1
290
     0
176
     1
290
     0
176
     1
290
     0
176
     1
 90
       50
176
     1
 40
0.0
176
     1
 40
1.0
176
     1
 90
        0
176
     1
 62
    18
420
        0
176
     1
 90
       50
176
     1
 90
        3
176
     1
 62
     5
420
      255
176
     1
290
     0
176
     1
 90
       50
176
     1
 90
       50
176
     1
 90
       50
176
     1
290
     0
176
     1
 90
       50
176
     1
 62
   256
176
     0
 40
1.0
176
     0
 90
        2
176
     1
  1
strokes_ogs.tif
176
     1
290
     0
176
     1
 40
1.0
176
     1
 40
1.0
176
     1
  0
VISUALSTYLE
  5
3E
102
{ACAD_REACTORS
330
2A
102
}
330
2A
100
AcDbVisualStyle
  2
Shades of Gray
 70
    23
177
     3
291
     0
 70
    58
 90
        2
176
     1
 90
        2
176
     1
 90
        3
176
     1
 90
        0
176
     1
 40
0.6
176
     1
 40
30.0
176
     1
 62
     7
420
 16777215
176
     1
 90
        2
176
     1
 90
        2
176
     1
 62
     7
176
     1
 62
     7
176
     1
 90
        1
176
     1
 90
        1
176
     1
 40
40.0
176
     1
 90
        8
176
     1
 62
     7
176
     1
 40
1.0
176
     1
 90
        1
176
     1
 90
        6
176
     1
 90
        2
176
     1
 62
     7
176
     1
 90
        3
176
     1
 90
        0
176
     1
 90
        0
176
     1
290
     0
176
     1
 90
        1
176
     1
 40
0.0
176
     1
 90
        0
176
     1
290
     0
176
     1
290
     1
176
     1
290
     1
176
     1
290
     0
176
     1
290
     0
176
     1
290
     0
176
     1
290
     0
176
     1
290
     0
176
     1
290
     0
176
     1
 90
       50
176
     1
 40
0.0
176
     1
 40
1.0
176
     1
 90
        0
176
     1
 62
    18
420
        0
176
     1
 90
       50
176
     1
 90
        3
176
     1
 62
     5
420
      255
176
     1
290
     0
176
     1
 90
       50
176
     1
 90
       50
176
     1
 90
       50
176
     1
290
     0
176
     1
 90
       50
176
     1
 62
   256
176
     0
 40
1.0
176
     0
 90
        2
176
     1
  1
strokes_ogs.tif
176
     1
290
     0
176
     1
 40
1.0
176
     1
 40
1.0
176
     1
  0
VISUALSTYLE
  5
3F
102
{ACAD_REACTORS
330
2A
102
}
330
2A
100
AcDbVisualStyle
  2
Sketchy
 70
    24
177
     3
291
     0
 70
    58
 90
        1
176
     1
 90
        2
176
     1
 90
        2
176
     1
 90
        0
176
     1
 40
0.6
176
     1
 40
30.0
176
     1
 62
     7
420
 16777215
176
     1
 90
        2
176
     1
 90
        2
176
     1
 62
     7
176
     1
 62
     7
176
     1
 90
        1
176
     1
 90
        1
176
     1
 40
40.0
176
     1
 90
       11
176
     1
 62
     7
176
     1
 40
1.0
176
     1
 90
        1
176
     1
 90
        6
176
     1
 90
        2
176
     1
 62
     7
176
     1
 90
        6
176
     1
 90
        0
176
     1
 90
        0
176
     1
290
     0
176
     1
 90
        1
176
     1
 40
0.0
176
     1
 90
        0
176
     1
290
     0
176
     1
290
     1
176
     1
290
     1
176
     1
290
     0
176
     1
290
     0
176
     1
290
     0
176
     1
290
     0
176
     1
290
     0
176
     1
290
     0
176
     1
 90
       50
176
     1
 40
0.0
176
     1
 40
1.0
176
     1
 90
        0
176
     1
 62
    18
420
        0
176
     1
 90
       50
176
     1
 90
        3
176
     1
 62
     5
420
      255
176
     1
290
     0
176
     1
 90
       50
176
     1
 90
       50
176
     1
 90
       50
176
     1
290
     0
176
     1
 90
       50
176
     1
 62
   256
176
     0
 40
1.0
176
     0
 90
        2
176
     1
  1
strokes_ogs.tif
176
     1
290
     0
176
     1
 40
1.0
176
     1
 40
1.0
176
     1
  0
VISUALSTYLE
  5
37
102
{ACAD_REACTORS
330
2A
102
}
330
2A
100
AcDbVisualStyle
  2
Thicken
 70
    13
177
     3
291
     1
 70
    58
 90
        2
176
     1
 90
        2
176
     1
 90
        0
176
     1
 90
        0
176
     1
 40
0.6
176
     1
 40
30.0
176
     1
 62
     7
420
 16777215
176
     1
 90
        1
176
     1
 90
        4
176
     1
 62
     7
176
     1
 62
   257
176
     1
 90
        1
176
     1
 90
        1
176
     1
 40
1.0
176
     1
 90
       12
176
     1
 62
     7
176
     1
 40
1.0
176
     1
 90
        1
176
     1
 90
        6
176
     1
 90
        2
176
     1
 62
     7
176
     1
 90
        5
176
     1
 90
        0
176
     1
 90
        0
176
     1
290
     0
176
     1
 90
        1
176
     1
 40
0.0
176
     1
 90
        0
176
     1
290
     0
176
     1
290
     1
176
     1
290
     1
176
     1
290
     0
176
     1
290
     0
176
     1
290
     0
176
     1
290
     0
176
     1
290
     0
176
     1
290
     0
176
     1
 90
       50
176
     1
 40
0.0
176
     1
 40
1.0
176
     1
 90
        0
176
     1
 62
    18
420
        0
176
     1
 90
       50
176
     1
 90
        3
176
     1
 62
     5
420
      255
176
     1
290
     0
176
     1
 90
       50
176
     1
 90
       50
176
     1
 90
       50
176
     1
290
     0
176
     1
 90
       50
176
     1
 62
   256
176
     0
 40
1.0
176
     0
 90
        2
176
     1
  1
strokes_ogs.tif
176
     1
290
     0
176
     1
 40
1.0
176
     1
 40
1.0
176
     1
  0
VISUALSTYLE
  5
30
102
{ACAD_REACTORS
330
2A
102
}
330
2A
100
AcDbVisualStyle
  2
Wireframe
 70
     5
177
     3
291
     0
 70
    58
 90
        0
176
     1
 90
        2
176
     1
 90
        0
176
     1
 90
        0
176
     1
 40
0.6
176
     1
 40
30.0
176
     1
 62
     7
420
 16777215
176
     1
 90
        1
176
     1
 90
        4
176
     1
 62
     7
176
     1
 62
   257
176
     1
 90
        1
176
     1
 90
        1
176
     1
 40
1.0
176
     1
 90
        0
176
     1
 62
   257
176
     1
 40
1.0
176
     1
 90
        1
176
     1
 90
        6
176
     1
 90
        2
176
     1
 62
     7
176
     1
 90
        3
176
     1
 90
        0
176
     1
 90
        0
176
     1
290
     0
176
     1
 90
        1
176
     1
 40
0.0
176
     1
 90
        0
176
     1
290
     0
176
     1
290
     1
176
     1
290
     1
176
     1
290
     0
176
     1
290
     0
176
     1
290
     0
176
     1
290
     0
176
     1
290
     0
176
     1
290
     0
176
     1
 90
       50
176
     1
 40
0.0
176
     1
 40
1.0
176
     1
 90
        0
176
     1
 62
    18
420
        0
176
     1
 90
       50
176
     1
 90
        3
176
     1
 62
     5
420
      255
176
     1
290
     0
176
     1
 90
       50
176
     1
 90
       50
176
     1
 90
       50
176
     1
290
     0
176
     1
 90
       50
176
     1
 62
   256
176
     0
 40
1.0
176
     0
 90
        2
176
     1
  1
strokes_ogs.tif
176
     1
290
     0
176
     1
 40
1.0
176
     1
 40
1.0
176
     1
  0
VISUALSTYLE
  5
40
102
{ACAD_REACTORS
330
2A
102
}
330
2A
100
AcDbVisualStyle
  2
X-Ray
 70
    25
177
     3
291
     0
 70
    58
 90
        2
176
     1
 90
        2
176
     1
 90
        1
176
     1
 90
        1
176
     1
 40
0.5
176
     1
 40
30.0
176
     1
 62
     7
420
 16777215
176
     1
 90
        1
176
     1
 90
        0
176
     1
 62
     7
176
     1
 62
   257
176
     1
 90
        1
176
     1
 90
        1
176
     1
 40
1.0
176
     1
 90
        8
176
     1
 62
     7
176
     1
 40
1.0
176
     1
 90
        1
176
     1
 90
        6
176
     1
 90
        2
176
     1
 62
     7
176
     1
 90
        3
176
     1
 90
        0
176
     1
 90
        0
176
     1
290
     0
176
     1
 90
       13
176
     1
 40
0.0
176
     1
 90
        0
176
     1
290
     0
176
     1
290
     1
176
     1
290
     1
176
     1
290
     0
176
     1
290
     0
176
     1
290
     0
176
     1
290
     0
176
     1
290
     0
176
     1
290
     0
176
     1
 90
       50
176
     1
 40
0.0
176
     1
 40
1.0
176
     1
 90
        0
176
     1
 62
    18
420
        0
176
     1
 90
       50
176
     1
 90
        3
176
     1
 62
     5
420
      255
176
     1
290
     0
176
     1
 90
       50
176
     1
 90
       50
176
     1
 90
       50
176
     1
290
     0
176
     1
 90
       50
176
     1
 62
   256
176
     0
 40
1.0
176
     0
 90
        2
176
     1
  1
strokes_ogs.tif
176
     1
290
     0
176
     1
 40
1.0
176
     1
 40
1.0
176
     1
  0
DICTIONARYVAR
  5
3D1
102
{ACAD_REACTORS
330
3D0
102
}
330
3D0
100
DictionaryVariables
280
     0
  1
1:1
  0
DICTIONARYVAR
  5
412
102
{ACAD_REACTORS
330
3D0
102
}
330
3D0
100
DictionaryVariables
280
     0
  1
STANDARD
  0
DICTIONARYVAR
  5
411
102
{ACAD_REACTORS
330
3D0
102
}
330
3D0
100
DictionaryVariables
280
     0
  1
STANDARD
  0
DICTIONARYVAR
  5
427
102
{ACAD_REACTORS
330
3D0
102
}
330
3D0
100
DictionaryVariables
280
     0
  1
Imperial24
  0
DICTIONARYVAR
  5
428
102
{ACAD_REACTORS
330
3D0
102
}
330
3D0
100
DictionaryVariables
280
     0
  1
Imperial24
  0
DICTIONARYVAR
  5
42A
102
{ACAD_REACTORS
330
3D0
102
}
330
3D0
100
DictionaryVariables
280
     0
  1
1
  0
DICTIONARYVAR
  5
42B
102
{ACAD_REACTORS
330
3D0
102
}
330
3D0
100
DictionaryVariables
280
     0
  1
15
  0
DICTIONARYVAR
  5
429
102
{ACAD_REACTORS
330
3D0
102
}
330
3D0
100
DictionaryVariables
280
     0
  1
0
  0
DICTIONARYVAR
  5
3D2
102
{ACAD_REACTORS
330
3D0
102
}
330
3D0
100
DictionaryVariables
280
     0
  1
1
  0
DICTIONARY
  5
40A
330
6A
100
AcDbDictionary
280
     1
281
     1
  3
ACAD_ROUNDTRIP_2008_TABLESTYLE_CELLSTYLEMAP
360
42C
  0
CELLSTYLEMAP
  5
42C
102
{ACAD_REACTORS
330
40A
102
}
330
40A
100
AcDbCellStyleMap
 90
        3
300
CELLSTYLE
  1
TABLEFORMAT_BEGIN
 90
        5
170
     1
 91
        0
 92
    32768
 62
   257
 93
        1
300
CONTENTFORMAT
  1
CONTENTFORMAT_BEGIN
 90
        0
 91
        0
 92
        4
 93
        0
300

 40
0.0
140
1.0
 94
        5
 62
     0
340
11
144
0.25
309
CONTENTFORMAT_END
171
     1
301
MARGIN
  1
CELLMARGIN_BEGIN
 40
0.06
 40
0.06
 40
0.06
 40
0.06
 40
0.06
 40
0.06
309
CELLMARGIN_END
 94
        6
 95
        1
302
GRIDFORMAT
  1
GRIDFORMAT_BEGIN
 90
        0
 91
        1
 62
     0
 92
       -2
340
14
 93
        0
 40
0.045
309
GRIDFORMAT_END
 95
        2
302
GRIDFORMAT
  1
GRIDFORMAT_BEGIN
 90
        0
 91
        1
 62
     0
 92
       -2
340
14
 93
        0
 40
0.045
309
GRIDFORMAT_END
 95
        4
302
GRIDFORMAT
  1
GRIDFORMAT_BEGIN
 90
        0
 91
        1
 62
     0
 92
       -2
340
14
 93
        0
 40
0.045
309
GRIDFORMAT_END
 95
        8
302
GRIDFORMAT
  1
GRIDFORMAT_BEGIN
 90
        0
 91
        1
 62
     0
 92
       -2
340
14
 93
        0
 40
0.045
309
GRIDFORMAT_END
 95
       16
302
GRIDFORMAT
  1
GRIDFORMAT_BEGIN
 90
        0
 91
        1
 62
     0
 92
       -2
340
14
 93
        0
 40
0.045
309
GRIDFORMAT_END
 95
       32
302
GRIDFORMAT
  1
GRIDFORMAT_BEGIN
 90
        0
 91
        1
 62
     0
 92
       -2
340
14
 93
        0
 40
0.045
309
GRIDFORMAT_END
309
TABLEFORMAT_END
  1
CELLSTYLE_BEGIN
 90
        1
 91
        1
300
_TITLE
309
CELLSTYLE_END
300
CELLSTYLE
  1
TABLEFORMAT_BEGIN
 90
        5
170
     1
 91
        0
 92
        0
 62
   257
 93
        1
300
CONTENTFORMAT
  1
CONTENTFORMAT_BEGIN
 90
        0
 91
        0
 92
        4
 93
        0
300

 40
0.0
140
1.0
 94
        5
 62
     0
340
11
144
0.18
309
CONTENTFORMAT_END
171
     1
301
MARGIN
  1
CELLMARGIN_BEGIN
 40
0.06
 40
0.06
 40
0.06
 40
0.06
 40
0.06
 40
0.06
309
CELLMARGIN_END
 94
        6
 95
        1
302
GRIDFORMAT
  1
GRIDFORMAT_BEGIN
 90
        0
 91
        1
 62
     0
 92
       -2
340
14
 93
        0
 40
0.045
309
GRIDFORMAT_END
 95
        2
302
GRIDFORMAT
  1
GRIDFORMAT_BEGIN
 90
        0
 91
        1
 62
     0
 92
       -2
340
14
 93
        0
 40
0.045
309
GRIDFORMAT_END
 95
        4
302
GRIDFORMAT
  1
GRIDFORMAT_BEGIN
 90
        0
 91
        1
 62
     0
 92
       -2
340
14
 93
        0
 40
0.045
309
GRIDFORMAT_END
 95
        8
302
GRIDFORMAT
  1
GRIDFORMAT_BEGIN
 90
        0
 91
        1
 62
     0
 92
       -2
340
14
 93
        0
 40
0.045
309
GRIDFORMAT_END
 95
       16
302
GRIDFORMAT
  1
GRIDFORMAT_BEGIN
 90
        0
 91
        1
 62
     0
 92
       -2
340
14
 93
        0
 40
0.045
309
GRIDFORMAT_END
 95
       32
302
GRIDFORMAT
  1
GRIDFORMAT_BEGIN
 90
        0
 91
        1
 62
     0
 92
       -2
340
14
 93
        0
 40
0.045
309
GRIDFORMAT_END
309
TABLEFORMAT_END
  1
CELLSTYLE_BEGIN
 90
        2
 91
        1
300
_HEADER
309
CELLSTYLE_END
300
CELLSTYLE
  1
TABLEFORMAT_BEGIN
 90
        5
170
     1
 91
        0
 92
        0
 62
   257
 93
        1
300
CONTENTFORMAT
  1
CONTENTFORMAT_BEGIN
 90
        0
 91
        0
 92
        4
 93
        0
300

 40
0.0
140
1.0
 94
        2
 62
     0
340
11
144
0.18
309
CONTENTFORMAT_END
171
     1
301
MARGIN
  1
CELLMARGIN_BEGIN
 40
0.06
 40
0.06
 40
0.06
 40
0.06
 40
0.06
 40
0.06
309
CELLMARGIN_END
 94
        6
 95
        1
302
GRIDFORMAT
  1
GRIDFORMAT_BEGIN
 90
        0
 91
        1
 62
     0
 92
       -2
340
14
 93
        0
 40
0.045
309
GRIDFORMAT_END
 95
        2
302
GRIDFORMAT
  1
GRIDFORMAT_BEGIN
 90
        0
 91
        1
 62
     0
 92
       -2
340
14
 93
        0
 40
0.045
309
GRIDFORMAT_END
 95
        4
302
GRIDFORMAT
  1
GRIDFORMAT_BEGIN
 90
        0
 91
        1
 62
     0
 92
       -2
340
14
 93
        0
 40
0.045
309
GRIDFORMAT_END
 95
        8
302
GRIDFORMAT
  1
GRIDFORMAT_BEGIN
 90
        0
 91
        1
 62
     0
 92
       -2
340
14
 93
        0
 40
0.045
309
GRIDFORMAT_END
 95
       16
302
GRIDFORMAT
  1
GRIDFORMAT_BEGIN
 90
        0
 91
        1
 62
     0
 92
       -2
340
14
 93
        0
 40
0.045
309
GRIDFORMAT_END
 95
       32
302
GRIDFORMAT
  1
GRIDFORMAT_BEGIN
 90
        0
 91
        1
 62
     0
 92
       -2
340
14
 93
        0
 40
0.045
309
GRIDFORMAT_END
309
TABLEFORMAT_END
  1
CELLSTYLE_BEGIN
 90
        3
 91
        2
300
_DATA
309
CELLSTYLE_END
  0
ENDSEC
  0
EOF
