  0
SECTION
  2
HEADER
  9
$ACADVER
  1
AC1012
  9
$DWGCODEPAGE
  3
ANSI_1252
  9
$INSBASE
 10
0.0
 20
0.0
 30
0.0
  9
$EXTMIN
 10
1.254821806744232
 20
4.409362819056681
 30
-0.0000000349181948
  9
$EXTMAX
 10
4.826293964900884
 20
5.982467668809075
 30
0.0000000814935746
  9
$LIMMIN
 10
0.0
 20
0.0
  9
$LIMMAX
 10
12.0
 20
9.0
  9
$ORTHOMODE
 70
     1
  9
$REGENMODE
 70
     1
  9
$FILLMODE
 70
     1
  9
$QTEXTMODE
 70
     0
  9
$MIRRTEXT
 70
     1
  9
$DRAGMODE
 70
     2
  9
$LTSCALE
 40
1.0
  9
$OSMODE
 70
    33
  9
$ATTMODE
 70
     1
  9
$TEXTSIZE
 40
0.2
  9
$TRACEWID
 40
0.05
  9
$TEXTSTYLE
  7
STANDARD
  9
$CLAYER
  8
0
  9
$CELTYPE
  6
BYLAYER
  9
$CECOLOR
 62
   256
  9
$CELTSCALE
 40
1.0
  9
$DELOBJ
 70
     1
  9
$DISPSILH
 70
     0
  9
$DIMSCALE
 40
1.0
  9
$DIMASZ
 40
0.18
  9
$DIMEXO
 40
0.0625
  9
$DIMDLI
 40
0.38
  9
$DIMRND
 40
0.0
  9
$DIMDLE
 40
0.0
  9
$DIMEXE
 40
0.18
  9
$DIMTP
 40
0.0
  9
$DIMTM
 40
0.0
  9
$DIMTXT
 40
0.18
  9
$DIMCEN
 40
0.09
  9
$DIMTSZ
 40
0.0
  9
$DIMTOL
 70
     0
  9
$DIMLIM
 70
     0
  9
$DIMTIH
 70
     1
  9
$DIMTOH
 70
     1
  9
$DIMSE1
 70
     0
  9
$DIMSE2
 70
     0
  9
$DIMTAD
 70
     0
  9
$DIMZIN
 70
     0
  9
$DIMBLK
  1

  9
$DIMASO
 70
     1
  9
$DIMSHO
 70
     1
  9
$DIMPOST
  1

  9
$DIMAPOST
  1

  9
$DIMALT
 70
     0
  9
$DIMALTD
 70
     2
  9
$DIMALTF
 40
25.4
  9
$DIMLFAC
 40
1.0
  9
$DIMTOFL
 70
     0
  9
$DIMTVP
 40
0.0
  9
$DIMTIX
 70
     0
  9
$DIMSOXD
 70
     0
  9
$DIMSAH
 70
     0
  9
$DIMBLK1
  1

  9
$DIMBLK2
  1

  9
$DIMSTYLE
  2
STANDARD
  9
$DIMCLRD
 70
     0
  9
$DIMCLRE
 70
     0
  9
$DIMCLRT
 70
     0
  9
$DIMTFAC
 40
1.0
  9
$DIMGAP
 40
0.09
  9
$DIMJUST
 70
     0
  9
$DIMSD1
 70
     0
  9
$DIMSD2
 70
     0
  9
$DIMTOLJ
 70
     1
  9
$DIMTZIN
 70
     0
  9
$DIMALTZ
 70
     0
  9
$DIMALTTZ
 70
     0
  9
$DIMFIT
 70
     5
  9
$DIMUPT
 70
     0
  9
$DIMUNIT
 70
     2
  9
$DIMDEC
 70
     4
  9
$DIMTDEC
 70
     4
  9
$DIMALTU
 70
     2
  9
$DIMALTTD
 70
     2
  9
$DIMTXSTY
  7
STANDARD
  9
$DIMAUNIT
 70
     0
  9
$LUNITS
 70
     2
  9
$LUPREC
 70
     4
  9
$SKETCHINC
 40
0.1
  9
$FILLETRAD
 40
0.0
  9
$AUNITS
 70
     0
  9
$AUPREC
 70
     0
  9
$MENU
  1
acad
  9
$ELEVATION
 40
0.0
  9
$PELEVATION
 40
0.0
  9
$THICKNESS
 40
0.0
  9
$LIMCHECK
 70
     0
  9
$BLIPMODE
 70
     0
  9
$CHAMFERA
 40
0.0
  9
$CHAMFERB
 40
0.0
  9
$CHAMFERC
 40
0.0
  9
$CHAMFERD
 40
0.0
  9
$SKPOLY
 70
     0
  9
$TDCREATE
 40
2452255.299548611
  9
$TDUPDATE
 40
2452338.608329768
  9
$TDINDWG
 40
0.0011767593
  9
$TDUSRTIMER
 40
0.0011767593
  9
$USRTIMER
 70
     1
  9
$ANGBASE
 50
0.0
  9
$ANGDIR
 70
     0
  9
$PDMODE
 70
     0
  9
$PDSIZE
 40
0.0
  9
$PLINEWID
 40
0.0
  9
$COORDS
 70
     2
  9
$SPLFRAME
 70
     0
  9
$SPLINETYPE
 70
     6
  9
$SPLINESEGS
 70
     8
  9
$ATTDIA
 70
     0
  9
$ATTREQ
 70
     1
  9
$HANDLING
 70
  4097
  9
$HANDSEED
  5
3BF2
  9
$SURFTAB1
 70
     6
  9
$SURFTAB2
 70
     6
  9
$SURFTYPE
 70
     6
  9
$SURFU
 70
     6
  9
$SURFV
 70
     6
  9
$UCSNAME
  2

  9
$UCSORG
 10
0.0
 20
0.0
 30
0.0
  9
$UCSXDIR
 10
1.0
 20
0.0
 30
0.0
  9
$UCSYDIR
 10
0.0
 20
1.0
 30
0.0
  9
$PUCSNAME
  2

  9
$PUCSORG
 10
0.0
 20
0.0
 30
0.0
  9
$PUCSXDIR
 10
1.0
 20
0.0
 30
0.0
  9
$PUCSYDIR
 10
0.0
 20
1.0
 30
0.0
  9
$USERI1
 70
     0
  9
$USERI2
 70
     0
  9
$USERI3
 70
     0
  9
$USERI4
 70
     0
  9
$USERI5
 70
     0
  9
$USERR1
 40
0.0
  9
$USERR2
 40
0.0
  9
$USERR3
 40
0.0
  9
$USERR4
 40
0.0
  9
$USERR5
 40
0.0
  9
$WORLDVIEW
 70
     1
  9
$SHADEDGE
 70
     3
  9
$SHADEDIF
 70
    70
  9
$TILEMODE
 70
     1
  9
$MAXACTVP
 70
    16
  9
$PINSBASE
 10
0.0
 20
0.0
 30
0.0
  9
$PLIMCHECK
 70
     0
  9
$PEXTMIN
 10
1.000000000000000E+20
 20
1.000000000000000E+20
 30
1.000000000000000E+20
  9
$PEXTMAX
 10
-1.000000000000000E+20
 20
-1.000000000000000E+20
 30
-1.000000000000000E+20
  9
$PLIMMIN
 10
0.0
 20
0.0
  9
$PLIMMAX
 10
12.0
 20
9.0
  9
$UNITMODE
 70
     0
  9
$VISRETAIN
 70
     0
  9
$PLINEGEN
 70
     0
  9
$PSLTSCALE
 70
     1
  9
$TREEDEPTH
 70
  3020
  9
$PICKSTYLE
 70
     1
  9
$CMLSTYLE
  2
STANDARD
  9
$CMLJUST
 70
     0
  9
$CMLSCALE
 40
1.0
  9
$SAVEIMAGES
 70
     1
  0
ENDSEC
  0
SECTION
  2
CLASSES
  0
CLASS
  1
ACDBDICTIONARYWDFLT
  2
AcDbDictionaryWithDefault
  3
AutoCAD 2000
 90
    32768
280
     0
281
     0
  0
CLASS
  1
ACDBPLACEHOLDER
  2
AcDbPlaceHolder
  3
AutoCAD 2000
 90
    32768
280
     0
281
     0
  0
CLASS
  1
LAYOUT
  2
AcDbLayout
  3
AutoCAD 2000
 90
    32768
280
     0
281
     0
  0
CLASS
  1
LONG_TRANSACTION
  2
AcDbLongTransaction
  3
AutoCAD 2000
 90
    32768
280
     0
281
     0
  0
CLASS
  1
LWPOLYLINE
  2
AcDbPolyline
  3
AutoCAD 2000
 90
    32768
280
     0
281
     1
  0
CLASS
  1
HATCH
  2
AcDbHatch
  3
AutoCAD 2000
 90
    32768
280
     0
281
     1
  0
CLASS
  1
XRECORD
  2
AcDbXrecord
  3
AutoCAD 2000
 90
    32768
280
     0
281
     0
  0
CLASS
  1
LONG_TRANSACTION
  2
AcDbLongTransaction
  3
AutoCAD 2000
 90
    32768
280
     0
281
     0
  0
CLASS
  1
LWPOLYLINE
  2
AcDbPolyline
  3
AutoCAD 2000
 90
    32768
280
     0
281
     1
  0
CLASS
  1
HATCH
  2
AcDbHatch
  3
AutoCAD 2000
 90
    32768
280
     0
281
     1
  0
CLASS
  1
XRECORD
  2
AcDbXrecord
  3
AutoCAD 2000
 90
    32768
280
     0
281
     0
  0
ENDSEC
  0
SECTION
  2
TABLES
  0
TABLE
  2
VPORT
  5
8
330
0
100
AcDbSymbolTable
 70
     3
  0
VPORT
  5
3BEF
330
8
100
AcDbSymbolTableRecord
100
AcDbViewportTableRecord
  2
*ACTIVE
 70
     0
 10
0.0
 20
0.0
 11
1.0
 21
1.0
 12
3.040557885822558
 22
5.195915243932878
 13
0.0
 23
0.0
 14
1.0
 24
1.0
 15
0.0
 25
0.0
 16
0.0
 26
0.0
 36
1.0
 17
0.0
 27
0.0
 37
0.0
 40
2.240566362055574
 41
1.601839684625492
 42
50.0
 43
0.0
 44
0.0
 50
0.0
 51
0.0
 71
     0
 72
   100
 73
     1
 74
     1
 75
     0
 76
     0
 77
     0
 78
     0
  0
ENDTAB
  0
TABLE
  2
LTYPE
  5
5
330
0
100
AcDbSymbolTable
 70
    25
  0
LTYPE
  5
13
330
5
100
AcDbSymbolTableRecord
100
AcDbLinetypeTableRecord
  2
BYBLOCK
 70
     0
  3

 72
    65
 73
     0
 40
0.0
  0
LTYPE
  5
14
330
5
100
AcDbSymbolTableRecord
100
AcDbLinetypeTableRecord
  2
BYLAYER
 70
     0
  3

 72
    65
 73
     0
 40
0.0
  0
LTYPE
  5
15
330
5
100
AcDbSymbolTableRecord
100
AcDbLinetypeTableRecord
  2
CONTINUOUS
 70
     0
  3
Solid line
 72
    65
 73
     0
 40
0.0
  0
LTYPE
  5
22
330
5
100
AcDbSymbolTableRecord
100
AcDbLinetypeTableRecord
  2
BORDER
 70
     0
  3
__ __ . __ __ . __ __ . __ __ . __ __ . __ __ .
 72
    65
 73
     6
 40
1.75
 49
0.5
 74
     0
 49
-0.25
 74
     0
 49
0.5
 74
     0
 49
-0.25
 74
     0
 49
0.5
 74
     0
 49
-0.25
 74
     0
  0
LTYPE
  5
23
330
5
100
AcDbSymbolTableRecord
100
AcDbLinetypeTableRecord
  2
BORDER2
 70
     0
  3
__.__.__.__.__.__.__.__.__.__.__.__.__.__.__.__
 72
    65
 73
     6
 40
0.875
 49
0.25
 74
     0
 49
-0.125
 74
     0
 49
0.25
 74
     0
 49
-0.125
 74
     0
 49
0.25
 74
     0
 49
-0.125
 74
     0
  0
LTYPE
  5
24
330
5
100
AcDbSymbolTableRecord
100
AcDbLinetypeTableRecord
  2
BORDERX2
 70
     0
  3
____  ____  .  ____  ____  .  
 72
    65
 73
     6
 40
3.5
 49
1.0
 74
     0
 49
-0.5
 74
     0
 49
1.0
 74
     0
 49
-0.5
 74
     0
 49
1.0
 74
     0
 49
-0.5
 74
     0
  0
LTYPE
  5
25
330
5
100
AcDbSymbolTableRecord
100
AcDbLinetypeTableRecord
  2
CENTER
 70
     0
  3
____ _ ____ _ ____ _ ____ _ ____ _ ____ _ ____
 72
    65
 73
     4
 40
2.0
 49
1.25
 74
     0
 49
-0.25
 74
     0
 49
0.25
 74
     0
 49
-0.25
 74
     0
  0
LTYPE
  5
26
330
5
100
AcDbSymbolTableRecord
100
AcDbLinetypeTableRecord
  2
CENTER2
 70
     0
  3
____ _ ____ _ ____ _ ____ _ ____ _ ____ _ ____
 72
    65
 73
     4
 40
1.125
 49
0.75
 74
     0
 49
-0.125
 74
     0
 49
0.125
 74
     0
 49
-0.125
 74
     0
  0
LTYPE
  5
27
330
5
100
AcDbSymbolTableRecord
100
AcDbLinetypeTableRecord
  2
CENTERX2
 70
     0
  3
________  __  ________  __  ________  __  
 72
    65
 73
     4
 40
4.0
 49
2.5
 74
     0
 49
-0.5
 74
     0
 49
0.5
 74
     0
 49
-0.5
 74
     0
  0
LTYPE
  5
28
330
5
100
AcDbSymbolTableRecord
100
AcDbLinetypeTableRecord
  2
DASHDOT
 70
     0
  3
__ . __ . __ . __ . __ . __ . __ . 
 72
    65
 73
     4
 40
1.0
 49
0.5
 74
     0
 49
-0.25
 74
     0
 49
0.0
 74
     0
 49
-0.25
 74
     0
  0
LTYPE
  5
29
330
5
100
AcDbSymbolTableRecord
100
AcDbLinetypeTableRecord
  2
DASHDOT2
 70
     0
  3
_._._._._._._._._._._._._._._._.
 72
    65
 73
     4
 40
0.5
 49
0.25
 74
     0
 49
-0.125
 74
     0
 49
0.0
 74
     0
 49
-0.125
 74
     0
  0
LTYPE
  5
2A
330
5
100
AcDbSymbolTableRecord
100
AcDbLinetypeTableRecord
  2
DASHDOTX2
 70
     0
  3
____  .  ____  .  ____  .  ____  .  
 72
    65
 73
     4
 40
2.0
 49
1.0
 74
     0
 49
-0.5
 74
     0
 49
0.0
 74
     0
 49
-0.5
 74
     0
  0
LTYPE
  5
2B
330
5
100
AcDbSymbolTableRecord
100
AcDbLinetypeTableRecord
  2
DASHED
 70
     0
  3
__ __ __ __ __ __ __ __ __ __ __ __ 
 72
    65
 73
     2
 40
0.75
 49
0.5
 74
     0
 49
-0.25
 74
     0
  0
LTYPE
  5
2C
330
5
100
AcDbSymbolTableRecord
100
AcDbLinetypeTableRecord
  2
DASHED2
 70
     0
  3
_ _ _ _ _ _ _ _ _ _ _ _ _ _ _ _ _ _ 
 72
    65
 73
     2
 40
0.375
 49
0.25
 74
     0
 49
-0.125
 74
     0
  0
LTYPE
  5
2D
330
5
100
AcDbSymbolTableRecord
100
AcDbLinetypeTableRecord
  2
DASHEDX2
 70
     0
  3
____  ____  ____  ____  ____  ____  
 72
    65
 73
     2
 40
1.5
 49
1.0
 74
     0
 49
-0.5
 74
     0
  0
LTYPE
  5
2E
330
5
100
AcDbSymbolTableRecord
100
AcDbLinetypeTableRecord
  2
DIVIDE
 70
     0
  3
____ . . ____ . . ____ . . ____ . . 
 72
    65
 73
     6
 40
1.25
 49
0.5
 74
     0
 49
-0.25
 74
     0
 49
0.0
 74
     0
 49
-0.25
 74
     0
 49
0.0
 74
     0
 49
-0.25
 74
     0
  0
LTYPE
  5
2F
330
5
100
AcDbSymbolTableRecord
100
AcDbLinetypeTableRecord
  2
DIVIDE2
 70
     0
  3
__..__..__..__..__..__..__..__..__..
 72
    65
 73
     6
 40
0.625
 49
0.25
 74
     0
 49
-0.125
 74
     0
 49
0.0
 74
     0
 49
-0.125
 74
     0
 49
0.0
 74
     0
 49
-0.125
 74
     0
  0
LTYPE
  5
30
330
5
100
AcDbSymbolTableRecord
100
AcDbLinetypeTableRecord
  2
DIVIDEX2
 70
     0
  3
________  .  .  ________  .  .  ________  .  . 
 72
    65
 73
     6
 40
2.5
 49
1.0
 74
     0
 49
-0.5
 74
     0
 49
0.0
 74
     0
 49
-0.5
 74
     0
 49
0.0
 74
     0
 49
-0.5
 74
     0
  0
LTYPE
  5
31
330
5
100
AcDbSymbolTableRecord
100
AcDbLinetypeTableRecord
  2
DOT
 70
     0
  3
. . . . . . . . . . . . . . . . . . 
 72
    65
 73
     2
 40
0.25
 49
0.0
 74
     0
 49
-0.25
 74
     0
  0
LTYPE
  5
32
330
5
100
AcDbSymbolTableRecord
100
AcDbLinetypeTableRecord
  2
DOT2
 70
     0
  3
....................................
 72
    65
 73
     2
 40
0.125
 49
0.0
 74
     0
 49
-0.125
 74
     0
  0
LTYPE
  5
33
330
5
100
AcDbSymbolTableRecord
100
AcDbLinetypeTableRecord
  2
DOTX2
 70
     0
  3
.  .  .  .  .  .  .  .  .  .  .  .  .  
 72
    65
 73
     2
 40
0.5
 49
0.0
 74
     0
 49
-0.5
 74
     0
  0
LTYPE
  5
34
330
5
100
AcDbSymbolTableRecord
100
AcDbLinetypeTableRecord
  2
HIDDEN
 70
     0
  3
__ __ __ __ __ __ __ __ __ __ __ __ 
 72
    65
 73
     2
 40
0.375
 49
0.25
 74
     0
 49
-0.125
 74
     0
  0
LTYPE
  5
35
330
5
100
AcDbSymbolTableRecord
100
AcDbLinetypeTableRecord
  2
HIDDEN2
 70
     0
  3
_ _ _ _ _ _ _ _ _ _ _ _ _ _ _ _ _ _ 
 72
    65
 73
     2
 40
0.1875
 49
0.125
 74
     0
 49
-0.0625
 74
     0
  0
LTYPE
  5
36
330
5
100
AcDbSymbolTableRecord
100
AcDbLinetypeTableRecord
  2
HIDDENX2
 70
     0
  3
____ ____ ____ ____ ____ ____ ____ 
 72
    65
 73
     2
 40
0.75
 49
0.5
 74
     0
 49
-0.25
 74
     0
  0
LTYPE
  5
37
330
5
100
AcDbSymbolTableRecord
100
AcDbLinetypeTableRecord
  2
PHANTOM
 70
     0
  3
______  __  __  ______  __  __  
 72
    65
 73
     6
 40
2.5
 49
1.25
 74
     0
 49
-0.25
 74
     0
 49
0.25
 74
     0
 49
-0.25
 74
     0
 49
0.25
 74
     0
 49
-0.25
 74
     0
  0
LTYPE
  5
38
330
5
100
AcDbSymbolTableRecord
100
AcDbLinetypeTableRecord
  2
PHANTOM2
 70
     0
  3
___ _ _ ___ _ _ ___ _ _ ___ _ _ 
 72
    65
 73
     6
 40
1.25
 49
0.625
 74
     0
 49
-0.125
 74
     0
 49
0.125
 74
     0
 49
-0.125
 74
     0
 49
0.125
 74
     0
 49
-0.125
 74
     0
  0
LTYPE
  5
39
330
5
100
AcDbSymbolTableRecord
100
AcDbLinetypeTableRecord
  2
PHANTOMX2
 70
     0
  3
___ _ _ ___ _ _ ___ _ _ ___ _ _ 
 72
    65
 73
     6
 40
5.0
 49
2.5
 74
     0
 49
-0.5
 74
     0
 49
0.5
 74
     0
 49
-0.5
 74
     0
 49
0.5
 74
     0
 49
-0.5
 74
     0
  0
ENDTAB
  0
TABLE
  2
LAYER
  5
2
330
0
100
AcDbSymbolTable
 70
   256
  0
LAYER
  5
10
330
2
100
AcDbSymbolTableRecord
100
AcDbLayerTableRecord
  2
0
 70
     0
 62
     7
  6
CONTINUOUS
  0
LAYER
  5
3A
330
2
100
AcDbSymbolTableRecord
100
AcDbLayerTableRecord
  2
1
 70
     0
 62
     1
  6
CONTINUOUS
  0
LAYER
  5
3B
330
2
100
AcDbSymbolTableRecord
100
AcDbLayerTableRecord
  2
2
 70
     0
 62
     2
  6
CONTINUOUS
  0
LAYER
  5
3C
330
2
100
AcDbSymbolTableRecord
100
AcDbLayerTableRecord
  2
3
 70
     0
 62
     3
  6
CONTINUOUS
  0
LAYER
  5
3D
330
2
100
AcDbSymbolTableRecord
100
AcDbLayerTableRecord
  2
4
 70
     0
 62
     4
  6
CONTINUOUS
  0
LAYER
  5
3E
330
2
100
AcDbSymbolTableRecord
100
AcDbLayerTableRecord
  2
5
 70
     0
 62
     5
  6
CONTINUOUS
  0
LAYER
  5
3F
330
2
100
AcDbSymbolTableRecord
100
AcDbLayerTableRecord
  2
6
 70
     0
 62
     6
  6
CONTINUOUS
  0
LAYER
  5
40
330
2
100
AcDbSymbolTableRecord
100
AcDbLayerTableRecord
  2
7
 70
     0
 62
     7
  6
CONTINUOUS
  0
LAYER
  5
41
330
2
100
AcDbSymbolTableRecord
100
AcDbLayerTableRecord
  2
8
 70
     0
 62
     8
  6
CONTINUOUS
  0
LAYER
  5
42
330
2
100
AcDbSymbolTableRecord
100
AcDbLayerTableRecord
  2
9
 70
     0
 62
     9
  6
CONTINUOUS
  0
LAYER
  5
43
330
2
100
AcDbSymbolTableRecord
100
AcDbLayerTableRecord
  2
10
 70
     0
 62
    10
  6
CONTINUOUS
  0
LAYER
  5
44
330
2
100
AcDbSymbolTableRecord
100
AcDbLayerTableRecord
  2
11
 70
     0
 62
    11
  6
CONTINUOUS
  0
LAYER
  5
45
330
2
100
AcDbSymbolTableRecord
100
AcDbLayerTableRecord
  2
12
 70
     0
 62
    12
  6
CONTINUOUS
  0
LAYER
  5
46
330
2
100
AcDbSymbolTableRecord
100
AcDbLayerTableRecord
  2
13
 70
     0
 62
    13
  6
CONTINUOUS
  0
LAYER
  5
47
330
2
100
AcDbSymbolTableRecord
100
AcDbLayerTableRecord
  2
14
 70
     0
 62
    14
  6
CONTINUOUS
  0
LAYER
  5
48
330
2
100
AcDbSymbolTableRecord
100
AcDbLayerTableRecord
  2
15
 70
     0
 62
    15
  6
CONTINUOUS
  0
LAYER
  5
49
330
2
100
AcDbSymbolTableRecord
100
AcDbLayerTableRecord
  2
16
 70
     0
 62
    16
  6
CONTINUOUS
  0
LAYER
  5
4A
330
2
100
AcDbSymbolTableRecord
100
AcDbLayerTableRecord
  2
17
 70
     0
 62
    17
  6
CONTINUOUS
  0
LAYER
  5
4B
330
2
100
AcDbSymbolTableRecord
100
AcDbLayerTableRecord
  2
18
 70
     0
 62
    18
  6
CONTINUOUS
  0
LAYER
  5
4C
330
2
100
AcDbSymbolTableRecord
100
AcDbLayerTableRecord
  2
19
 70
     0
 62
    19
  6
CONTINUOUS
  0
LAYER
  5
4D
330
2
100
AcDbSymbolTableRecord
100
AcDbLayerTableRecord
  2
20
 70
     0
 62
    20
  6
CONTINUOUS
  0
LAYER
  5
4E
330
2
100
AcDbSymbolTableRecord
100
AcDbLayerTableRecord
  2
21
 70
     0
 62
    21
  6
CONTINUOUS
  0
LAYER
  5
4F
330
2
100
AcDbSymbolTableRecord
100
AcDbLayerTableRecord
  2
22
 70
     0
 62
    22
  6
CONTINUOUS
  0
LAYER
  5
50
330
2
100
AcDbSymbolTableRecord
100
AcDbLayerTableRecord
  2
23
 70
     0
 62
    23
  6
CONTINUOUS
  0
LAYER
  5
51
330
2
100
AcDbSymbolTableRecord
100
AcDbLayerTableRecord
  2
24
 70
     0
 62
    24
  6
CONTINUOUS
  0
LAYER
  5
52
330
2
100
AcDbSymbolTableRecord
100
AcDbLayerTableRecord
  2
25
 70
     0
 62
    25
  6
CONTINUOUS
  0
LAYER
  5
53
330
2
100
AcDbSymbolTableRecord
100
AcDbLayerTableRecord
  2
26
 70
     0
 62
    26
  6
CONTINUOUS
  0
LAYER
  5
54
330
2
100
AcDbSymbolTableRecord
100
AcDbLayerTableRecord
  2
27
 70
     0
 62
    27
  6
CONTINUOUS
  0
LAYER
  5
55
330
2
100
AcDbSymbolTableRecord
100
AcDbLayerTableRecord
  2
28
 70
     0
 62
    28
  6
CONTINUOUS
  0
LAYER
  5
56
330
2
100
AcDbSymbolTableRecord
100
AcDbLayerTableRecord
  2
29
 70
     0
 62
    29
  6
CONTINUOUS
  0
LAYER
  5
57
330
2
100
AcDbSymbolTableRecord
100
AcDbLayerTableRecord
  2
30
 70
     0
 62
    30
  6
CONTINUOUS
  0
LAYER
  5
58
330
2
100
AcDbSymbolTableRecord
100
AcDbLayerTableRecord
  2
31
 70
     0
 62
    31
  6
CONTINUOUS
  0
LAYER
  5
59
330
2
100
AcDbSymbolTableRecord
100
AcDbLayerTableRecord
  2
32
 70
     0
 62
    32
  6
CONTINUOUS
  0
LAYER
  5
5A
330
2
100
AcDbSymbolTableRecord
100
AcDbLayerTableRecord
  2
33
 70
     0
 62
    33
  6
CONTINUOUS
  0
LAYER
  5
5B
330
2
100
AcDbSymbolTableRecord
100
AcDbLayerTableRecord
  2
34
 70
     0
 62
    34
  6
CONTINUOUS
  0
LAYER
  5
5C
330
2
100
AcDbSymbolTableRecord
100
AcDbLayerTableRecord
  2
35
 70
     0
 62
    35
  6
CONTINUOUS
  0
LAYER
  5
5D
330
2
100
AcDbSymbolTableRecord
100
AcDbLayerTableRecord
  2
36
 70
     0
 62
    36
  6
CONTINUOUS
  0
LAYER
  5
5E
330
2
100
AcDbSymbolTableRecord
100
AcDbLayerTableRecord
  2
37
 70
     0
 62
    37
  6
CONTINUOUS
  0
LAYER
  5
5F
330
2
100
AcDbSymbolTableRecord
100
AcDbLayerTableRecord
  2
38
 70
     0
 62
    38
  6
CONTINUOUS
  0
LAYER
  5
60
330
2
100
AcDbSymbolTableRecord
100
AcDbLayerTableRecord
  2
39
 70
     0
 62
    39
  6
CONTINUOUS
  0
LAYER
  5
61
330
2
100
AcDbSymbolTableRecord
100
AcDbLayerTableRecord
  2
40
 70
     0
 62
    40
  6
CONTINUOUS
  0
LAYER
  5
62
330
2
100
AcDbSymbolTableRecord
100
AcDbLayerTableRecord
  2
41
 70
     0
 62
    41
  6
CONTINUOUS
  0
LAYER
  5
63
330
2
100
AcDbSymbolTableRecord
100
AcDbLayerTableRecord
  2
42
 70
     0
 62
    42
  6
CONTINUOUS
  0
LAYER
  5
64
330
2
100
AcDbSymbolTableRecord
100
AcDbLayerTableRecord
  2
43
 70
     0
 62
    43
  6
CONTINUOUS
  0
LAYER
  5
65
330
2
100
AcDbSymbolTableRecord
100
AcDbLayerTableRecord
  2
44
 70
     0
 62
    44
  6
CONTINUOUS
  0
LAYER
  5
66
330
2
100
AcDbSymbolTableRecord
100
AcDbLayerTableRecord
  2
45
 70
     0
 62
    45
  6
CONTINUOUS
  0
LAYER
  5
67
330
2
100
AcDbSymbolTableRecord
100
AcDbLayerTableRecord
  2
46
 70
     0
 62
    46
  6
CONTINUOUS
  0
LAYER
  5
68
330
2
100
AcDbSymbolTableRecord
100
AcDbLayerTableRecord
  2
47
 70
     0
 62
    47
  6
CONTINUOUS
  0
LAYER
  5
69
330
2
100
AcDbSymbolTableRecord
100
AcDbLayerTableRecord
  2
48
 70
     0
 62
    48
  6
CONTINUOUS
  0
LAYER
  5
6A
330
2
100
AcDbSymbolTableRecord
100
AcDbLayerTableRecord
  2
49
 70
     0
 62
    49
  6
CONTINUOUS
  0
LAYER
  5
6B
330
2
100
AcDbSymbolTableRecord
100
AcDbLayerTableRecord
  2
50
 70
     0
 62
    50
  6
CONTINUOUS
  0
LAYER
  5
6C
330
2
100
AcDbSymbolTableRecord
100
AcDbLayerTableRecord
  2
51
 70
     0
 62
    51
  6
CONTINUOUS
  0
LAYER
  5
6D
330
2
100
AcDbSymbolTableRecord
100
AcDbLayerTableRecord
  2
52
 70
     0
 62
    52
  6
CONTINUOUS
  0
LAYER
  5
6E
330
2
100
AcDbSymbolTableRecord
100
AcDbLayerTableRecord
  2
53
 70
     0
 62
    53
  6
CONTINUOUS
  0
LAYER
  5
6F
330
2
100
AcDbSymbolTableRecord
100
AcDbLayerTableRecord
  2
54
 70
     0
 62
    54
  6
CONTINUOUS
  0
LAYER
  5
70
330
2
100
AcDbSymbolTableRecord
100
AcDbLayerTableRecord
  2
55
 70
     0
 62
    55
  6
CONTINUOUS
  0
LAYER
  5
71
330
2
100
AcDbSymbolTableRecord
100
AcDbLayerTableRecord
  2
56
 70
     0
 62
    56
  6
CONTINUOUS
  0
LAYER
  5
72
330
2
100
AcDbSymbolTableRecord
100
AcDbLayerTableRecord
  2
57
 70
     0
 62
    57
  6
CONTINUOUS
  0
LAYER
  5
73
330
2
100
AcDbSymbolTableRecord
100
AcDbLayerTableRecord
  2
58
 70
     0
 62
    58
  6
CONTINUOUS
  0
LAYER
  5
74
330
2
100
AcDbSymbolTableRecord
100
AcDbLayerTableRecord
  2
59
 70
     0
 62
    59
  6
CONTINUOUS
  0
LAYER
  5
75
330
2
100
AcDbSymbolTableRecord
100
AcDbLayerTableRecord
  2
60
 70
     0
 62
    60
  6
CONTINUOUS
  0
LAYER
  5
76
330
2
100
AcDbSymbolTableRecord
100
AcDbLayerTableRecord
  2
61
 70
     0
 62
    61
  6
CONTINUOUS
  0
LAYER
  5
77
330
2
100
AcDbSymbolTableRecord
100
AcDbLayerTableRecord
  2
62
 70
     0
 62
    62
  6
CONTINUOUS
  0
LAYER
  5
78
330
2
100
AcDbSymbolTableRecord
100
AcDbLayerTableRecord
  2
63
 70
     0
 62
    63
  6
CONTINUOUS
  0
LAYER
  5
79
330
2
100
AcDbSymbolTableRecord
100
AcDbLayerTableRecord
  2
64
 70
     0
 62
    64
  6
CONTINUOUS
  0
LAYER
  5
7A
330
2
100
AcDbSymbolTableRecord
100
AcDbLayerTableRecord
  2
65
 70
     0
 62
    65
  6
CONTINUOUS
  0
LAYER
  5
7B
330
2
100
AcDbSymbolTableRecord
100
AcDbLayerTableRecord
  2
66
 70
     0
 62
    66
  6
CONTINUOUS
  0
LAYER
  5
7C
330
2
100
AcDbSymbolTableRecord
100
AcDbLayerTableRecord
  2
67
 70
     0
 62
    67
  6
CONTINUOUS
  0
LAYER
  5
7D
330
2
100
AcDbSymbolTableRecord
100
AcDbLayerTableRecord
  2
68
 70
     0
 62
    68
  6
CONTINUOUS
  0
LAYER
  5
7E
330
2
100
AcDbSymbolTableRecord
100
AcDbLayerTableRecord
  2
69
 70
     0
 62
    69
  6
CONTINUOUS
  0
LAYER
  5
7F
330
2
100
AcDbSymbolTableRecord
100
AcDbLayerTableRecord
  2
70
 70
     0
 62
    70
  6
CONTINUOUS
  0
LAYER
  5
80
330
2
100
AcDbSymbolTableRecord
100
AcDbLayerTableRecord
  2
71
 70
     0
 62
    71
  6
CONTINUOUS
  0
LAYER
  5
81
330
2
100
AcDbSymbolTableRecord
100
AcDbLayerTableRecord
  2
72
 70
     0
 62
    72
  6
CONTINUOUS
  0
LAYER
  5
82
330
2
100
AcDbSymbolTableRecord
100
AcDbLayerTableRecord
  2
73
 70
     0
 62
    73
  6
CONTINUOUS
  0
LAYER
  5
83
330
2
100
AcDbSymbolTableRecord
100
AcDbLayerTableRecord
  2
74
 70
     0
 62
    74
  6
CONTINUOUS
  0
LAYER
  5
84
330
2
100
AcDbSymbolTableRecord
100
AcDbLayerTableRecord
  2
75
 70
     0
 62
    75
  6
CONTINUOUS
  0
LAYER
  5
85
330
2
100
AcDbSymbolTableRecord
100
AcDbLayerTableRecord
  2
76
 70
     0
 62
    76
  6
CONTINUOUS
  0
LAYER
  5
86
330
2
100
AcDbSymbolTableRecord
100
AcDbLayerTableRecord
  2
77
 70
     0
 62
    77
  6
CONTINUOUS
  0
LAYER
  5
87
330
2
100
AcDbSymbolTableRecord
100
AcDbLayerTableRecord
  2
78
 70
     0
 62
    78
  6
CONTINUOUS
  0
LAYER
  5
88
330
2
100
AcDbSymbolTableRecord
100
AcDbLayerTableRecord
  2
79
 70
     0
 62
    79
  6
CONTINUOUS
  0
LAYER
  5
89
330
2
100
AcDbSymbolTableRecord
100
AcDbLayerTableRecord
  2
80
 70
     0
 62
    80
  6
CONTINUOUS
  0
LAYER
  5
8A
330
2
100
AcDbSymbolTableRecord
100
AcDbLayerTableRecord
  2
81
 70
     0
 62
    81
  6
CONTINUOUS
  0
LAYER
  5
8B
330
2
100
AcDbSymbolTableRecord
100
AcDbLayerTableRecord
  2
82
 70
     0
 62
    82
  6
CONTINUOUS
  0
LAYER
  5
8C
330
2
100
AcDbSymbolTableRecord
100
AcDbLayerTableRecord
  2
83
 70
     0
 62
    83
  6
CONTINUOUS
  0
LAYER
  5
8D
330
2
100
AcDbSymbolTableRecord
100
AcDbLayerTableRecord
  2
84
 70
     0
 62
    84
  6
CONTINUOUS
  0
LAYER
  5
8E
330
2
100
AcDbSymbolTableRecord
100
AcDbLayerTableRecord
  2
85
 70
     0
 62
    85
  6
CONTINUOUS
  0
LAYER
  5
8F
330
2
100
AcDbSymbolTableRecord
100
AcDbLayerTableRecord
  2
86
 70
     0
 62
    86
  6
CONTINUOUS
  0
LAYER
  5
90
330
2
100
AcDbSymbolTableRecord
100
AcDbLayerTableRecord
  2
87
 70
     0
 62
    87
  6
CONTINUOUS
  0
LAYER
  5
91
330
2
100
AcDbSymbolTableRecord
100
AcDbLayerTableRecord
  2
88
 70
     0
 62
    88
  6
CONTINUOUS
  0
LAYER
  5
92
330
2
100
AcDbSymbolTableRecord
100
AcDbLayerTableRecord
  2
89
 70
     0
 62
    89
  6
CONTINUOUS
  0
LAYER
  5
93
330
2
100
AcDbSymbolTableRecord
100
AcDbLayerTableRecord
  2
90
 70
     0
 62
    90
  6
CONTINUOUS
  0
LAYER
  5
94
330
2
100
AcDbSymbolTableRecord
100
AcDbLayerTableRecord
  2
91
 70
     0
 62
    91
  6
CONTINUOUS
  0
LAYER
  5
95
330
2
100
AcDbSymbolTableRecord
100
AcDbLayerTableRecord
  2
92
 70
     0
 62
    92
  6
CONTINUOUS
  0
LAYER
  5
96
330
2
100
AcDbSymbolTableRecord
100
AcDbLayerTableRecord
  2
93
 70
     0
 62
    93
  6
CONTINUOUS
  0
LAYER
  5
97
330
2
100
AcDbSymbolTableRecord
100
AcDbLayerTableRecord
  2
94
 70
     0
 62
    94
  6
CONTINUOUS
  0
LAYER
  5
98
330
2
100
AcDbSymbolTableRecord
100
AcDbLayerTableRecord
  2
95
 70
     0
 62
    95
  6
CONTINUOUS
  0
LAYER
  5
99
330
2
100
AcDbSymbolTableRecord
100
AcDbLayerTableRecord
  2
96
 70
     0
 62
    96
  6
CONTINUOUS
  0
LAYER
  5
9A
330
2
100
AcDbSymbolTableRecord
100
AcDbLayerTableRecord
  2
97
 70
     0
 62
    97
  6
CONTINUOUS
  0
LAYER
  5
9B
330
2
100
AcDbSymbolTableRecord
100
AcDbLayerTableRecord
  2
98
 70
     0
 62
    98
  6
CONTINUOUS
  0
LAYER
  5
9C
330
2
100
AcDbSymbolTableRecord
100
AcDbLayerTableRecord
  2
99
 70
     0
 62
    99
  6
CONTINUOUS
  0
LAYER
  5
9D
330
2
100
AcDbSymbolTableRecord
100
AcDbLayerTableRecord
  2
100
 70
     0
 62
   100
  6
CONTINUOUS
  0
LAYER
  5
9E
330
2
100
AcDbSymbolTableRecord
100
AcDbLayerTableRecord
  2
101
 70
     0
 62
   101
  6
CONTINUOUS
  0
LAYER
  5
9F
330
2
100
AcDbSymbolTableRecord
100
AcDbLayerTableRecord
  2
102
 70
     0
 62
   102
  6
CONTINUOUS
  0
LAYER
  5
A0
330
2
100
AcDbSymbolTableRecord
100
AcDbLayerTableRecord
  2
103
 70
     0
 62
   103
  6
CONTINUOUS
  0
LAYER
  5
A1
330
2
100
AcDbSymbolTableRecord
100
AcDbLayerTableRecord
  2
104
 70
     0
 62
   104
  6
CONTINUOUS
  0
LAYER
  5
A2
330
2
100
AcDbSymbolTableRecord
100
AcDbLayerTableRecord
  2
105
 70
     0
 62
   105
  6
CONTINUOUS
  0
LAYER
  5
A3
330
2
100
AcDbSymbolTableRecord
100
AcDbLayerTableRecord
  2
106
 70
     0
 62
   106
  6
CONTINUOUS
  0
LAYER
  5
A4
330
2
100
AcDbSymbolTableRecord
100
AcDbLayerTableRecord
  2
107
 70
     0
 62
   107
  6
CONTINUOUS
  0
LAYER
  5
A5
330
2
100
AcDbSymbolTableRecord
100
AcDbLayerTableRecord
  2
108
 70
     0
 62
   108
  6
CONTINUOUS
  0
LAYER
  5
A6
330
2
100
AcDbSymbolTableRecord
100
AcDbLayerTableRecord
  2
109
 70
     0
 62
   109
  6
CONTINUOUS
  0
LAYER
  5
A7
330
2
100
AcDbSymbolTableRecord
100
AcDbLayerTableRecord
  2
110
 70
     0
 62
   110
  6
CONTINUOUS
  0
LAYER
  5
A8
330
2
100
AcDbSymbolTableRecord
100
AcDbLayerTableRecord
  2
111
 70
     0
 62
   111
  6
CONTINUOUS
  0
LAYER
  5
A9
330
2
100
AcDbSymbolTableRecord
100
AcDbLayerTableRecord
  2
112
 70
     0
 62
   112
  6
CONTINUOUS
  0
LAYER
  5
AA
330
2
100
AcDbSymbolTableRecord
100
AcDbLayerTableRecord
  2
113
 70
     0
 62
   113
  6
CONTINUOUS
  0
LAYER
  5
AB
330
2
100
AcDbSymbolTableRecord
100
AcDbLayerTableRecord
  2
114
 70
     0
 62
   114
  6
CONTINUOUS
  0
LAYER
  5
AC
330
2
100
AcDbSymbolTableRecord
100
AcDbLayerTableRecord
  2
115
 70
     0
 62
   115
  6
CONTINUOUS
  0
LAYER
  5
AD
330
2
100
AcDbSymbolTableRecord
100
AcDbLayerTableRecord
  2
116
 70
     0
 62
   116
  6
CONTINUOUS
  0
LAYER
  5
AE
330
2
100
AcDbSymbolTableRecord
100
AcDbLayerTableRecord
  2
117
 70
     0
 62
   117
  6
CONTINUOUS
  0
LAYER
  5
AF
330
2
100
AcDbSymbolTableRecord
100
AcDbLayerTableRecord
  2
118
 70
     0
 62
   118
  6
CONTINUOUS
  0
LAYER
  5
B0
330
2
100
AcDbSymbolTableRecord
100
AcDbLayerTableRecord
  2
119
 70
     0
 62
   119
  6
CONTINUOUS
  0
LAYER
  5
B1
330
2
100
AcDbSymbolTableRecord
100
AcDbLayerTableRecord
  2
120
 70
     0
 62
   120
  6
CONTINUOUS
  0
LAYER
  5
B2
330
2
100
AcDbSymbolTableRecord
100
AcDbLayerTableRecord
  2
121
 70
     0
 62
   121
  6
CONTINUOUS
  0
LAYER
  5
B3
330
2
100
AcDbSymbolTableRecord
100
AcDbLayerTableRecord
  2
122
 70
     0
 62
   122
  6
CONTINUOUS
  0
LAYER
  5
B4
330
2
100
AcDbSymbolTableRecord
100
AcDbLayerTableRecord
  2
123
 70
     0
 62
   123
  6
CONTINUOUS
  0
LAYER
  5
B5
330
2
100
AcDbSymbolTableRecord
100
AcDbLayerTableRecord
  2
124
 70
     0
 62
   124
  6
CONTINUOUS
  0
LAYER
  5
B6
330
2
100
AcDbSymbolTableRecord
100
AcDbLayerTableRecord
  2
125
 70
     0
 62
   125
  6
CONTINUOUS
  0
LAYER
  5
B7
330
2
100
AcDbSymbolTableRecord
100
AcDbLayerTableRecord
  2
126
 70
     0
 62
   126
  6
CONTINUOUS
  0
LAYER
  5
B8
330
2
100
AcDbSymbolTableRecord
100
AcDbLayerTableRecord
  2
127
 70
     0
 62
   127
  6
CONTINUOUS
  0
LAYER
  5
B9
330
2
100
AcDbSymbolTableRecord
100
AcDbLayerTableRecord
  2
128
 70
     0
 62
   128
  6
CONTINUOUS
  0
LAYER
  5
BA
330
2
100
AcDbSymbolTableRecord
100
AcDbLayerTableRecord
  2
129
 70
     0
 62
   129
  6
CONTINUOUS
  0
LAYER
  5
BB
330
2
100
AcDbSymbolTableRecord
100
AcDbLayerTableRecord
  2
130
 70
     0
 62
   130
  6
CONTINUOUS
  0
LAYER
  5
BC
330
2
100
AcDbSymbolTableRecord
100
AcDbLayerTableRecord
  2
131
 70
     0
 62
   131
  6
CONTINUOUS
  0
LAYER
  5
BD
330
2
100
AcDbSymbolTableRecord
100
AcDbLayerTableRecord
  2
132
 70
     0
 62
   132
  6
CONTINUOUS
  0
LAYER
  5
BE
330
2
100
AcDbSymbolTableRecord
100
AcDbLayerTableRecord
  2
133
 70
     0
 62
   133
  6
CONTINUOUS
  0
LAYER
  5
BF
330
2
100
AcDbSymbolTableRecord
100
AcDbLayerTableRecord
  2
134
 70
     0
 62
   134
  6
CONTINUOUS
  0
LAYER
  5
C0
330
2
100
AcDbSymbolTableRecord
100
AcDbLayerTableRecord
  2
135
 70
     0
 62
   135
  6
CONTINUOUS
  0
LAYER
  5
C1
330
2
100
AcDbSymbolTableRecord
100
AcDbLayerTableRecord
  2
136
 70
     0
 62
   136
  6
CONTINUOUS
  0
LAYER
  5
C2
330
2
100
AcDbSymbolTableRecord
100
AcDbLayerTableRecord
  2
137
 70
     0
 62
   137
  6
CONTINUOUS
  0
LAYER
  5
C3
330
2
100
AcDbSymbolTableRecord
100
AcDbLayerTableRecord
  2
138
 70
     0
 62
   138
  6
CONTINUOUS
  0
LAYER
  5
C4
330
2
100
AcDbSymbolTableRecord
100
AcDbLayerTableRecord
  2
139
 70
     0
 62
   139
  6
CONTINUOUS
  0
LAYER
  5
C5
330
2
100
AcDbSymbolTableRecord
100
AcDbLayerTableRecord
  2
140
 70
     0
 62
   140
  6
CONTINUOUS
  0
LAYER
  5
C6
330
2
100
AcDbSymbolTableRecord
100
AcDbLayerTableRecord
  2
141
 70
     0
 62
   141
  6
CONTINUOUS
  0
LAYER
  5
C7
330
2
100
AcDbSymbolTableRecord
100
AcDbLayerTableRecord
  2
142
 70
     0
 62
   142
  6
CONTINUOUS
  0
LAYER
  5
C8
330
2
100
AcDbSymbolTableRecord
100
AcDbLayerTableRecord
  2
143
 70
     0
 62
   143
  6
CONTINUOUS
  0
LAYER
  5
C9
330
2
100
AcDbSymbolTableRecord
100
AcDbLayerTableRecord
  2
144
 70
     0
 62
   144
  6
CONTINUOUS
  0
LAYER
  5
CA
330
2
100
AcDbSymbolTableRecord
100
AcDbLayerTableRecord
  2
145
 70
     0
 62
   145
  6
CONTINUOUS
  0
LAYER
  5
CB
330
2
100
AcDbSymbolTableRecord
100
AcDbLayerTableRecord
  2
146
 70
     0
 62
   146
  6
CONTINUOUS
  0
LAYER
  5
CC
330
2
100
AcDbSymbolTableRecord
100
AcDbLayerTableRecord
  2
147
 70
     0
 62
   147
  6
CONTINUOUS
  0
LAYER
  5
CD
330
2
100
AcDbSymbolTableRecord
100
AcDbLayerTableRecord
  2
148
 70
     0
 62
   148
  6
CONTINUOUS
  0
LAYER
  5
CE
330
2
100
AcDbSymbolTableRecord
100
AcDbLayerTableRecord
  2
149
 70
     0
 62
   149
  6
CONTINUOUS
  0
LAYER
  5
CF
330
2
100
AcDbSymbolTableRecord
100
AcDbLayerTableRecord
  2
150
 70
     0
 62
   150
  6
CONTINUOUS
  0
LAYER
  5
D0
330
2
100
AcDbSymbolTableRecord
100
AcDbLayerTableRecord
  2
151
 70
     0
 62
   151
  6
CONTINUOUS
  0
LAYER
  5
D1
330
2
100
AcDbSymbolTableRecord
100
AcDbLayerTableRecord
  2
152
 70
     0
 62
   152
  6
CONTINUOUS
  0
LAYER
  5
D2
330
2
100
AcDbSymbolTableRecord
100
AcDbLayerTableRecord
  2
153
 70
     0
 62
   153
  6
CONTINUOUS
  0
LAYER
  5
D3
330
2
100
AcDbSymbolTableRecord
100
AcDbLayerTableRecord
  2
154
 70
     0
 62
   154
  6
CONTINUOUS
  0
LAYER
  5
D4
330
2
100
AcDbSymbolTableRecord
100
AcDbLayerTableRecord
  2
155
 70
     0
 62
   155
  6
CONTINUOUS
  0
LAYER
  5
D5
330
2
100
AcDbSymbolTableRecord
100
AcDbLayerTableRecord
  2
156
 70
     0
 62
   156
  6
CONTINUOUS
  0
LAYER
  5
D6
330
2
100
AcDbSymbolTableRecord
100
AcDbLayerTableRecord
  2
157
 70
     0
 62
   157
  6
CONTINUOUS
  0
LAYER
  5
D7
330
2
100
AcDbSymbolTableRecord
100
AcDbLayerTableRecord
  2
158
 70
     0
 62
   158
  6
CONTINUOUS
  0
LAYER
  5
D8
330
2
100
AcDbSymbolTableRecord
100
AcDbLayerTableRecord
  2
159
 70
     0
 62
   159
  6
CONTINUOUS
  0
LAYER
  5
D9
330
2
100
AcDbSymbolTableRecord
100
AcDbLayerTableRecord
  2
160
 70
     0
 62
   160
  6
CONTINUOUS
  0
LAYER
  5
DA
330
2
100
AcDbSymbolTableRecord
100
AcDbLayerTableRecord
  2
161
 70
     0
 62
   161
  6
CONTINUOUS
  0
LAYER
  5
DB
330
2
100
AcDbSymbolTableRecord
100
AcDbLayerTableRecord
  2
162
 70
     0
 62
   162
  6
CONTINUOUS
  0
LAYER
  5
DC
330
2
100
AcDbSymbolTableRecord
100
AcDbLayerTableRecord
  2
163
 70
     0
 62
   163
  6
CONTINUOUS
  0
LAYER
  5
DD
330
2
100
AcDbSymbolTableRecord
100
AcDbLayerTableRecord
  2
164
 70
     0
 62
   164
  6
CONTINUOUS
  0
LAYER
  5
DE
330
2
100
AcDbSymbolTableRecord
100
AcDbLayerTableRecord
  2
165
 70
     0
 62
   165
  6
CONTINUOUS
  0
LAYER
  5
DF
330
2
100
AcDbSymbolTableRecord
100
AcDbLayerTableRecord
  2
166
 70
     0
 62
   166
  6
CONTINUOUS
  0
LAYER
  5
E0
330
2
100
AcDbSymbolTableRecord
100
AcDbLayerTableRecord
  2
167
 70
     0
 62
   167
  6
CONTINUOUS
  0
LAYER
  5
E1
330
2
100
AcDbSymbolTableRecord
100
AcDbLayerTableRecord
  2
168
 70
     0
 62
   168
  6
CONTINUOUS
  0
LAYER
  5
E2
330
2
100
AcDbSymbolTableRecord
100
AcDbLayerTableRecord
  2
169
 70
     0
 62
   169
  6
CONTINUOUS
  0
LAYER
  5
E3
330
2
100
AcDbSymbolTableRecord
100
AcDbLayerTableRecord
  2
170
 70
     0
 62
   170
  6
CONTINUOUS
  0
LAYER
  5
E4
330
2
100
AcDbSymbolTableRecord
100
AcDbLayerTableRecord
  2
171
 70
     0
 62
   171
  6
CONTINUOUS
  0
LAYER
  5
E5
330
2
100
AcDbSymbolTableRecord
100
AcDbLayerTableRecord
  2
172
 70
     0
 62
   172
  6
CONTINUOUS
  0
LAYER
  5
E6
330
2
100
AcDbSymbolTableRecord
100
AcDbLayerTableRecord
  2
173
 70
     0
 62
   173
  6
CONTINUOUS
  0
LAYER
  5
E7
330
2
100
AcDbSymbolTableRecord
100
AcDbLayerTableRecord
  2
174
 70
     0
 62
   174
  6
CONTINUOUS
  0
LAYER
  5
E8
330
2
100
AcDbSymbolTableRecord
100
AcDbLayerTableRecord
  2
175
 70
     0
 62
   175
  6
CONTINUOUS
  0
LAYER
  5
E9
330
2
100
AcDbSymbolTableRecord
100
AcDbLayerTableRecord
  2
176
 70
     0
 62
   176
  6
CONTINUOUS
  0
LAYER
  5
EA
330
2
100
AcDbSymbolTableRecord
100
AcDbLayerTableRecord
  2
177
 70
     0
 62
   177
  6
CONTINUOUS
  0
LAYER
  5
EB
330
2
100
AcDbSymbolTableRecord
100
AcDbLayerTableRecord
  2
178
 70
     0
 62
   178
  6
CONTINUOUS
  0
LAYER
  5
EC
330
2
100
AcDbSymbolTableRecord
100
AcDbLayerTableRecord
  2
179
 70
     0
 62
   179
  6
CONTINUOUS
  0
LAYER
  5
ED
330
2
100
AcDbSymbolTableRecord
100
AcDbLayerTableRecord
  2
180
 70
     0
 62
   180
  6
CONTINUOUS
  0
LAYER
  5
EE
330
2
100
AcDbSymbolTableRecord
100
AcDbLayerTableRecord
  2
181
 70
     0
 62
   181
  6
CONTINUOUS
  0
LAYER
  5
EF
330
2
100
AcDbSymbolTableRecord
100
AcDbLayerTableRecord
  2
182
 70
     0
 62
   182
  6
CONTINUOUS
  0
LAYER
  5
F0
330
2
100
AcDbSymbolTableRecord
100
AcDbLayerTableRecord
  2
183
 70
     0
 62
   183
  6
CONTINUOUS
  0
LAYER
  5
F1
330
2
100
AcDbSymbolTableRecord
100
AcDbLayerTableRecord
  2
184
 70
     0
 62
   184
  6
CONTINUOUS
  0
LAYER
  5
F2
330
2
100
AcDbSymbolTableRecord
100
AcDbLayerTableRecord
  2
185
 70
     0
 62
   185
  6
CONTINUOUS
  0
LAYER
  5
F3
330
2
100
AcDbSymbolTableRecord
100
AcDbLayerTableRecord
  2
186
 70
     0
 62
   186
  6
CONTINUOUS
  0
LAYER
  5
F4
330
2
100
AcDbSymbolTableRecord
100
AcDbLayerTableRecord
  2
187
 70
     0
 62
   187
  6
CONTINUOUS
  0
LAYER
  5
F5
330
2
100
AcDbSymbolTableRecord
100
AcDbLayerTableRecord
  2
188
 70
     0
 62
   188
  6
CONTINUOUS
  0
LAYER
  5
F6
330
2
100
AcDbSymbolTableRecord
100
AcDbLayerTableRecord
  2
189
 70
     0
 62
   189
  6
CONTINUOUS
  0
LAYER
  5
F7
330
2
100
AcDbSymbolTableRecord
100
AcDbLayerTableRecord
  2
190
 70
     0
 62
   190
  6
CONTINUOUS
  0
LAYER
  5
F8
330
2
100
AcDbSymbolTableRecord
100
AcDbLayerTableRecord
  2
191
 70
     0
 62
   191
  6
CONTINUOUS
  0
LAYER
  5
F9
330
2
100
AcDbSymbolTableRecord
100
AcDbLayerTableRecord
  2
192
 70
     0
 62
   192
  6
CONTINUOUS
  0
LAYER
  5
FA
330
2
100
AcDbSymbolTableRecord
100
AcDbLayerTableRecord
  2
193
 70
     0
 62
   193
  6
CONTINUOUS
  0
LAYER
  5
FB
330
2
100
AcDbSymbolTableRecord
100
AcDbLayerTableRecord
  2
194
 70
     0
 62
   194
  6
CONTINUOUS
  0
LAYER
  5
FC
330
2
100
AcDbSymbolTableRecord
100
AcDbLayerTableRecord
  2
195
 70
     0
 62
   195
  6
CONTINUOUS
  0
LAYER
  5
FD
330
2
100
AcDbSymbolTableRecord
100
AcDbLayerTableRecord
  2
196
 70
     0
 62
   196
  6
CONTINUOUS
  0
LAYER
  5
FE
330
2
100
AcDbSymbolTableRecord
100
AcDbLayerTableRecord
  2
197
 70
     0
 62
   197
  6
CONTINUOUS
  0
LAYER
  5
FF
330
2
100
AcDbSymbolTableRecord
100
AcDbLayerTableRecord
  2
198
 70
     0
 62
   198
  6
CONTINUOUS
  0
LAYER
  5
100
330
2
100
AcDbSymbolTableRecord
100
AcDbLayerTableRecord
  2
199
 70
     0
 62
   199
  6
CONTINUOUS
  0
LAYER
  5
101
330
2
100
AcDbSymbolTableRecord
100
AcDbLayerTableRecord
  2
200
 70
     0
 62
   200
  6
CONTINUOUS
  0
LAYER
  5
102
330
2
100
AcDbSymbolTableRecord
100
AcDbLayerTableRecord
  2
201
 70
     0
 62
   201
  6
CONTINUOUS
  0
LAYER
  5
103
330
2
100
AcDbSymbolTableRecord
100
AcDbLayerTableRecord
  2
202
 70
     0
 62
   202
  6
CONTINUOUS
  0
LAYER
  5
104
330
2
100
AcDbSymbolTableRecord
100
AcDbLayerTableRecord
  2
203
 70
     0
 62
   203
  6
CONTINUOUS
  0
LAYER
  5
105
330
2
100
AcDbSymbolTableRecord
100
AcDbLayerTableRecord
  2
204
 70
     0
 62
   204
  6
CONTINUOUS
  0
LAYER
  5
106
330
2
100
AcDbSymbolTableRecord
100
AcDbLayerTableRecord
  2
205
 70
     0
 62
   205
  6
CONTINUOUS
  0
LAYER
  5
107
330
2
100
AcDbSymbolTableRecord
100
AcDbLayerTableRecord
  2
206
 70
     0
 62
   206
  6
CONTINUOUS
  0
LAYER
  5
108
330
2
100
AcDbSymbolTableRecord
100
AcDbLayerTableRecord
  2
207
 70
     0
 62
   207
  6
CONTINUOUS
  0
LAYER
  5
109
330
2
100
AcDbSymbolTableRecord
100
AcDbLayerTableRecord
  2
208
 70
     0
 62
   208
  6
CONTINUOUS
  0
LAYER
  5
10A
330
2
100
AcDbSymbolTableRecord
100
AcDbLayerTableRecord
  2
209
 70
     0
 62
   209
  6
CONTINUOUS
  0
LAYER
  5
10B
330
2
100
AcDbSymbolTableRecord
100
AcDbLayerTableRecord
  2
210
 70
     0
 62
   210
  6
CONTINUOUS
  0
LAYER
  5
10C
330
2
100
AcDbSymbolTableRecord
100
AcDbLayerTableRecord
  2
211
 70
     0
 62
   211
  6
CONTINUOUS
  0
LAYER
  5
10D
330
2
100
AcDbSymbolTableRecord
100
AcDbLayerTableRecord
  2
212
 70
     0
 62
   212
  6
CONTINUOUS
  0
LAYER
  5
10E
330
2
100
AcDbSymbolTableRecord
100
AcDbLayerTableRecord
  2
213
 70
     0
 62
   213
  6
CONTINUOUS
  0
LAYER
  5
10F
330
2
100
AcDbSymbolTableRecord
100
AcDbLayerTableRecord
  2
214
 70
     0
 62
   214
  6
CONTINUOUS
  0
LAYER
  5
110
330
2
100
AcDbSymbolTableRecord
100
AcDbLayerTableRecord
  2
215
 70
     0
 62
   215
  6
CONTINUOUS
  0
LAYER
  5
111
330
2
100
AcDbSymbolTableRecord
100
AcDbLayerTableRecord
  2
216
 70
     0
 62
   216
  6
CONTINUOUS
  0
LAYER
  5
112
330
2
100
AcDbSymbolTableRecord
100
AcDbLayerTableRecord
  2
217
 70
     0
 62
   217
  6
CONTINUOUS
  0
LAYER
  5
113
330
2
100
AcDbSymbolTableRecord
100
AcDbLayerTableRecord
  2
218
 70
     0
 62
   218
  6
CONTINUOUS
  0
LAYER
  5
114
330
2
100
AcDbSymbolTableRecord
100
AcDbLayerTableRecord
  2
219
 70
     0
 62
   219
  6
CONTINUOUS
  0
LAYER
  5
115
330
2
100
AcDbSymbolTableRecord
100
AcDbLayerTableRecord
  2
220
 70
     0
 62
   220
  6
CONTINUOUS
  0
LAYER
  5
116
330
2
100
AcDbSymbolTableRecord
100
AcDbLayerTableRecord
  2
221
 70
     0
 62
   221
  6
CONTINUOUS
  0
LAYER
  5
117
330
2
100
AcDbSymbolTableRecord
100
AcDbLayerTableRecord
  2
222
 70
     0
 62
   222
  6
CONTINUOUS
  0
LAYER
  5
118
330
2
100
AcDbSymbolTableRecord
100
AcDbLayerTableRecord
  2
223
 70
     0
 62
   223
  6
CONTINUOUS
  0
LAYER
  5
119
330
2
100
AcDbSymbolTableRecord
100
AcDbLayerTableRecord
  2
224
 70
     0
 62
   224
  6
CONTINUOUS
  0
LAYER
  5
11A
330
2
100
AcDbSymbolTableRecord
100
AcDbLayerTableRecord
  2
225
 70
     0
 62
   225
  6
CONTINUOUS
  0
LAYER
  5
11B
330
2
100
AcDbSymbolTableRecord
100
AcDbLayerTableRecord
  2
226
 70
     0
 62
   226
  6
CONTINUOUS
  0
LAYER
  5
11C
330
2
100
AcDbSymbolTableRecord
100
AcDbLayerTableRecord
  2
227
 70
     0
 62
   227
  6
CONTINUOUS
  0
LAYER
  5
11D
330
2
100
AcDbSymbolTableRecord
100
AcDbLayerTableRecord
  2
228
 70
     0
 62
   228
  6
CONTINUOUS
  0
LAYER
  5
11E
330
2
100
AcDbSymbolTableRecord
100
AcDbLayerTableRecord
  2
229
 70
     0
 62
   229
  6
CONTINUOUS
  0
LAYER
  5
11F
330
2
100
AcDbSymbolTableRecord
100
AcDbLayerTableRecord
  2
230
 70
     0
 62
   230
  6
CONTINUOUS
  0
LAYER
  5
120
330
2
100
AcDbSymbolTableRecord
100
AcDbLayerTableRecord
  2
231
 70
     0
 62
   231
  6
CONTINUOUS
  0
LAYER
  5
121
330
2
100
AcDbSymbolTableRecord
100
AcDbLayerTableRecord
  2
232
 70
     0
 62
   232
  6
CONTINUOUS
  0
LAYER
  5
122
330
2
100
AcDbSymbolTableRecord
100
AcDbLayerTableRecord
  2
233
 70
     0
 62
   233
  6
CONTINUOUS
  0
LAYER
  5
123
330
2
100
AcDbSymbolTableRecord
100
AcDbLayerTableRecord
  2
234
 70
     0
 62
   234
  6
CONTINUOUS
  0
LAYER
  5
124
330
2
100
AcDbSymbolTableRecord
100
AcDbLayerTableRecord
  2
235
 70
     0
 62
   235
  6
CONTINUOUS
  0
LAYER
  5
125
330
2
100
AcDbSymbolTableRecord
100
AcDbLayerTableRecord
  2
236
 70
     0
 62
   236
  6
CONTINUOUS
  0
LAYER
  5
126
330
2
100
AcDbSymbolTableRecord
100
AcDbLayerTableRecord
  2
237
 70
     0
 62
   237
  6
CONTINUOUS
  0
LAYER
  5
127
330
2
100
AcDbSymbolTableRecord
100
AcDbLayerTableRecord
  2
238
 70
     0
 62
   238
  6
CONTINUOUS
  0
LAYER
  5
128
330
2
100
AcDbSymbolTableRecord
100
AcDbLayerTableRecord
  2
239
 70
     0
 62
   239
  6
CONTINUOUS
  0
LAYER
  5
129
330
2
100
AcDbSymbolTableRecord
100
AcDbLayerTableRecord
  2
240
 70
     0
 62
   240
  6
CONTINUOUS
  0
LAYER
  5
12A
330
2
100
AcDbSymbolTableRecord
100
AcDbLayerTableRecord
  2
241
 70
     0
 62
   241
  6
CONTINUOUS
  0
LAYER
  5
12B
330
2
100
AcDbSymbolTableRecord
100
AcDbLayerTableRecord
  2
242
 70
     0
 62
   242
  6
CONTINUOUS
  0
LAYER
  5
12C
330
2
100
AcDbSymbolTableRecord
100
AcDbLayerTableRecord
  2
243
 70
     0
 62
   243
  6
CONTINUOUS
  0
LAYER
  5
12D
330
2
100
AcDbSymbolTableRecord
100
AcDbLayerTableRecord
  2
244
 70
     0
 62
   244
  6
CONTINUOUS
  0
LAYER
  5
12E
330
2
100
AcDbSymbolTableRecord
100
AcDbLayerTableRecord
  2
245
 70
     0
 62
   245
  6
CONTINUOUS
  0
LAYER
  5
12F
330
2
100
AcDbSymbolTableRecord
100
AcDbLayerTableRecord
  2
246
 70
     0
 62
   246
  6
CONTINUOUS
  0
LAYER
  5
130
330
2
100
AcDbSymbolTableRecord
100
AcDbLayerTableRecord
  2
247
 70
     0
 62
   247
  6
CONTINUOUS
  0
LAYER
  5
131
330
2
100
AcDbSymbolTableRecord
100
AcDbLayerTableRecord
  2
248
 70
     0
 62
   248
  6
CONTINUOUS
  0
LAYER
  5
132
330
2
100
AcDbSymbolTableRecord
100
AcDbLayerTableRecord
  2
249
 70
     0
 62
   249
  6
CONTINUOUS
  0
LAYER
  5
133
330
2
100
AcDbSymbolTableRecord
100
AcDbLayerTableRecord
  2
250
 70
     0
 62
   250
  6
CONTINUOUS
  0
LAYER
  5
134
330
2
100
AcDbSymbolTableRecord
100
AcDbLayerTableRecord
  2
251
 70
     0
 62
   251
  6
CONTINUOUS
  0
LAYER
  5
135
330
2
100
AcDbSymbolTableRecord
100
AcDbLayerTableRecord
  2
252
 70
     0
 62
   252
  6
CONTINUOUS
  0
LAYER
  5
136
330
2
100
AcDbSymbolTableRecord
100
AcDbLayerTableRecord
  2
253
 70
     0
 62
   253
  6
CONTINUOUS
  0
LAYER
  5
137
330
2
100
AcDbSymbolTableRecord
100
AcDbLayerTableRecord
  2
254
 70
     0
 62
   254
  6
CONTINUOUS
  0
LAYER
  5
138
330
2
100
AcDbSymbolTableRecord
100
AcDbLayerTableRecord
  2
255
 70
     0
 62
   255
  6
CONTINUOUS
  0
ENDTAB
  0
TABLE
  2
STYLE
  5
3
330
0
100
AcDbSymbolTable
 70
     1
  0
STYLE
  5
11
330
3
100
AcDbSymbolTableRecord
100
AcDbTextStyleTableRecord
  2
STANDARD
 70
     0
 40
0.0
 41
1.0
 50
0.0
 71
     0
 42
0.2
  3
monotxt
  4

  0
ENDTAB
  0
TABLE
  2
VIEW
  5
6
330
0
100
AcDbSymbolTable
 70
     0
  0
ENDTAB
  0
TABLE
  2
UCS
  5
7
330
0
100
AcDbSymbolTable
 70
     0
  0
ENDTAB
  0
TABLE
  2
APPID
  5
9
330
0
100
AcDbSymbolTable
 70
     1
  0
APPID
  5
12
330
9
100
AcDbSymbolTableRecord
100
AcDbRegAppTableRecord
  2
ACAD
 70
     0
  0
ENDTAB
  0
TABLE
  2
DIMSTYLE
  5
A
330
0
100
AcDbSymbolTable
 70
     1
  0
DIMSTYLE
105
29EF
330
A
100
AcDbSymbolTableRecord
100
AcDbDimStyleTableRecord
  2
STANDARD
 70
     0
  3

  4

  5

  6

  7

 40
1.0
 41
0.18
 42
0.0625
 43
0.38
 44
0.18
 45
0.0
 46
0.0
 47
0.0
 48
0.0
140
0.18
141
0.09
142
0.0
143
25.4
144
1.0
145
0.0
146
1.0
147
0.09
 71
     0
 72
     0
 73
     1
 74
     1
 75
     0
 76
     0
 77
     0
 78
     0
170
     0
171
     2
172
     0
173
     0
174
     0
175
     0
176
     0
177
     0
178
     0
270
     2
271
     4
272
     4
273
     2
274
     2
340
11
275
     0
280
     0
281
     0
282
     0
283
     1
284
     0
285
     0
286
     0
287
     3
288
     0
  0
ENDTAB
  0
TABLE
  2
BLOCK_RECORD
  5
1
330
0
100
AcDbSymbolTable
 70
     0
  0
BLOCK_RECORD
  5
1E
102
{ACAD_XDICTIONARY
360
3B87
102
}
330
1
100
AcDbSymbolTableRecord
100
AcDbBlockTableRecord
  2
*MODEL_SPACE
  0
BLOCK_RECORD
  5
1A
102
{ACAD_XDICTIONARY
360
3B89
102
}
330
1
100
AcDbSymbolTableRecord
100
AcDbBlockTableRecord
  2
*PAPER_SPACE
  0
ENDTAB
  0
ENDSEC
  0
SECTION
  2
BLOCKS
  0
BLOCK
  5
13B
330
1E
100
AcDbEntity
  8
0
100
AcDbBlockBegin
  2
*MODEL_SPACE
 70
     0
 10
0.0
 20
0.0
 30
0.0
  3
*MODEL_SPACE
  1

  0
ENDBLK
  5
13C
330
1E
100
AcDbEntity
  8
0
100
AcDbBlockEnd
  0
BLOCK
  5
139
330
1A
100
AcDbEntity
 67
     1
  8
0
100
AcDbBlockBegin
  2
*PAPER_SPACE
 70
     0
 10
0.0
 20
0.0
 30
0.0
  3
*PAPER_SPACE
  1

  0
ENDBLK
  5
13A
330
1A
100
AcDbEntity
 67
     1
  8
0
100
AcDbBlockEnd
  0
ENDSEC
  0
SECTION
  2
ENTITIES
  0
LINE
  5
246C
330
1E
100
AcDbEntity
  8
7
100
AcDbLine
 10
2.08759842519685
 20
4.590551181102362
 30
0.0
 11
2.088582677165354
 21
4.589566929133858
 31
0.0
  0
LINE
  5
2474
330
1E
100
AcDbEntity
  8
7
100
AcDbLine
 10
2.019685039370078
 20
4.589566929133858
 30
0.0
 11
2.019685039370078
 21
4.590551181102362
 31
0.0
  0
LINE
  5
247F
330
1E
100
AcDbEntity
  8
7
100
AcDbLine
 10
1.809055118110236
 20
4.875984251968503
 30
0.0
 11
1.809055118110236
 21
4.940944881889763
 31
0.0
  0
LINE
  5
2480
330
1E
100
AcDbEntity
  8
7
100
AcDbLine
 10
2.299212598425197
 20
4.940944881889763
 30
0.0
 11
2.299212598425197
 21
4.875984251968503
 31
0.0
  0
LINE
  5
2481
330
1E
100
AcDbEntity
  8
7
100
AcDbLine
 10
2.193897637795275
 20
4.645669291338582
 30
0.0
 11
2.090551181102362
 21
4.645669291338582
 31
0.0
  0
LINE
  5
2482
330
1E
100
AcDbEntity
  8
7
100
AcDbLine
 10
2.016732283464567
 20
4.646653543307086
 30
0.0
 11
2.005905511811023
 21
4.646653543307086
 31
0.0
  0
LINE
  5
248A
330
1E
100
AcDbEntity
  8
7
100
AcDbLine
 10
2.101377952755905
 20
4.646653543307086
 30
0.0
 11
2.091535433070866
 21
4.646653543307086
 31
0.0
  0
LINE
  5
2498
330
1E
100
AcDbEntity
  8
7
100
AcDbLine
 10
2.016732283464567
 20
4.645669291338582
 30
0.0
 11
2.016732283464567
 21
4.646653543307086
 31
0.0
  0
LINE
  5
2499
330
1E
100
AcDbEntity
  8
7
100
AcDbLine
 10
2.016732283464567
 20
4.645669291338582
 30
0.0
 11
1.913385826771653
 21
4.645669291338582
 31
0.0
  0
LINE
  5
249A
330
1E
100
AcDbEntity
  8
7
100
AcDbLine
 10
1.974409448818897
 20
4.439960629921259
 30
0.0
 11
1.974409448818897
 21
4.46259842519685
 31
0.0
  0
LINE
  5
24A0
330
1E
100
AcDbEntity
  8
7
100
AcDbLine
 10
1.934055118110236
 20
4.468503937007874
 30
0.0
 11
1.934055118110236
 21
4.444881889763779
 31
0.0
  0
LINE
  5
24AB
330
1E
100
AcDbEntity
  8
7
100
AcDbLine
 10
2.173228346456693
 20
4.444881889763779
 30
0.0
 11
2.173228346456693
 21
4.468503937007874
 31
0.0
  0
LINE
  5
24AC
330
1E
100
AcDbEntity
  8
7
100
AcDbLine
 10
2.133858267716535
 20
4.46259842519685
 30
0.0
 11
2.153543307086614
 21
4.465551181102362
 31
0.0
  0
LINE
  5
24AD
330
1E
100
AcDbEntity
  8
7
100
AcDbLine
 10
2.153543307086614
 20
4.465551181102362
 30
0.0
 11
2.173228346456693
 21
4.468503937007874
 31
0.0
  0
LINE
  5
24AE
330
1E
100
AcDbEntity
  8
7
100
AcDbLine
 10
2.133858267716535
 20
4.46259842519685
 30
0.0
 11
2.133858267716535
 21
4.439960629921259
 31
0.0
  0
LINE
  5
24B4
330
1E
100
AcDbEntity
  8
7
100
AcDbLine
 10
2.133858267716535
 20
4.46259842519685
 30
0.0
 11
2.129921259842519
 21
4.478346456692912
 31
0.0
  0
LINE
  5
24B5
330
1E
100
AcDbEntity
  8
7
100
AcDbLine
 10
2.173228346456693
 20
4.468503937007874
 30
0.0
 11
2.169291338582677
 21
4.489173228346456
 31
0.0
  0
LINE
  5
24BC
330
1E
100
AcDbEntity
  8
7
100
AcDbLine
 10
1.934055118110236
 20
4.468503937007874
 30
0.0
 11
1.938976377952755
 21
4.489173228346456
 31
0.0
  0
LINE
  5
24BD
330
1E
100
AcDbEntity
  8
7
100
AcDbLine
 10
1.974409448818897
 20
4.46259842519685
 30
0.0
 11
1.977362204724409
 21
4.478346456692912
 31
0.0
  0
LINE
  5
24C3
330
1E
100
AcDbEntity
  8
7
100
AcDbLine
 10
1.938976377952755
 20
4.59251968503937
 30
0.0
 11
1.938976377952755
 21
4.489173228346456
 31
0.0
  0
LINE
  5
24C4
330
1E
100
AcDbEntity
  8
7
100
AcDbLine
 10
2.169291338582677
 20
4.489173228346456
 30
0.0
 11
2.169291338582677
 21
4.59251968503937
 31
0.0
  0
LINE
  5
24CF
330
1E
100
AcDbEntity
  8
7
100
AcDbLine
 10
2.170275590551181
 20
4.601377952755905
 30
0.0
 11
2.169291338582677
 21
4.59251968503937
 31
0.0
  0
LINE
  5
24D0
330
1E
100
AcDbEntity
  8
7
100
AcDbLine
 10
1.937007874015747
 20
4.601377952755905
 30
0.0
 11
1.978346456692913
 21
4.594488188976377
 31
0.0
  0
LINE
  5
24D1
330
1E
100
AcDbEntity
  8
7
100
AcDbLine
 10
1.978346456692913
 20
4.594488188976377
 30
0.0
 11
2.019685039370078
 21
4.590551181102362
 31
0.0
  0
LINE
  5
24D2
330
1E
100
AcDbEntity
  8
7
100
AcDbLine
 10
1.938976377952755
 20
4.59251968503937
 30
0.0
 11
1.937007874015747
 21
4.601377952755905
 31
0.0
  0
LINE
  5
24D3
330
1E
100
AcDbEntity
  8
7
100
AcDbLine
 10
1.741141732283464
 20
4.940944881889763
 30
0.0
 11
1.809055118110236
 21
4.940944881889763
 31
0.0
  0
LINE
  5
24D4
330
1E
100
AcDbEntity
  8
7
100
AcDbLine
 10
2.299212598425197
 20
4.940944881889763
 30
0.0
 11
2.366141732283464
 21
4.940944881889763
 31
0.0
  0
LINE
  5
24D5
330
1E
100
AcDbEntity
  8
7
100
AcDbLine
 10
2.299212598425197
 20
4.875984251968503
 30
0.0
 11
2.181102362204724
 21
4.875984251968503
 31
0.0
  0
LINE
  5
24DB
330
1E
100
AcDbEntity
  8
7
100
AcDbLine
 10
2.156496062992125
 20
4.954724409448818
 30
0.0
 11
1.950787401574802
 21
4.954724409448818
 31
0.0
  0
LINE
  5
24DC
330
1E
100
AcDbEntity
  8
7
100
AcDbLine
 10
2.156496062992125
 20
4.964566929133858
 30
0.0
 11
2.156496062992125
 21
4.954724409448818
 31
0.0
  0
LINE
  5
24E2
330
1E
100
AcDbEntity
  8
7
100
AcDbLine
 10
1.950787401574802
 20
4.954724409448818
 30
0.0
 11
1.950787401574802
 21
4.949803149606299
 31
0.0
  0
LINE
  5
24E3
330
1E
100
AcDbEntity
  8
7
100
AcDbLine
 10
2.156496062992125
 20
4.913385826771653
 30
0.0
 11
1.951771653543307
 21
4.913385826771653
 31
0.0
  0
LINE
  5
24EE
330
1E
100
AcDbEntity
  8
7
100
AcDbLine
 10
2.156496062992125
 20
4.90255905511811
 30
0.0
 11
1.951771653543307
 21
4.90255905511811
 31
0.0
  0
LINE
  5
24EF
330
1E
100
AcDbEntity
  8
7
100
AcDbLine
 10
2.156496062992125
 20
4.913385826771653
 30
0.0
 11
2.156496062992125
 21
4.90255905511811
 31
0.0
  0
LINE
  5
24F9
330
1E
100
AcDbEntity
  8
7
100
AcDbLine
 10
1.926181102362204
 20
4.875984251968503
 30
0.0
 11
1.809055118110236
 21
4.875984251968503
 31
0.0
  0
LINE
  5
24FA
330
1E
100
AcDbEntity
  8
7
100
AcDbLine
 10
1.741141732283464
 20
4.940944881889763
 30
0.0
 11
1.74015748031496
 21
4.939960629921259
 31
0.0
  0
LINE
  5
24FB
330
1E
100
AcDbEntity
  8
7
100
AcDbLine
 10
1.808070866141732
 20
4.939960629921259
 30
0.0
 11
1.74015748031496
 21
4.939960629921259
 31
0.0
  0
LINE
  5
24FC
330
1E
100
AcDbEntity
  8
7
100
AcDbLine
 10
1.808070866141732
 20
4.939960629921259
 30
0.0
 11
1.809055118110236
 21
4.940944881889763
 31
0.0
  0
LINE
  5
24FD
330
1E
100
AcDbEntity
  8
7
100
AcDbLine
 10
1.808070866141732
 20
4.874015748031496
 30
0.0
 11
1.808070866141732
 21
4.939960629921259
 31
0.0
  0
LINE
  5
24FE
330
1E
100
AcDbEntity
  8
7
100
AcDbLine
 10
1.808070866141732
 20
4.874015748031496
 30
0.0
 11
1.809055118110236
 21
4.875984251968503
 31
0.0
  0
LINE
  5
24FF
330
1E
100
AcDbEntity
  8
7
100
AcDbLine
 10
2.15748031496063
 20
4.88779527559055
 30
0.0
 11
2.181102362204724
 21
4.875984251968503
 31
0.0
  0
LINE
  5
2500
330
1E
100
AcDbEntity
  8
7
100
AcDbLine
 10
1.926181102362204
 20
4.875984251968503
 30
0.0
 11
1.950787401574802
 21
4.88779527559055
 31
0.0
  0
LINE
  5
2501
330
1E
100
AcDbEntity
  8
7
100
AcDbLine
 10
2.3001968503937
 20
4.874015748031496
 30
0.0
 11
1.808070866141732
 21
4.874015748031496
 31
0.0
  0
LINE
  5
2502
330
1E
100
AcDbEntity
  8
7
100
AcDbLine
 10
2.3001968503937
 20
4.874015748031496
 30
0.0
 11
2.299212598425197
 21
4.875984251968503
 31
0.0
  0
LINE
  5
2508
330
1E
100
AcDbEntity
  8
7
100
AcDbLine
 10
2.3001968503937
 20
4.939960629921259
 30
0.0
 11
2.367125984251968
 21
4.939960629921259
 31
0.0
  0
LINE
  5
2509
330
1E
100
AcDbEntity
  8
7
100
AcDbLine
 10
2.366141732283464
 20
4.940944881889763
 30
0.0
 11
2.367125984251968
 21
4.939960629921259
 31
0.0
  0
LINE
  5
250A
330
1E
100
AcDbEntity
  8
7
100
AcDbLine
 10
2.227362204724409
 20
4.645669291338582
 30
0.0
 11
2.193897637795275
 21
4.645669291338582
 31
0.0
  0
LINE
  5
250B
330
1E
100
AcDbEntity
  8
7
100
AcDbLine
 10
2.227362204724409
 20
4.645669291338582
 30
0.0
 11
2.228346456692913
 21
4.654527559055117
 31
0.0
  0
LINE
  5
250C
330
1E
100
AcDbEntity
  8
7
100
AcDbLine
 10
2.153543307086614
 20
4.654527559055117
 30
0.0
 11
2.228346456692913
 21
4.654527559055117
 31
0.0
  0
LINE
  5
250D
330
1E
100
AcDbEntity
  8
7
100
AcDbLine
 10
2.153543307086614
 20
4.654527559055117
 30
0.0
 11
2.101377952755905
 21
4.646653543307086
 31
0.0
  0
LINE
  5
2521
330
1E
100
AcDbEntity
  8
7
100
AcDbLine
 10
1.878937007874015
 20
4.654527559055117
 30
0.0
 11
1.954724409448818
 21
4.654527559055117
 31
0.0
  0
LINE
  5
2522
330
1E
100
AcDbEntity
  8
7
100
AcDbLine
 10
1.880905511811023
 20
4.645669291338582
 30
0.0
 11
1.878937007874015
 21
4.654527559055117
 31
0.0
  0
LINE
  5
2523
330
1E
100
AcDbEntity
  8
7
100
AcDbLine
 10
1.913385826771653
 20
4.645669291338582
 30
0.0
 11
1.880905511811023
 21
4.645669291338582
 31
0.0
  0
LINE
  5
2524
330
1E
100
AcDbEntity
  8
7
100
AcDbLine
 10
1.878937007874015
 20
4.46259842519685
 30
0.0
 11
1.878937007874015
 21
4.654527559055117
 31
0.0
  0
LINE
  5
252E
330
1E
100
AcDbEntity
  8
7
100
AcDbLine
 10
1.880905511811023
 20
4.551181102362204
 30
0.0
 11
1.880905511811023
 21
4.409448818897637
 31
0.0
  0
LINE
  5
252F
330
1E
100
AcDbEntity
  8
7
100
AcDbLine
 10
1.880905511811023
 20
4.551181102362204
 30
0.0
 11
1.885826771653543
 21
4.552165354330708
 31
0.0
  0
LINE
  5
2530
330
1E
100
AcDbEntity
  8
7
100
AcDbLine
 10
1.885826771653543
 20
4.607283464566928
 30
0.0
 11
1.885826771653543
 21
4.552165354330708
 31
0.0
  0
LINE
  5
2536
330
1E
100
AcDbEntity
  8
7
100
AcDbLine
 10
1.880905511811023
 20
4.645669291338582
 30
0.0
 11
1.880905511811023
 21
4.61515748031496
 31
0.0
  0
LINE
  5
2537
330
1E
100
AcDbEntity
  8
7
100
AcDbLine
 10
1.932086614173228
 20
4.542322834645669
 30
0.0
 11
1.932086614173228
 21
4.596456692913386
 31
0.0
  0
LINE
  5
2542
330
1E
100
AcDbEntity
  8
7
100
AcDbLine
 10
1.937007874015747
 20
4.601377952755905
 30
0.0
 11
1.932086614173228
 21
4.596456692913386
 31
0.0
  0
LINE
  5
2543
330
1E
100
AcDbEntity
  8
7
100
AcDbLine
 10
1.931102362204724
 20
4.542322834645669
 30
0.0
 11
1.934055118110236
 21
4.444881889763779
 31
0.0
  0
LINE
  5
2544
330
1E
100
AcDbEntity
  8
7
100
AcDbLine
 10
2.177165354330708
 20
4.542322834645669
 30
0.0
 11
2.173228346456693
 21
4.444881889763779
 31
0.0
  0
LINE
  5
2545
330
1E
100
AcDbEntity
  8
7
100
AcDbLine
 10
2.176181102362205
 20
4.596456692913386
 30
0.0
 11
2.176181102362205
 21
4.542322834645669
 31
0.0
  0
LINE
  5
2546
330
1E
100
AcDbEntity
  8
7
100
AcDbLine
 10
2.176181102362205
 20
4.596456692913386
 30
0.0
 11
2.170275590551181
 21
4.601377952755905
 31
0.0
  0
LINE
  5
254C
330
1E
100
AcDbEntity
  8
7
100
AcDbLine
 10
2.221456692913386
 20
4.552165354330708
 30
0.0
 11
2.221456692913386
 21
4.607283464566928
 31
0.0
  0
LINE
  5
255B
330
1E
100
AcDbEntity
  8
7
100
AcDbLine
 10
2.228346456692913
 20
4.654527559055117
 30
0.0
 11
2.228346456692913
 21
4.46259842519685
 31
0.0
  0
LINE
  5
255C
330
1E
100
AcDbEntity
  8
7
100
AcDbLine
 10
2.227362204724409
 20
4.61515748031496
 30
0.0
 11
2.227362204724409
 21
4.645669291338582
 31
0.0
  0
LINE
  5
2562
330
1E
100
AcDbEntity
  8
7
100
AcDbLine
 10
2.221456692913386
 20
4.552165354330708
 30
0.0
 11
2.227362204724409
 21
4.551181102362204
 31
0.0
  0
LINE
  5
2563
330
1E
100
AcDbEntity
  8
7
100
AcDbLine
 10
2.227362204724409
 20
4.409448818897637
 30
0.0
 11
2.227362204724409
 21
4.551181102362204
 31
0.0
  0
LINE
  5
2564
330
1E
100
AcDbEntity
  8
7
100
AcDbLine
 10
2.167322834645669
 20
5.982283464566928
 30
0.0
 11
2.167322834645669
 21
5.873031496062991
 31
0.0
  0
LINE
  5
25AF
330
1E
100
AcDbEntity
  8
7
100
AcDbLine
 10
1.74015748031496
 20
5.601377952755905
 30
0.0
 11
1.74015748031496
 21
4.939960629921259
 31
0.0
  0
LINE
  5
25B0
330
1E
100
AcDbEntity
  8
7
100
AcDbLine
 10
2.367125984251968
 20
5.601377952755905
 30
0.0
 11
1.74015748031496
 21
5.601377952755905
 31
0.0
  0
LINE
  5
25B1
330
1E
100
AcDbEntity
  8
7
100
AcDbLine
 10
2.367125984251968
 20
5.601377952755905
 30
0.0
 11
2.367125984251968
 21
4.939960629921259
 31
0.0
  0
LINE
  5
25D5
330
1E
100
AcDbEntity
  8
7
100
AcDbLine
 10
2.168307086614173
 20
5.93011811023622
 30
0.0
 11
2.168307086614173
 21
5.86515748031496
 31
0.0
  0
LINE
  5
25DC
330
1E
100
AcDbEntity
  8
7
100
AcDbLine
 10
1.938976377952755
 20
5.93011811023622
 30
0.0
 11
1.938976377952755
 21
5.86515748031496
 31
0.0
  0
LINE
  5
2624
330
1E
100
AcDbEntity
  8
7
100
AcDbLine
 10
1.940944881889763
 20
5.982283464566928
 30
0.0
 11
1.939960629921259
 21
5.980314960629921
 31
0.0
  0
LINE
  5
2649
330
1E
100
AcDbEntity
  8
7
100
AcDbLine
 10
1.940944881889763
 20
5.982283464566928
 30
0.0
 11
1.940944881889763
 21
5.873031496062991
 31
0.0
  0
LINE
  5
264A
330
1E
100
AcDbEntity
  8
7
100
AcDbLine
 10
2.366141732283464
 20
4.940944881889763
 30
0.0
 11
2.366141732283464
 21
5.600393700787401
 31
0.0
  0
LINE
  5
264B
330
1E
100
AcDbEntity
  8
7
100
AcDbLine
 10
1.741141732283464
 20
5.600393700787401
 30
0.0
 11
1.741141732283464
 21
4.940944881889763
 31
0.0
  0
LINE
  5
264C
330
1E
100
AcDbEntity
  8
7
100
AcDbLine
 10
1.74015748031496
 20
5.601377952755905
 30
0.0
 11
1.741141732283464
 21
5.600393700787401
 31
0.0
  0
LINE
  5
264D
330
1E
100
AcDbEntity
  8
7
100
AcDbLine
 10
2.367125984251968
 20
5.601377952755905
 30
0.0
 11
2.366141732283464
 21
5.600393700787401
 31
0.0
  0
LINE
  5
266E
330
1E
100
AcDbEntity
  8
7
100
AcDbLine
 10
1.966535433070865
 20
5.562007874015748
 30
0.0
 11
2.141732283464567
 21
5.562007874015748
 31
0.0
  0
LINE
  5
266F
330
1E
100
AcDbEntity
  8
7
100
AcDbLine
 10
1.966535433070865
 20
5.600393700787401
 30
0.0
 11
2.141732283464567
 21
5.600393700787401
 31
0.0
  0
LINE
  5
2670
330
1E
100
AcDbEntity
  8
7
100
AcDbLine
 10
1.966535433070865
 20
5.600393700787401
 30
0.0
 11
1.966535433070865
 21
5.562007874015748
 31
0.0
  0
LINE
  5
2671
330
1E
100
AcDbEntity
  8
7
100
AcDbLine
 10
2.141732283464567
 20
5.600393700787401
 30
0.0
 11
2.141732283464567
 21
5.562007874015748
 31
0.0
  0
LINE
  5
2672
330
1E
100
AcDbEntity
  8
7
100
AcDbLine
 10
1.741141732283464
 20
5.600393700787401
 30
0.0
 11
1.966535433070865
 21
5.600393700787401
 31
0.0
  0
LINE
  5
2673
330
1E
100
AcDbEntity
  8
7
100
AcDbLine
 10
2.141732283464567
 20
5.600393700787401
 30
0.0
 11
2.366141732283464
 21
5.600393700787401
 31
0.0
  0
LINE
  5
267B
330
1E
100
AcDbEntity
  8
7
100
AcDbLine
 10
2.168307086614173
 20
5.979330708661417
 30
0.0
 11
2.168307086614173
 21
5.980314960629921
 31
0.0
  0
LINE
  5
2684
330
1E
100
AcDbEntity
  8
7
100
AcDbLine
 10
1.942913385826771
 20
5.910433070866141
 30
0.0
 11
1.942913385826771
 21
5.886811023622047
 31
0.0
  0
LINE
  5
2685
330
1E
100
AcDbEntity
  8
7
100
AcDbLine
 10
2.164370078740157
 20
5.886811023622047
 30
0.0
 11
2.164370078740157
 21
5.910433070866141
 31
0.0
  0
LINE
  5
2686
330
1E
100
AcDbEntity
  8
7
100
AcDbLine
 10
2.113188976377952
 20
5.917322834645669
 30
0.0
 11
2.113188976377952
 21
5.893700787401574
 31
0.0
  0
LINE
  5
2687
330
1E
100
AcDbEntity
  8
7
100
AcDbLine
 10
1.994094488188976
 20
5.893700787401574
 30
0.0
 11
1.994094488188976
 21
5.917322834645669
 31
0.0
  0
LINE
  5
2697
330
1E
100
AcDbEntity
  8
7
100
AcDbLine
 10
4.379921259842519
 20
5.895669291338582
 30
0.0
 11
4.230314960629921
 21
5.882874015748031
 31
0.0
  0
LINE
  5
269E
330
1E
100
AcDbEntity
  8
7
100
AcDbLine
 10
4.379921259842519
 20
4.46259842519685
 30
0.0
 11
4.230314960629921
 21
4.475393700787401
 31
0.0
  0
LINE
  5
269F
330
1E
100
AcDbEntity
  8
7
100
AcDbLine
 10
4.379921259842519
 20
4.468503937007874
 30
0.0
 11
4.230314960629921
 21
4.481299212598425
 31
0.0
  0
LINE
  5
26A7
330
1E
100
AcDbEntity
  8
7
100
AcDbLine
 10
4.648622047244094
 20
4.964566929133858
 30
0.0
 11
4.648622047244094
 21
4.954724409448818
 31
0.0
  0
LINE
  5
26A8
330
1E
100
AcDbEntity
  8
7
100
AcDbLine
 10
4.650590551181102
 20
4.949803149606299
 30
0.0
 11
4.648622047244094
 21
4.954724409448818
 31
0.0
  0
LINE
  5
26AE
330
1E
100
AcDbEntity
  8
7
100
AcDbLine
 10
4.661417322834645
 20
4.913385826771653
 30
0.0
 11
4.661417322834645
 21
4.90255905511811
 31
0.0
  0
LINE
  5
26B4
330
1E
100
AcDbEntity
  8
7
100
AcDbLine
 10
4.646653543307087
 20
4.88779527559055
 30
0.0
 11
4.43011811023622
 21
4.881889763779527
 31
0.0
  0
LINE
  5
26B5
330
1E
100
AcDbEntity
  8
7
100
AcDbLine
 10
4.583661417322835
 20
4.536417322834645
 30
0.0
 11
4.379921259842519
 21
4.439960629921259
 31
0.0
  0
LINE
  5
26BC
330
1E
100
AcDbEntity
  8
7
100
AcDbLine
 10
4.545275590551181
 20
4.542322834645669
 30
0.0
 11
4.583661417322835
 21
4.542322834645669
 31
0.0
  0
LINE
  5
26CE
330
1E
100
AcDbEntity
  8
7
100
AcDbLine
 10
4.545275590551181
 20
4.552165354330708
 30
0.0
 11
4.230314960629921
 21
4.551181102362204
 31
0.0
  0
LINE
  5
26CF
330
1E
100
AcDbEntity
  8
7
100
AcDbLine
 10
4.594488188976377
 20
4.682086614173227
 30
0.0
 11
4.43011811023622
 21
4.686023622047243
 31
0.0
  0
LINE
  5
26D7
330
1E
100
AcDbEntity
  8
7
100
AcDbLine
 10
4.68996062992126
 20
4.64271653543307
 30
0.0
 11
4.694881889763779
 21
4.627952755905512
 31
0.0
  0
LINE
  5
26F9
330
1E
100
AcDbEntity
  8
7
100
AcDbLine
 10
4.595472440944882
 20
4.612204724409449
 30
0.0
 11
4.43011811023622
 21
4.61023622047244
 31
0.0
  0
LINE
  5
26FA
330
1E
100
AcDbEntity
  8
7
100
AcDbLine
 10
4.43011811023622
 20
5.841535433070865
 30
0.0
 11
4.230314960629921
 21
5.84251968503937
 31
0.0
  0
LINE
  5
2772
330
1E
100
AcDbEntity
  8
7
100
AcDbLine
 10
4.808070866141732
 20
4.821850393700787
 30
0.0
 11
4.43011811023622
 21
4.79527559055118
 31
0.0
  0
LINE
  5
2773
330
1E
100
AcDbEntity
  8
7
100
AcDbLine
 10
4.721456692913386
 20
4.939960629921259
 30
0.0
 11
4.819881889763779
 21
4.857283464566928
 31
0.0
  0
LINE
  5
2779
330
1E
100
AcDbEntity
  8
7
100
AcDbLine
 10
4.648622047244094
 20
4.964566929133858
 30
0.0
 11
4.665354330708661
 21
4.96259842519685
 31
0.0
  0
LINE
  5
2798
330
1E
100
AcDbEntity
  8
7
100
AcDbLine
 10
4.379921259842519
 20
5.886811023622047
 30
0.0
 11
4.379921259842519
 21
5.910433070866141
 31
0.0
  0
LINE
  5
27B3
330
1E
100
AcDbEntity
  8
7
100
AcDbLine
 10
4.693897637795275
 20
4.609251968503937
 30
0.0
 11
4.694881889763779
 21
4.606299212598425
 31
0.0
  0
LINE
  5
27B4
330
1E
100
AcDbEntity
  8
7
100
AcDbLine
 10
4.665354330708661
 20
4.577755905511811
 30
0.0
 11
4.694881889763779
 21
4.606299212598425
 31
0.0
  0
LINE
  5
27B5
330
1E
100
AcDbEntity
  8
7
100
AcDbLine
 10
4.595472440944882
 20
4.612204724409449
 30
0.0
 11
4.594488188976377
 21
4.638779527559054
 31
0.0
  0
LINE
  5
2B2D
330
1E
100
AcDbEntity
  8
7
100
AcDbLine
 10
4.594488188976377
 20
4.638779527559054
 30
0.0
 11
4.613188976377952
 21
4.63779527559055
 31
0.0
  0
LINE
  5
2B2E
330
1E
100
AcDbEntity
  8
7
100
AcDbLine
 10
4.613188976377952
 20
4.63779527559055
 30
0.0
 11
4.631889763779527
 21
4.635826771653543
 31
0.0
  0
LINE
  5
2B2F
330
1E
100
AcDbEntity
  8
7
100
AcDbLine
 10
4.631889763779527
 20
4.635826771653543
 30
0.0
 11
4.650590551181102
 21
4.632874015748031
 31
0.0
  0
LINE
  5
2B30
330
1E
100
AcDbEntity
  8
7
100
AcDbLine
 10
4.650590551181102
 20
4.632874015748031
 30
0.0
 11
4.656496062992125
 21
4.630905511811023
 31
0.0
  0
LINE
  5
2B31
330
1E
100
AcDbEntity
  8
7
100
AcDbLine
 10
4.656496062992125
 20
4.630905511811023
 30
0.0
 11
4.661417322834645
 21
4.628937007874015
 31
0.0
  0
LINE
  5
2B32
330
1E
100
AcDbEntity
  8
7
100
AcDbLine
 10
4.661417322834645
 20
4.628937007874015
 30
0.0
 11
4.667322834645669
 21
4.627952755905512
 31
0.0
  0
LINE
  5
2B33
330
1E
100
AcDbEntity
  8
7
100
AcDbLine
 10
4.667322834645669
 20
4.627952755905512
 30
0.0
 11
4.672244094488188
 21
4.625984251968503
 31
0.0
  0
LINE
  5
2B34
330
1E
100
AcDbEntity
  8
7
100
AcDbLine
 10
4.672244094488188
 20
4.625984251968503
 30
0.0
 11
4.678149606299212
 21
4.623031496062991
 31
0.0
  0
LINE
  5
2B35
330
1E
100
AcDbEntity
  8
7
100
AcDbLine
 10
4.678149606299212
 20
4.623031496062991
 30
0.0
 11
4.683070866141732
 21
4.62007874015748
 31
0.0
  0
LINE
  5
2B36
330
1E
100
AcDbEntity
  8
7
100
AcDbLine
 10
4.683070866141732
 20
4.62007874015748
 30
0.0
 11
4.687992125984251
 21
4.617125984251968
 31
0.0
  0
LINE
  5
2B37
330
1E
100
AcDbEntity
  8
7
100
AcDbLine
 10
4.687992125984251
 20
4.617125984251968
 30
0.0
 11
4.691929133858267
 21
4.613188976377952
 31
0.0
  0
LINE
  5
2B38
330
1E
100
AcDbEntity
  8
7
100
AcDbLine
 10
4.691929133858267
 20
4.613188976377952
 30
0.0
 11
4.693897637795275
 21
4.609251968503937
 31
0.0
  0
LINE
  5
2B39
330
1E
100
AcDbEntity
  8
7
100
AcDbLine
 10
4.379921259842519
 20
5.910433070866141
 30
0.0
 11
4.379921259842519
 21
5.914370078740157
 31
0.0
  0
LINE
  5
2B3A
330
1E
100
AcDbEntity
  8
7
100
AcDbLine
 10
4.379921259842519
 20
5.914370078740157
 30
0.0
 11
4.379921259842519
 21
5.917322834645669
 31
0.0
  0
LINE
  5
2B3B
330
1E
100
AcDbEntity
  8
7
100
AcDbLine
 10
4.379921259842519
 20
5.917322834645669
 30
0.0
 11
4.589566929133858
 21
5.852362204724409
 31
0.0
  0
LINE
  5
2B3C
330
1E
100
AcDbEntity
  8
7
100
AcDbLine
 10
4.589566929133858
 20
5.852362204724409
 30
0.0
 11
4.589566929133858
 21
5.849409448818897
 31
0.0
  0
LINE
  5
2B3D
330
1E
100
AcDbEntity
  8
7
100
AcDbLine
 10
4.589566929133858
 20
5.849409448818897
 30
0.0
 11
4.589566929133858
 21
5.846456692913386
 31
0.0
  0
LINE
  5
2B3E
330
1E
100
AcDbEntity
  8
7
100
AcDbLine
 10
4.43011811023622
 20
5.784448818897637
 30
0.0
 11
4.528543307086613
 21
5.786417322834645
 31
0.0
  0
LINE
  5
2B3F
330
1E
100
AcDbEntity
  8
7
100
AcDbLine
 10
4.528543307086613
 20
5.786417322834645
 30
0.0
 11
4.589566929133858
 21
5.787401574803149
 31
0.0
  0
LINE
  5
2B40
330
1E
100
AcDbEntity
  8
7
100
AcDbLine
 10
4.589566929133858
 20
5.787401574803149
 30
0.0
 11
4.589566929133858
 21
5.846456692913386
 31
0.0
  0
LINE
  5
2B41
330
1E
100
AcDbEntity
  8
7
100
AcDbLine
 10
4.589566929133858
 20
5.846456692913386
 30
0.0
 11
4.379921259842519
 21
5.910433070866141
 31
0.0
  0
LINE
  5
2B42
330
1E
100
AcDbEntity
  8
7
100
AcDbLine
 10
4.148622047244094
 20
5.961614173228346
 30
0.0
 11
4.161417322834645
 21
5.973425196850393
 31
0.0
  0
LINE
  5
2B43
330
1E
100
AcDbEntity
  8
7
100
AcDbLine
 10
4.161417322834645
 20
5.973425196850393
 30
0.0
 11
4.176181102362204
 21
5.979330708661417
 31
0.0
  0
LINE
  5
2B44
330
1E
100
AcDbEntity
  8
7
100
AcDbLine
 10
4.176181102362204
 20
5.979330708661417
 30
0.0
 11
4.18503937007874
 21
5.980314960629921
 31
0.0
  0
LINE
  5
2B45
330
1E
100
AcDbEntity
  8
7
100
AcDbLine
 10
4.136811023622047
 20
5.93011811023622
 30
0.0
 11
4.139763779527559
 21
5.946850393700787
 31
0.0
  0
LINE
  5
2B46
330
1E
100
AcDbEntity
  8
7
100
AcDbLine
 10
4.139763779527559
 20
5.946850393700787
 30
0.0
 11
4.148622047244094
 21
5.961614173228346
 31
0.0
  0
LINE
  5
2B47
330
1E
100
AcDbEntity
  8
7
100
AcDbLine
 10
4.379921259842519
 20
5.886811023622047
 30
0.0
 11
4.288385826771653
 21
5.878937007874015
 31
0.0
  0
LINE
  5
2B48
330
1E
100
AcDbEntity
  8
7
100
AcDbLine
 10
4.288385826771653
 20
5.878937007874015
 30
0.0
 11
4.230314960629921
 21
5.873031496062991
 31
0.0
  0
LINE
  5
2B49
330
1E
100
AcDbEntity
  8
7
100
AcDbLine
 10
4.808070866141732
 20
4.821850393700787
 30
0.0
 11
4.818897637795275
 21
4.825787401574802
 31
0.0
  0
LINE
  5
2B4A
330
1E
100
AcDbEntity
  8
7
100
AcDbLine
 10
4.818897637795275
 20
4.825787401574802
 30
0.0
 11
4.825787401574803
 21
4.835629921259842
 31
0.0
  0
LINE
  5
2B4B
330
1E
100
AcDbEntity
  8
7
100
AcDbLine
 10
4.825787401574803
 20
4.835629921259842
 30
0.0
 11
4.825787401574803
 21
4.847440944881889
 31
0.0
  0
LINE
  5
2B4C
330
1E
100
AcDbEntity
  8
7
100
AcDbLine
 10
4.825787401574803
 20
4.847440944881889
 30
0.0
 11
4.819881889763779
 21
4.857283464566928
 31
0.0
  0
LINE
  5
2B4D
330
1E
100
AcDbEntity
  8
7
100
AcDbLine
 10
4.721456692913386
 20
4.939960629921259
 30
0.0
 11
4.694881889763779
 21
4.955708661417323
 31
0.0
  0
LINE
  5
2B4E
330
1E
100
AcDbEntity
  8
7
100
AcDbLine
 10
4.694881889763779
 20
4.955708661417323
 30
0.0
 11
4.665354330708661
 21
4.96259842519685
 31
0.0
  0
LINE
  5
2B4F
330
1E
100
AcDbEntity
  8
7
100
AcDbLine
 10
4.136811023622047
 20
5.816929133858267
 30
0.0
 11
4.136811023622047
 21
5.857283464566928
 31
0.0
  0
LINE
  5
2B50
330
1E
100
AcDbEntity
  8
7
100
AcDbLine
 10
4.136811023622047
 20
5.857283464566928
 30
0.0
 11
4.136811023622047
 21
5.888779527559054
 31
0.0
  0
LINE
  5
2B51
330
1E
100
AcDbEntity
  8
7
100
AcDbLine
 10
4.136811023622047
 20
5.888779527559054
 30
0.0
 11
4.136811023622047
 21
5.913385826771653
 31
0.0
  0
LINE
  5
2B52
330
1E
100
AcDbEntity
  8
7
100
AcDbLine
 10
4.136811023622047
 20
5.913385826771653
 30
0.0
 11
4.136811023622047
 21
5.93011811023622
 31
0.0
  0
LINE
  5
2B53
330
1E
100
AcDbEntity
  8
7
100
AcDbLine
 10
4.136811023622047
 20
4.553149606299212
 30
0.0
 11
4.136811023622047
 21
4.598425196850393
 31
0.0
  0
LINE
  5
2B54
330
1E
100
AcDbEntity
  8
7
100
AcDbLine
 10
4.136811023622047
 20
4.598425196850393
 30
0.0
 11
4.136811023622047
 21
4.650590551181101
 31
0.0
  0
LINE
  5
2B55
330
1E
100
AcDbEntity
  8
7
100
AcDbLine
 10
4.136811023622047
 20
4.650590551181101
 30
0.0
 11
4.136811023622047
 21
4.70767716535433
 31
0.0
  0
LINE
  5
2B56
330
1E
100
AcDbEntity
  8
7
100
AcDbLine
 10
4.136811023622047
 20
4.70767716535433
 30
0.0
 11
4.136811023622047
 21
4.771653543307086
 31
0.0
  0
LINE
  5
2B57
330
1E
100
AcDbEntity
  8
7
100
AcDbLine
 10
4.136811023622047
 20
4.771653543307086
 30
0.0
 11
4.136811023622047
 21
4.839566929133858
 31
0.0
  0
LINE
  5
2B58
330
1E
100
AcDbEntity
  8
7
100
AcDbLine
 10
4.136811023622047
 20
4.839566929133858
 30
0.0
 11
4.136811023622047
 21
4.910433070866141
 31
0.0
  0
LINE
  5
2B59
330
1E
100
AcDbEntity
  8
7
100
AcDbLine
 10
4.136811023622047
 20
4.910433070866141
 30
0.0
 11
4.136811023622047
 21
4.986220472440944
 31
0.0
  0
LINE
  5
2B5A
330
1E
100
AcDbEntity
  8
7
100
AcDbLine
 10
4.136811023622047
 20
4.986220472440944
 30
0.0
 11
4.136811023622047
 21
5.062992125984251
 31
0.0
  0
LINE
  5
2B5B
330
1E
100
AcDbEntity
  8
7
100
AcDbLine
 10
4.136811023622047
 20
5.062992125984251
 30
0.0
 11
4.136811023622047
 21
5.141732283464566
 31
0.0
  0
LINE
  5
2B5C
330
1E
100
AcDbEntity
  8
7
100
AcDbLine
 10
4.136811023622047
 20
5.141732283464566
 30
0.0
 11
4.136811023622047
 21
5.220472440944881
 31
0.0
  0
LINE
  5
2B5D
330
1E
100
AcDbEntity
  8
7
100
AcDbLine
 10
4.136811023622047
 20
5.220472440944881
 30
0.0
 11
4.136811023622047
 21
5.299212598425196
 31
0.0
  0
LINE
  5
2B5E
330
1E
100
AcDbEntity
  8
7
100
AcDbLine
 10
4.136811023622047
 20
5.299212598425196
 30
0.0
 11
4.136811023622047
 21
5.376968503937007
 31
0.0
  0
LINE
  5
2B5F
330
1E
100
AcDbEntity
  8
7
100
AcDbLine
 10
4.136811023622047
 20
5.376968503937007
 30
0.0
 11
4.136811023622047
 21
5.452755905511811
 31
0.0
  0
LINE
  5
2B60
330
1E
100
AcDbEntity
  8
7
100
AcDbLine
 10
4.136811023622047
 20
5.452755905511811
 30
0.0
 11
4.136811023622047
 21
5.525590551181101
 31
0.0
  0
LINE
  5
2B61
330
1E
100
AcDbEntity
  8
7
100
AcDbLine
 10
4.136811023622047
 20
5.525590551181101
 30
0.0
 11
4.136811023622047
 21
5.594488188976377
 31
0.0
  0
LINE
  5
2B62
330
1E
100
AcDbEntity
  8
7
100
AcDbLine
 10
4.136811023622047
 20
5.594488188976377
 30
0.0
 11
4.136811023622047
 21
5.658464566929133
 31
0.0
  0
LINE
  5
2B63
330
1E
100
AcDbEntity
  8
7
100
AcDbLine
 10
4.136811023622047
 20
5.658464566929133
 30
0.0
 11
4.136811023622047
 21
5.71751968503937
 31
0.0
  0
LINE
  5
2B64
330
1E
100
AcDbEntity
  8
7
100
AcDbLine
 10
4.136811023622047
 20
5.71751968503937
 30
0.0
 11
4.136811023622047
 21
5.770669291338582
 31
0.0
  0
LINE
  5
2B65
330
1E
100
AcDbEntity
  8
7
100
AcDbLine
 10
4.136811023622047
 20
5.770669291338582
 30
0.0
 11
4.136811023622047
 21
5.816929133858267
 31
0.0
  0
LINE
  5
2B66
330
1E
100
AcDbEntity
  8
7
100
AcDbLine
 10
4.136811023622047
 20
4.46259842519685
 30
0.0
 11
4.136811023622047
 21
4.48523622047244
 31
0.0
  0
LINE
  5
2B67
330
1E
100
AcDbEntity
  8
7
100
AcDbLine
 10
4.136811023622047
 20
4.48523622047244
 30
0.0
 11
4.136811023622047
 21
4.515748031496062
 31
0.0
  0
LINE
  5
2B68
330
1E
100
AcDbEntity
  8
7
100
AcDbLine
 10
4.136811023622047
 20
4.515748031496062
 30
0.0
 11
4.136811023622047
 21
4.553149606299212
 31
0.0
  0
LINE
  5
2B69
330
1E
100
AcDbEntity
  8
7
100
AcDbLine
 10
4.18503937007874
 20
5.016732283464566
 30
0.0
 11
4.18503937007874
 21
4.937992125984251
 31
0.0
  0
LINE
  5
2B6A
330
1E
100
AcDbEntity
  8
7
100
AcDbLine
 10
4.18503937007874
 20
4.937992125984251
 30
0.0
 11
4.18503937007874
 21
4.861220472440944
 31
0.0
  0
LINE
  5
2B6B
330
1E
100
AcDbEntity
  8
7
100
AcDbLine
 10
4.18503937007874
 20
4.861220472440944
 30
0.0
 11
4.18503937007874
 21
4.788385826771653
 31
0.0
  0
LINE
  5
2B6C
330
1E
100
AcDbEntity
  8
7
100
AcDbLine
 10
4.18503937007874
 20
4.788385826771653
 30
0.0
 11
4.18503937007874
 21
4.719488188976377
 31
0.0
  0
LINE
  5
2B6D
330
1E
100
AcDbEntity
  8
7
100
AcDbLine
 10
4.18503937007874
 20
4.719488188976377
 30
0.0
 11
4.18503937007874
 21
4.655511811023622
 31
0.0
  0
LINE
  5
2B6E
330
1E
100
AcDbEntity
  8
7
100
AcDbLine
 10
4.18503937007874
 20
4.655511811023622
 30
0.0
 11
4.18503937007874
 21
4.597440944881889
 31
0.0
  0
LINE
  5
2B6F
330
1E
100
AcDbEntity
  8
7
100
AcDbLine
 10
4.18503937007874
 20
4.597440944881889
 30
0.0
 11
4.18503937007874
 21
4.54527559055118
 31
0.0
  0
LINE
  5
2B70
330
1E
100
AcDbEntity
  8
7
100
AcDbLine
 10
4.18503937007874
 20
4.54527559055118
 30
0.0
 11
4.18503937007874
 21
4.500984251968503
 31
0.0
  0
LINE
  5
2B71
330
1E
100
AcDbEntity
  8
7
100
AcDbLine
 10
4.18503937007874
 20
4.500984251968503
 30
0.0
 11
4.18503937007874
 21
4.46259842519685
 31
0.0
  0
LINE
  5
2B72
330
1E
100
AcDbEntity
  8
7
100
AcDbLine
 10
4.18503937007874
 20
4.46259842519685
 30
0.0
 11
4.18503937007874
 21
4.433070866141732
 31
0.0
  0
LINE
  5
2B73
330
1E
100
AcDbEntity
  8
7
100
AcDbLine
 10
4.18503937007874
 20
4.433070866141732
 30
0.0
 11
4.18503937007874
 21
4.411417322834645
 31
0.0
  0
LINE
  5
2B74
330
1E
100
AcDbEntity
  8
7
100
AcDbLine
 10
4.18503937007874
 20
5.980314960629921
 30
0.0
 11
4.18503937007874
 21
5.964566929133858
 31
0.0
  0
LINE
  5
2B75
330
1E
100
AcDbEntity
  8
7
100
AcDbLine
 10
4.18503937007874
 20
5.964566929133858
 30
0.0
 11
4.18503937007874
 21
5.940944881889763
 31
0.0
  0
LINE
  5
2B76
330
1E
100
AcDbEntity
  8
7
100
AcDbLine
 10
4.18503937007874
 20
5.940944881889763
 30
0.0
 11
4.18503937007874
 21
5.908464566929133
 31
0.0
  0
LINE
  5
2B77
330
1E
100
AcDbEntity
  8
7
100
AcDbLine
 10
4.18503937007874
 20
5.908464566929133
 30
0.0
 11
4.18503937007874
 21
5.869094488188975
 31
0.0
  0
LINE
  5
2B78
330
1E
100
AcDbEntity
  8
7
100
AcDbLine
 10
4.18503937007874
 20
5.869094488188975
 30
0.0
 11
4.18503937007874
 21
5.821850393700787
 31
0.0
  0
LINE
  5
2B79
330
1E
100
AcDbEntity
  8
7
100
AcDbLine
 10
4.18503937007874
 20
5.821850393700787
 30
0.0
 11
4.18503937007874
 21
5.768700787401574
 31
0.0
  0
LINE
  5
2B7A
330
1E
100
AcDbEntity
  8
7
100
AcDbLine
 10
4.18503937007874
 20
5.768700787401574
 30
0.0
 11
4.18503937007874
 21
5.708661417322834
 31
0.0
  0
LINE
  5
2B7B
330
1E
100
AcDbEntity
  8
7
100
AcDbLine
 10
4.18503937007874
 20
5.708661417322834
 30
0.0
 11
4.18503937007874
 21
5.643700787401574
 31
0.0
  0
LINE
  5
2B7C
330
1E
100
AcDbEntity
  8
7
100
AcDbLine
 10
4.18503937007874
 20
5.643700787401574
 30
0.0
 11
4.18503937007874
 21
5.573818897637795
 31
0.0
  0
LINE
  5
2B7D
330
1E
100
AcDbEntity
  8
7
100
AcDbLine
 10
4.18503937007874
 20
5.573818897637795
 30
0.0
 11
4.18503937007874
 21
5.5
 31
0.0
  0
LINE
  5
2B7E
330
1E
100
AcDbEntity
  8
7
100
AcDbLine
 10
4.18503937007874
 20
5.5
 30
0.0
 11
4.18503937007874
 21
5.422244094488188
 31
0.0
  0
LINE
  5
2B7F
330
1E
100
AcDbEntity
  8
7
100
AcDbLine
 10
4.18503937007874
 20
5.422244094488188
 30
0.0
 11
4.18503937007874
 21
5.34251968503937
 31
0.0
  0
LINE
  5
2B80
330
1E
100
AcDbEntity
  8
7
100
AcDbLine
 10
4.18503937007874
 20
5.34251968503937
 30
0.0
 11
4.18503937007874
 21
5.261811023622047
 31
0.0
  0
LINE
  5
2B81
330
1E
100
AcDbEntity
  8
7
100
AcDbLine
 10
4.18503937007874
 20
5.261811023622047
 30
0.0
 11
4.18503937007874
 21
5.179133858267716
 31
0.0
  0
LINE
  5
2B82
330
1E
100
AcDbEntity
  8
7
100
AcDbLine
 10
4.18503937007874
 20
5.179133858267716
 30
0.0
 11
4.18503937007874
 21
5.097440944881889
 31
0.0
  0
LINE
  5
2B83
330
1E
100
AcDbEntity
  8
7
100
AcDbLine
 10
4.18503937007874
 20
5.097440944881889
 30
0.0
 11
4.18503937007874
 21
5.016732283464566
 31
0.0
  0
LINE
  5
2B84
330
1E
100
AcDbEntity
  8
7
100
AcDbLine
 10
4.230314960629921
 20
5.982283464566928
 30
0.0
 11
4.192913385826772
 21
5.980314960629921
 31
0.0
  0
LINE
  5
2B85
330
1E
100
AcDbEntity
  8
7
100
AcDbLine
 10
4.192913385826772
 20
5.980314960629921
 30
0.0
 11
4.18503937007874
 21
5.980314960629921
 31
0.0
  0
LINE
  5
2B86
330
1E
100
AcDbEntity
  8
7
100
AcDbLine
 10
4.230314960629921
 20
5.097440944881889
 30
0.0
 11
4.230314960629921
 21
5.015748031496062
 31
0.0
  0
LINE
  5
2B87
330
1E
100
AcDbEntity
  8
7
100
AcDbLine
 10
4.230314960629921
 20
5.015748031496062
 30
0.0
 11
4.230314960629921
 21
4.937007874015748
 31
0.0
  0
LINE
  5
2B88
330
1E
100
AcDbEntity
  8
7
100
AcDbLine
 10
4.230314960629921
 20
4.937007874015748
 30
0.0
 11
4.230314960629921
 21
4.86023622047244
 31
0.0
  0
LINE
  5
2B89
330
1E
100
AcDbEntity
  8
7
100
AcDbLine
 10
4.230314960629921
 20
4.86023622047244
 30
0.0
 11
4.230314960629921
 21
4.786417322834645
 31
0.0
  0
LINE
  5
2B8A
330
1E
100
AcDbEntity
  8
7
100
AcDbLine
 10
4.230314960629921
 20
4.786417322834645
 30
0.0
 11
4.230314960629921
 21
4.71751968503937
 31
0.0
  0
LINE
  5
2B8B
330
1E
100
AcDbEntity
  8
7
100
AcDbLine
 10
4.230314960629921
 20
4.71751968503937
 30
0.0
 11
4.230314960629921
 21
4.654527559055117
 31
0.0
  0
LINE
  5
2B8C
330
1E
100
AcDbEntity
  8
7
100
AcDbLine
 10
4.230314960629921
 20
4.654527559055117
 30
0.0
 11
4.230314960629921
 21
4.595472440944881
 31
0.0
  0
LINE
  5
2B8D
330
1E
100
AcDbEntity
  8
7
100
AcDbLine
 10
4.230314960629921
 20
4.595472440944881
 30
0.0
 11
4.230314960629921
 21
4.544291338582676
 31
0.0
  0
LINE
  5
2B8E
330
1E
100
AcDbEntity
  8
7
100
AcDbLine
 10
4.230314960629921
 20
4.544291338582676
 30
0.0
 11
4.230314960629921
 21
4.499015748031496
 31
0.0
  0
LINE
  5
2B8F
330
1E
100
AcDbEntity
  8
7
100
AcDbLine
 10
4.230314960629921
 20
4.499015748031496
 30
0.0
 11
4.230314960629921
 21
4.461614173228346
 31
0.0
  0
LINE
  5
2B90
330
1E
100
AcDbEntity
  8
7
100
AcDbLine
 10
4.230314960629921
 20
4.461614173228346
 30
0.0
 11
4.230314960629921
 21
4.431102362204724
 31
0.0
  0
LINE
  5
2B91
330
1E
100
AcDbEntity
  8
7
100
AcDbLine
 10
4.230314960629921
 20
4.431102362204724
 30
0.0
 11
4.230314960629921
 21
4.409448818897637
 31
0.0
  0
LINE
  5
2B92
330
1E
100
AcDbEntity
  8
7
100
AcDbLine
 10
4.230314960629921
 20
5.982283464566928
 30
0.0
 11
4.230314960629921
 21
5.966535433070865
 31
0.0
  0
LINE
  5
2B93
330
1E
100
AcDbEntity
  8
7
100
AcDbLine
 10
4.230314960629921
 20
5.966535433070865
 30
0.0
 11
4.230314960629921
 21
5.941929133858267
 31
0.0
  0
LINE
  5
2B94
330
1E
100
AcDbEntity
  8
7
100
AcDbLine
 10
4.230314960629921
 20
5.941929133858267
 30
0.0
 11
4.230314960629921
 21
5.910433070866141
 31
0.0
  0
LINE
  5
2B95
330
1E
100
AcDbEntity
  8
7
100
AcDbLine
 10
4.230314960629921
 20
5.910433070866141
 30
0.0
 11
4.230314960629921
 21
5.87007874015748
 31
0.0
  0
LINE
  5
2B96
330
1E
100
AcDbEntity
  8
7
100
AcDbLine
 10
4.230314960629921
 20
5.87007874015748
 30
0.0
 11
4.230314960629921
 21
5.823818897637795
 31
0.0
  0
LINE
  5
2B97
330
1E
100
AcDbEntity
  8
7
100
AcDbLine
 10
4.230314960629921
 20
5.823818897637795
 30
0.0
 11
4.230314960629921
 21
5.769685039370078
 31
0.0
  0
LINE
  5
2B98
330
1E
100
AcDbEntity
  8
7
100
AcDbLine
 10
4.230314960629921
 20
5.769685039370078
 30
0.0
 11
4.230314960629921
 21
5.710629921259842
 31
0.0
  0
LINE
  5
2B99
330
1E
100
AcDbEntity
  8
7
100
AcDbLine
 10
4.230314960629921
 20
5.710629921259842
 30
0.0
 11
4.230314960629921
 21
5.644685039370078
 31
0.0
  0
LINE
  5
2B9A
330
1E
100
AcDbEntity
  8
7
100
AcDbLine
 10
4.230314960629921
 20
5.644685039370078
 30
0.0
 11
4.230314960629921
 21
5.574803149606299
 31
0.0
  0
LINE
  5
2B9B
330
1E
100
AcDbEntity
  8
7
100
AcDbLine
 10
4.230314960629921
 20
5.574803149606299
 30
0.0
 11
4.230314960629921
 21
5.500984251968503
 31
0.0
  0
LINE
  5
2B9C
330
1E
100
AcDbEntity
  8
7
100
AcDbLine
 10
4.230314960629921
 20
5.500984251968503
 30
0.0
 11
4.230314960629921
 21
5.423228346456692
 31
0.0
  0
LINE
  5
2B9D
330
1E
100
AcDbEntity
  8
7
100
AcDbLine
 10
4.230314960629921
 20
5.423228346456692
 30
0.0
 11
4.230314960629921
 21
5.343503937007874
 31
0.0
  0
LINE
  5
2B9E
330
1E
100
AcDbEntity
  8
7
100
AcDbLine
 10
4.230314960629921
 20
5.343503937007874
 30
0.0
 11
4.230314960629921
 21
5.261811023622047
 31
0.0
  0
LINE
  5
2B9F
330
1E
100
AcDbEntity
  8
7
100
AcDbLine
 10
4.230314960629921
 20
5.261811023622047
 30
0.0
 11
4.230314960629921
 21
5.179133858267716
 31
0.0
  0
LINE
  5
2BA0
330
1E
100
AcDbEntity
  8
7
100
AcDbLine
 10
4.230314960629921
 20
5.179133858267716
 30
0.0
 11
4.230314960629921
 21
5.097440944881889
 31
0.0
  0
LINE
  5
2BA1
330
1E
100
AcDbEntity
  8
7
100
AcDbLine
 10
4.665354330708661
 20
4.531496062992125
 30
0.0
 11
4.665354330708661
 21
4.536417322834645
 31
0.0
  0
LINE
  5
2BA2
330
1E
100
AcDbEntity
  8
7
100
AcDbLine
 10
4.665354330708661
 20
4.536417322834645
 30
0.0
 11
4.665354330708661
 21
4.552165354330708
 31
0.0
  0
LINE
  5
2BA3
330
1E
100
AcDbEntity
  8
7
100
AcDbLine
 10
4.665354330708661
 20
4.552165354330708
 30
0.0
 11
4.665354330708661
 21
4.577755905511811
 31
0.0
  0
LINE
  5
2BA4
330
1E
100
AcDbEntity
  8
7
100
AcDbLine
 10
4.665354330708661
 20
4.577755905511811
 30
0.0
 11
4.660433070866141
 21
4.589566929133858
 31
0.0
  0
LINE
  5
2BA5
330
1E
100
AcDbEntity
  8
7
100
AcDbLine
 10
4.660433070866141
 20
4.589566929133858
 30
0.0
 11
4.654527559055118
 21
4.595472440944881
 31
0.0
  0
LINE
  5
2BA6
330
1E
100
AcDbEntity
  8
7
100
AcDbLine
 10
4.654527559055118
 20
4.595472440944881
 30
0.0
 11
4.645669291338582
 21
4.600393700787401
 31
0.0
  0
LINE
  5
2BA7
330
1E
100
AcDbEntity
  8
7
100
AcDbLine
 10
4.645669291338582
 20
4.600393700787401
 30
0.0
 11
4.634842519685039
 21
4.605314960629921
 31
0.0
  0
LINE
  5
2BA8
330
1E
100
AcDbEntity
  8
7
100
AcDbLine
 10
4.634842519685039
 20
4.605314960629921
 30
0.0
 11
4.622047244094487
 21
4.609251968503937
 31
0.0
  0
LINE
  5
2BA9
330
1E
100
AcDbEntity
  8
7
100
AcDbLine
 10
4.622047244094487
 20
4.609251968503937
 30
0.0
 11
4.609251968503937
 21
4.611220472440944
 31
0.0
  0
LINE
  5
2BAA
330
1E
100
AcDbEntity
  8
7
100
AcDbLine
 10
4.609251968503937
 20
4.611220472440944
 30
0.0
 11
4.595472440944882
 21
4.612204724409449
 31
0.0
  0
LINE
  5
2BAB
330
1E
100
AcDbEntity
  8
7
100
AcDbLine
 10
4.43011811023622
 20
5.441929133858267
 30
0.0
 11
4.43011811023622
 21
5.372047244094487
 31
0.0
  0
LINE
  5
2BAC
330
1E
100
AcDbEntity
  8
7
100
AcDbLine
 10
4.43011811023622
 20
5.372047244094487
 30
0.0
 11
4.43011811023622
 21
5.3001968503937
 31
0.0
  0
LINE
  5
2BAD
330
1E
100
AcDbEntity
  8
7
100
AcDbLine
 10
4.43011811023622
 20
5.3001968503937
 30
0.0
 11
4.43011811023622
 21
5.226377952755905
 31
0.0
  0
LINE
  5
2BAE
330
1E
100
AcDbEntity
  8
7
100
AcDbLine
 10
4.43011811023622
 20
5.226377952755905
 30
0.0
 11
4.43011811023622
 21
5.151574803149606
 31
0.0
  0
LINE
  5
2BAF
330
1E
100
AcDbEntity
  8
7
100
AcDbLine
 10
4.43011811023622
 20
5.151574803149606
 30
0.0
 11
4.43011811023622
 21
5.077755905511811
 31
0.0
  0
LINE
  5
2BB0
330
1E
100
AcDbEntity
  8
7
100
AcDbLine
 10
4.43011811023622
 20
5.077755905511811
 30
0.0
 11
4.43011811023622
 21
5.005905511811023
 31
0.0
  0
LINE
  5
2BB1
330
1E
100
AcDbEntity
  8
7
100
AcDbLine
 10
4.43011811023622
 20
5.005905511811023
 30
0.0
 11
4.43011811023622
 21
4.935039370078739
 31
0.0
  0
LINE
  5
2BB2
330
1E
100
AcDbEntity
  8
7
100
AcDbLine
 10
4.43011811023622
 20
4.935039370078739
 30
0.0
 11
4.43011811023622
 21
4.869094488188975
 31
0.0
  0
LINE
  5
2BB3
330
1E
100
AcDbEntity
  8
7
100
AcDbLine
 10
4.43011811023622
 20
4.869094488188975
 30
0.0
 11
4.43011811023622
 21
4.806102362204724
 31
0.0
  0
LINE
  5
2BB4
330
1E
100
AcDbEntity
  8
7
100
AcDbLine
 10
4.43011811023622
 20
4.806102362204724
 30
0.0
 11
4.43011811023622
 21
4.748031496062991
 31
0.0
  0
LINE
  5
2BB5
330
1E
100
AcDbEntity
  8
7
100
AcDbLine
 10
4.43011811023622
 20
4.748031496062991
 30
0.0
 11
4.43011811023622
 21
4.695866141732283
 31
0.0
  0
LINE
  5
2BB6
330
1E
100
AcDbEntity
  8
7
100
AcDbLine
 10
4.43011811023622
 20
4.695866141732283
 30
0.0
 11
4.43011811023622
 21
4.649606299212598
 31
0.0
  0
LINE
  5
2BB7
330
1E
100
AcDbEntity
  8
7
100
AcDbLine
 10
4.43011811023622
 20
4.649606299212598
 30
0.0
 11
4.43011811023622
 21
4.61023622047244
 31
0.0
  0
LINE
  5
2BB8
330
1E
100
AcDbEntity
  8
7
100
AcDbLine
 10
4.43011811023622
 20
5.841535433070865
 30
0.0
 11
4.43011811023622
 21
5.825787401574802
 31
0.0
  0
LINE
  5
2BB9
330
1E
100
AcDbEntity
  8
7
100
AcDbLine
 10
4.43011811023622
 20
5.825787401574802
 30
0.0
 11
4.43011811023622
 21
5.801181102362204
 31
0.0
  0
LINE
  5
2BBA
330
1E
100
AcDbEntity
  8
7
100
AcDbLine
 10
4.43011811023622
 20
5.801181102362204
 30
0.0
 11
4.43011811023622
 21
5.768700787401574
 31
0.0
  0
LINE
  5
2BBB
330
1E
100
AcDbEntity
  8
7
100
AcDbLine
 10
4.43011811023622
 20
5.768700787401574
 30
0.0
 11
4.43011811023622
 21
5.729330708661417
 31
0.0
  0
LINE
  5
2BBC
330
1E
100
AcDbEntity
  8
7
100
AcDbLine
 10
4.43011811023622
 20
5.729330708661417
 30
0.0
 11
4.43011811023622
 21
5.683070866141732
 31
0.0
  0
LINE
  5
2BBD
330
1E
100
AcDbEntity
  8
7
100
AcDbLine
 10
4.43011811023622
 20
5.683070866141732
 30
0.0
 11
4.43011811023622
 21
5.629921259842519
 31
0.0
  0
LINE
  5
2BBE
330
1E
100
AcDbEntity
  8
7
100
AcDbLine
 10
4.43011811023622
 20
5.629921259842519
 30
0.0
 11
4.43011811023622
 21
5.571850393700787
 31
0.0
  0
LINE
  5
2BBF
330
1E
100
AcDbEntity
  8
7
100
AcDbLine
 10
4.43011811023622
 20
5.571850393700787
 30
0.0
 11
4.43011811023622
 21
5.508858267716535
 31
0.0
  0
LINE
  5
2BC0
330
1E
100
AcDbEntity
  8
7
100
AcDbLine
 10
4.43011811023622
 20
5.508858267716535
 30
0.0
 11
4.43011811023622
 21
5.441929133858267
 31
0.0
  0
LINE
  5
2BC1
330
1E
100
AcDbEntity
  8
7
100
AcDbLine
 10
4.43011811023622
 20
4.636811023622047
 30
0.0
 11
4.594488188976377
 21
4.638779527559054
 31
0.0
  0
LINE
  5
2BC2
330
1E
100
AcDbEntity
  8
7
100
AcDbLine
 10
4.594488188976377
 20
4.638779527559054
 30
0.0
 11
4.594488188976377
 21
4.682086614173227
 31
0.0
  0
LINE
  5
2BC3
330
1E
100
AcDbEntity
  8
7
100
AcDbLine
 10
4.594488188976377
 20
4.682086614173227
 30
0.0
 11
4.625
 21
4.679133858267716
 31
0.0
  0
LINE
  5
2BC4
330
1E
100
AcDbEntity
  8
7
100
AcDbLine
 10
4.625
 20
4.679133858267716
 30
0.0
 11
4.650590551181102
 21
4.67027559055118
 31
0.0
  0
LINE
  5
2BC5
330
1E
100
AcDbEntity
  8
7
100
AcDbLine
 10
4.650590551181102
 20
4.67027559055118
 30
0.0
 11
4.673228346456692
 21
4.658464566929133
 31
0.0
  0
LINE
  5
2BC6
330
1E
100
AcDbEntity
  8
7
100
AcDbLine
 10
4.673228346456692
 20
4.658464566929133
 30
0.0
 11
4.68996062992126
 21
4.64271653543307
 31
0.0
  0
LINE
  5
2BC7
330
1E
100
AcDbEntity
  8
7
100
AcDbLine
 10
4.154527559055118
 20
4.423228346456692
 30
0.0
 11
4.143700787401574
 21
4.436023622047243
 31
0.0
  0
LINE
  5
2BC8
330
1E
100
AcDbEntity
  8
7
100
AcDbLine
 10
4.143700787401574
 20
4.436023622047243
 30
0.0
 11
4.13779527559055
 21
4.451771653543307
 31
0.0
  0
LINE
  5
2BC9
330
1E
100
AcDbEntity
  8
7
100
AcDbLine
 10
4.13779527559055
 20
4.451771653543307
 30
0.0
 11
4.136811023622047
 21
4.46259842519685
 31
0.0
  0
LINE
  5
2BCA
330
1E
100
AcDbEntity
  8
7
100
AcDbLine
 10
4.230314960629921
 20
4.409448818897637
 30
0.0
 11
4.18503937007874
 21
4.411417322834645
 31
0.0
  0
LINE
  5
2BCB
330
1E
100
AcDbEntity
  8
7
100
AcDbLine
 10
4.18503937007874
 20
4.411417322834645
 30
0.0
 11
4.169291338582676
 21
4.414370078740157
 31
0.0
  0
LINE
  5
2BCC
330
1E
100
AcDbEntity
  8
7
100
AcDbLine
 10
4.169291338582676
 20
4.414370078740157
 30
0.0
 11
4.154527559055118
 21
4.423228346456692
 31
0.0
  0
LINE
  5
2BCD
330
1E
100
AcDbEntity
  8
7
100
AcDbLine
 10
4.545275590551181
 20
4.552165354330708
 30
0.0
 11
4.545275590551181
 21
4.546259842519685
 31
0.0
  0
LINE
  5
2BCE
330
1E
100
AcDbEntity
  8
7
100
AcDbLine
 10
4.545275590551181
 20
4.546259842519685
 30
0.0
 11
4.545275590551181
 21
4.542322834645669
 31
0.0
  0
LINE
  5
2BCF
330
1E
100
AcDbEntity
  8
7
100
AcDbLine
 10
4.583661417322835
 20
4.536417322834645
 30
0.0
 11
4.583661417322835
 21
4.539370078740157
 31
0.0
  0
LINE
  5
2BD0
330
1E
100
AcDbEntity
  8
7
100
AcDbLine
 10
4.583661417322835
 20
4.539370078740157
 30
0.0
 11
4.583661417322835
 21
4.542322834645669
 31
0.0
  0
LINE
  5
2BD1
330
1E
100
AcDbEntity
  8
7
100
AcDbLine
 10
4.583661417322835
 20
4.542322834645669
 30
0.0
 11
4.379921259842519
 21
4.444881889763779
 31
0.0
  0
LINE
  5
2BD2
330
1E
100
AcDbEntity
  8
7
100
AcDbLine
 10
4.646653543307087
 20
4.88779527559055
 30
0.0
 11
4.656496062992125
 21
4.891732283464566
 31
0.0
  0
LINE
  5
2BD3
330
1E
100
AcDbEntity
  8
7
100
AcDbLine
 10
4.656496062992125
 20
4.891732283464566
 30
0.0
 11
4.661417322834645
 21
4.90255905511811
 31
0.0
  0
LINE
  5
2BD4
330
1E
100
AcDbEntity
  8
7
100
AcDbLine
 10
4.661417322834645
 20
4.913385826771653
 30
0.0
 11
4.659448818897637
 21
4.933070866141732
 31
0.0
  0
LINE
  5
2BD5
330
1E
100
AcDbEntity
  8
7
100
AcDbLine
 10
4.659448818897637
 20
4.933070866141732
 30
0.0
 11
4.650590551181102
 21
4.949803149606299
 31
0.0
  0
LINE
  5
2BD6
330
1E
100
AcDbEntity
  8
7
100
AcDbLine
 10
4.694881889763779
 20
4.627952755905512
 30
0.0
 11
4.694881889763779
 21
4.606299212598425
 31
0.0
  0
LINE
  5
2BD7
330
1E
100
AcDbEntity
  8
7
100
AcDbLine
 10
4.694881889763779
 20
4.606299212598425
 30
0.0
 11
4.694881889763779
 21
4.581692913385826
 31
0.0
  0
LINE
  5
2BD8
330
1E
100
AcDbEntity
  8
7
100
AcDbLine
 10
4.694881889763779
 20
4.581692913385826
 30
0.0
 11
4.694881889763779
 21
4.566929133858267
 31
0.0
  0
LINE
  5
2BD9
330
1E
100
AcDbEntity
  8
7
100
AcDbLine
 10
4.694881889763779
 20
4.566929133858267
 30
0.0
 11
4.694881889763779
 21
4.561023622047243
 31
0.0
  0
LINE
  5
2BDA
330
1E
100
AcDbEntity
  8
7
100
AcDbLine
 10
4.379921259842519
 20
4.439960629921259
 30
0.0
 11
4.379921259842519
 21
4.441929133858267
 31
0.0
  0
LINE
  5
2BDB
330
1E
100
AcDbEntity
  8
7
100
AcDbLine
 10
4.379921259842519
 20
4.441929133858267
 30
0.0
 11
4.379921259842519
 21
4.444881889763779
 31
0.0
  0
LINE
  5
2BDC
330
1E
100
AcDbEntity
  8
7
100
AcDbLine
 10
4.379921259842519
 20
4.444881889763779
 30
0.0
 11
4.379921259842519
 21
4.468503937007874
 31
0.0
  0
LINE
  5
2BDD
330
1E
100
AcDbEntity
  8
7
100
AcDbLine
 10
4.572834645669291
 20
4.530511811023622
 30
0.0
 11
4.665354330708661
 21
4.531496062992125
 31
0.0
  0
LINE
  5
2BDE
330
1E
100
AcDbEntity
  8
7
100
AcDbLine
 10
4.665354330708661
 20
4.531496062992125
 30
0.0
 11
4.694881889763779
 21
4.562007874015748
 31
0.0
  0
LINE
  5
2BDF
330
1E
100
AcDbEntity
  8
7
100
AcDbLine
 10
1.99507874015748
 20
5.916338582677164
 30
0.0
 11
1.969488188976377
 21
5.913385826771653
 31
0.0
  0
LINE
  5
2BE0
330
1E
100
AcDbEntity
  8
7
100
AcDbLine
 10
1.969488188976377
 20
5.913385826771653
 30
0.0
 11
1.943897637795275
 21
5.909448818897637
 31
0.0
  0
LINE
  5
2BE1
330
1E
100
AcDbEntity
  8
7
100
AcDbLine
 10
2.164370078740157
 20
5.909448818897637
 30
0.0
 11
2.138779527559055
 21
5.913385826771653
 31
0.0
  0
LINE
  5
2BE2
330
1E
100
AcDbEntity
  8
7
100
AcDbLine
 10
2.138779527559055
 20
5.913385826771653
 30
0.0
 11
2.113188976377952
 21
5.916338582677164
 31
0.0
  0
LINE
  5
2BE3
330
1E
100
AcDbEntity
  8
7
100
AcDbLine
 10
1.939960629921259
 20
5.980314960629921
 30
0.0
 11
1.939960629921259
 21
5.977362204724409
 31
0.0
  0
LINE
  5
2BE4
330
1E
100
AcDbEntity
  8
7
100
AcDbLine
 10
1.939960629921259
 20
5.977362204724409
 30
0.0
 11
1.938976377952755
 21
5.968503937007874
 31
0.0
  0
LINE
  5
2BE5
330
1E
100
AcDbEntity
  8
7
100
AcDbLine
 10
1.938976377952755
 20
5.968503937007874
 30
0.0
 11
1.938976377952755
 21
5.955708661417323
 31
0.0
  0
LINE
  5
2BE6
330
1E
100
AcDbEntity
  8
7
100
AcDbLine
 10
1.938976377952755
 20
5.955708661417323
 30
0.0
 11
1.938976377952755
 21
5.939960629921259
 31
0.0
  0
LINE
  5
2BE7
330
1E
100
AcDbEntity
  8
7
100
AcDbLine
 10
1.938976377952755
 20
5.939960629921259
 30
0.0
 11
1.938976377952755
 21
5.93011811023622
 31
0.0
  0
LINE
  5
2BE8
330
1E
100
AcDbEntity
  8
7
100
AcDbLine
 10
2.168307086614173
 20
5.93011811023622
 30
0.0
 11
2.168307086614173
 21
5.946850393700787
 31
0.0
  0
LINE
  5
2BE9
330
1E
100
AcDbEntity
  8
7
100
AcDbLine
 10
2.168307086614173
 20
5.946850393700787
 30
0.0
 11
2.168307086614173
 21
5.961614173228346
 31
0.0
  0
LINE
  5
2BEA
330
1E
100
AcDbEntity
  8
7
100
AcDbLine
 10
2.168307086614173
 20
5.961614173228346
 30
0.0
 11
2.168307086614173
 21
5.973425196850393
 31
0.0
  0
LINE
  5
2BEB
330
1E
100
AcDbEntity
  8
7
100
AcDbLine
 10
2.168307086614173
 20
5.973425196850393
 30
0.0
 11
2.168307086614173
 21
5.979330708661417
 31
0.0
  0
LINE
  5
2BEC
330
1E
100
AcDbEntity
  8
7
100
AcDbLine
 10
2.164370078740157
 20
5.886811023622047
 30
0.0
 11
2.139763779527559
 21
5.890748031496062
 31
0.0
  0
LINE
  5
2BED
330
1E
100
AcDbEntity
  8
7
100
AcDbLine
 10
2.139763779527559
 20
5.890748031496062
 30
0.0
 11
2.113188976377952
 21
5.89271653543307
 31
0.0
  0
LINE
  5
2BEE
330
1E
100
AcDbEntity
  8
7
100
AcDbLine
 10
2.164370078740157
 20
5.886811023622047
 30
0.0
 11
2.166338582677165
 21
5.878937007874015
 31
0.0
  0
LINE
  5
2BEF
330
1E
100
AcDbEntity
  8
7
100
AcDbLine
 10
2.166338582677165
 20
5.878937007874015
 30
0.0
 11
2.167322834645669
 21
5.873031496062991
 31
0.0
  0
LINE
  5
2BF0
330
1E
100
AcDbEntity
  8
7
100
AcDbLine
 10
2.167322834645669
 20
5.873031496062991
 30
0.0
 11
2.168307086614173
 21
5.869094488188975
 31
0.0
  0
LINE
  5
2BF1
330
1E
100
AcDbEntity
  8
7
100
AcDbLine
 10
2.168307086614173
 20
5.869094488188975
 30
0.0
 11
2.168307086614173
 21
5.86515748031496
 31
0.0
  0
LINE
  5
2BF2
330
1E
100
AcDbEntity
  8
7
100
AcDbLine
 10
1.942913385826771
 20
5.886811023622047
 30
0.0
 11
1.941929133858267
 21
5.878937007874015
 31
0.0
  0
LINE
  5
2BF3
330
1E
100
AcDbEntity
  8
7
100
AcDbLine
 10
1.941929133858267
 20
5.878937007874015
 30
0.0
 11
1.940944881889763
 21
5.873031496062991
 31
0.0
  0
LINE
  5
2BF4
330
1E
100
AcDbEntity
  8
7
100
AcDbLine
 10
1.940944881889763
 20
5.873031496062991
 30
0.0
 11
1.939960629921259
 21
5.869094488188975
 31
0.0
  0
LINE
  5
2BF5
330
1E
100
AcDbEntity
  8
7
100
AcDbLine
 10
1.939960629921259
 20
5.869094488188975
 30
0.0
 11
1.938976377952755
 21
5.86515748031496
 31
0.0
  0
LINE
  5
2BF6
330
1E
100
AcDbEntity
  8
7
100
AcDbLine
 10
1.99507874015748
 20
5.89271653543307
 30
0.0
 11
1.968503937007873
 21
5.890748031496062
 31
0.0
  0
LINE
  5
2BF7
330
1E
100
AcDbEntity
  8
7
100
AcDbLine
 10
1.968503937007873
 20
5.890748031496062
 30
0.0
 11
1.943897637795275
 21
5.886811023622047
 31
0.0
  0
LINE
  5
2BF8
330
1E
100
AcDbEntity
  8
7
100
AcDbLine
 10
2.113188976377952
 20
5.89271653543307
 30
0.0
 11
2.054133858267716
 21
5.895669291338582
 31
0.0
  0
LINE
  5
2BF9
330
1E
100
AcDbEntity
  8
7
100
AcDbLine
 10
2.054133858267716
 20
5.895669291338582
 30
0.0
 11
1.99507874015748
 21
5.89271653543307
 31
0.0
  0
LINE
  5
2BFA
330
1E
100
AcDbEntity
  8
7
100
AcDbLine
 10
1.460629921259842
 20
4.654527559055117
 30
0.0
 11
1.518700787401574
 21
4.596456692913386
 31
0.0
  0
LINE
  5
2BFB
330
1E
100
AcDbEntity
  8
7
100
AcDbLine
 10
1.518700787401574
 20
4.596456692913386
 30
0.0
 11
1.58267716535433
 21
4.544291338582676
 31
0.0
  0
LINE
  5
2BFC
330
1E
100
AcDbEntity
  8
7
100
AcDbLine
 10
1.58267716535433
 20
4.544291338582676
 30
0.0
 11
1.651574803149606
 21
4.499015748031496
 31
0.0
  0
LINE
  5
2BFD
330
1E
100
AcDbEntity
  8
7
100
AcDbLine
 10
1.651574803149606
 20
4.499015748031496
 30
0.0
 11
1.725393700787401
 21
4.461614173228346
 31
0.0
  0
LINE
  5
2BFE
330
1E
100
AcDbEntity
  8
7
100
AcDbLine
 10
1.725393700787401
 20
4.461614173228346
 30
0.0
 11
1.802165354330708
 21
4.432086614173227
 31
0.0
  0
LINE
  5
2BFF
330
1E
100
AcDbEntity
  8
7
100
AcDbLine
 10
1.802165354330708
 20
4.432086614173227
 30
0.0
 11
1.880905511811023
 21
4.409448818897637
 31
0.0
  0
LINE
  5
2C00
330
1E
100
AcDbEntity
  8
7
100
AcDbLine
 10
1.396653543307086
 20
5.644685039370078
 30
0.0
 11
1.353346456692913
 21
5.573818897637795
 31
0.0
  0
LINE
  5
2C01
330
1E
100
AcDbEntity
  8
7
100
AcDbLine
 10
1.353346456692913
 20
5.573818897637795
 30
0.0
 11
1.317913385826771
 21
5.5
 31
0.0
  0
LINE
  5
2C02
330
1E
100
AcDbEntity
  8
7
100
AcDbLine
 10
1.317913385826771
 20
5.5
 30
0.0
 11
1.289370078740157
 21
5.423228346456692
 31
0.0
  0
LINE
  5
2C03
330
1E
100
AcDbEntity
  8
7
100
AcDbLine
 10
1.289370078740157
 20
5.423228346456692
 30
0.0
 11
1.269685039370078
 21
5.34251968503937
 31
0.0
  0
LINE
  5
2C04
330
1E
100
AcDbEntity
  8
7
100
AcDbLine
 10
1.269685039370078
 20
5.34251968503937
 30
0.0
 11
1.257874015748031
 21
5.261811023622047
 31
0.0
  0
LINE
  5
2C05
330
1E
100
AcDbEntity
  8
7
100
AcDbLine
 10
1.257874015748031
 20
5.261811023622047
 30
0.0
 11
1.254921259842519
 21
5.179133858267716
 31
0.0
  0
LINE
  5
2C06
330
1E
100
AcDbEntity
  8
7
100
AcDbLine
 10
1.254921259842519
 20
5.179133858267716
 30
0.0
 11
1.259842519685039
 21
5.097440944881889
 31
0.0
  0
LINE
  5
2C07
330
1E
100
AcDbEntity
  8
7
100
AcDbLine
 10
1.259842519685039
 20
5.097440944881889
 30
0.0
 11
1.273622047244094
 21
5.015748031496062
 31
0.0
  0
LINE
  5
2C08
330
1E
100
AcDbEntity
  8
7
100
AcDbLine
 10
1.273622047244094
 20
5.015748031496062
 30
0.0
 11
1.296259842519684
 21
4.937007874015748
 31
0.0
  0
LINE
  5
2C09
330
1E
100
AcDbEntity
  8
7
100
AcDbLine
 10
1.296259842519684
 20
4.937007874015748
 30
0.0
 11
1.325787401574803
 21
4.86023622047244
 31
0.0
  0
LINE
  5
2C0A
330
1E
100
AcDbEntity
  8
7
100
AcDbLine
 10
1.325787401574803
 20
4.86023622047244
 30
0.0
 11
1.364173228346456
 21
4.787401574803149
 31
0.0
  0
LINE
  5
2C0B
330
1E
100
AcDbEntity
  8
7
100
AcDbLine
 10
1.364173228346456
 20
4.787401574803149
 30
0.0
 11
1.409448818897637
 21
4.718503937007874
 31
0.0
  0
LINE
  5
2C0C
330
1E
100
AcDbEntity
  8
7
100
AcDbLine
 10
1.409448818897637
 20
4.718503937007874
 30
0.0
 11
1.460629921259842
 21
4.654527559055117
 31
0.0
  0
LINE
  5
2C0D
330
1E
100
AcDbEntity
  8
7
100
AcDbLine
 10
1.940944881889763
 20
5.981299212598425
 30
0.0
 11
1.86023622047244
 21
5.965551181102362
 31
0.0
  0
LINE
  5
2C0E
330
1E
100
AcDbEntity
  8
7
100
AcDbLine
 10
1.86023622047244
 20
5.965551181102362
 30
0.0
 11
1.781496062992126
 21
5.940944881889763
 31
0.0
  0
LINE
  5
2C0F
330
1E
100
AcDbEntity
  8
7
100
AcDbLine
 10
1.781496062992126
 20
5.940944881889763
 30
0.0
 11
1.705708661417322
 21
5.909448818897637
 31
0.0
  0
LINE
  5
2C10
330
1E
100
AcDbEntity
  8
7
100
AcDbLine
 10
1.705708661417322
 20
5.909448818897637
 30
0.0
 11
1.633858267716535
 21
5.869094488188975
 31
0.0
  0
LINE
  5
2C11
330
1E
100
AcDbEntity
  8
7
100
AcDbLine
 10
1.633858267716535
 20
5.869094488188975
 30
0.0
 11
1.565944881889763
 21
5.82283464566929
 31
0.0
  0
LINE
  5
2C12
330
1E
100
AcDbEntity
  8
7
100
AcDbLine
 10
1.565944881889763
 20
5.82283464566929
 30
0.0
 11
1.503937007874015
 21
5.768700787401574
 31
0.0
  0
LINE
  5
2C13
330
1E
100
AcDbEntity
  8
7
100
AcDbLine
 10
1.503937007874015
 20
5.768700787401574
 30
0.0
 11
1.446850393700787
 21
5.709645669291338
 31
0.0
  0
LINE
  5
2C14
330
1E
100
AcDbEntity
  8
7
100
AcDbLine
 10
1.446850393700787
 20
5.709645669291338
 30
0.0
 11
1.396653543307086
 21
5.644685039370078
 31
0.0
  0
LINE
  5
2C15
330
1E
100
AcDbEntity
  8
7
100
AcDbLine
 10
1.274606299212598
 20
5.016732283464566
 30
0.0
 11
1.297244094488188
 21
4.937007874015748
 31
0.0
  0
LINE
  5
2C16
330
1E
100
AcDbEntity
  8
7
100
AcDbLine
 10
1.297244094488188
 20
4.937007874015748
 30
0.0
 11
1.326771653543306
 21
4.861220472440944
 31
0.0
  0
LINE
  5
2C17
330
1E
100
AcDbEntity
  8
7
100
AcDbLine
 10
1.326771653543306
 20
4.861220472440944
 30
0.0
 11
1.364173228346456
 21
4.788385826771653
 31
0.0
  0
LINE
  5
2C18
330
1E
100
AcDbEntity
  8
7
100
AcDbLine
 10
1.364173228346456
 20
4.788385826771653
 30
0.0
 11
1.409448818897637
 21
4.719488188976377
 31
0.0
  0
LINE
  5
2C19
330
1E
100
AcDbEntity
  8
7
100
AcDbLine
 10
1.409448818897637
 20
4.719488188976377
 30
0.0
 11
1.461614173228346
 21
4.655511811023622
 31
0.0
  0
LINE
  5
2C1A
330
1E
100
AcDbEntity
  8
7
100
AcDbLine
 10
1.461614173228346
 20
4.655511811023622
 30
0.0
 11
1.519685039370078
 21
4.597440944881889
 31
0.0
  0
LINE
  5
2C1B
330
1E
100
AcDbEntity
  8
7
100
AcDbLine
 10
1.519685039370078
 20
4.597440944881889
 30
0.0
 11
1.58267716535433
 21
4.54527559055118
 31
0.0
  0
LINE
  5
2C1C
330
1E
100
AcDbEntity
  8
7
100
AcDbLine
 10
1.58267716535433
 20
4.54527559055118
 30
0.0
 11
1.651574803149606
 21
4.500984251968503
 31
0.0
  0
LINE
  5
2C1D
330
1E
100
AcDbEntity
  8
7
100
AcDbLine
 10
1.651574803149606
 20
4.500984251968503
 30
0.0
 11
1.724409448818897
 21
4.46259842519685
 31
0.0
  0
LINE
  5
2C1E
330
1E
100
AcDbEntity
  8
7
100
AcDbLine
 10
1.724409448818897
 20
4.46259842519685
 30
0.0
 11
1.801181102362204
 21
4.433070866141732
 31
0.0
  0
LINE
  5
2C1F
330
1E
100
AcDbEntity
  8
7
100
AcDbLine
 10
1.801181102362204
 20
4.433070866141732
 30
0.0
 11
1.879921259842519
 21
4.411417322834645
 31
0.0
  0
LINE
  5
2C20
330
1E
100
AcDbEntity
  8
7
100
AcDbLine
 10
1.633858267716535
 20
5.868110236220472
 30
0.0
 11
1.565944881889763
 21
5.821850393700787
 31
0.0
  0
LINE
  5
2C21
330
1E
100
AcDbEntity
  8
7
100
AcDbLine
 10
1.565944881889763
 20
5.821850393700787
 30
0.0
 11
1.503937007874015
 21
5.76771653543307
 31
0.0
  0
LINE
  5
2C22
330
1E
100
AcDbEntity
  8
7
100
AcDbLine
 10
1.503937007874015
 20
5.76771653543307
 30
0.0
 11
1.446850393700787
 21
5.708661417322834
 31
0.0
  0
LINE
  5
2C23
330
1E
100
AcDbEntity
  8
7
100
AcDbLine
 10
1.446850393700787
 20
5.708661417322834
 30
0.0
 11
1.39763779527559
 21
5.643700787401574
 31
0.0
  0
LINE
  5
2C24
330
1E
100
AcDbEntity
  8
7
100
AcDbLine
 10
1.39763779527559
 20
5.643700787401574
 30
0.0
 11
1.354330708661417
 21
5.573818897637795
 31
0.0
  0
LINE
  5
2C25
330
1E
100
AcDbEntity
  8
7
100
AcDbLine
 10
1.354330708661417
 20
5.573818897637795
 30
0.0
 11
1.318897637795275
 21
5.5
 31
0.0
  0
LINE
  5
2C26
330
1E
100
AcDbEntity
  8
7
100
AcDbLine
 10
1.318897637795275
 20
5.5
 30
0.0
 11
1.290354330708661
 21
5.422244094488188
 31
0.0
  0
LINE
  5
2C27
330
1E
100
AcDbEntity
  8
7
100
AcDbLine
 10
1.290354330708661
 20
5.422244094488188
 30
0.0
 11
1.270669291338582
 21
5.34251968503937
 31
0.0
  0
LINE
  5
2C28
330
1E
100
AcDbEntity
  8
7
100
AcDbLine
 10
1.270669291338582
 20
5.34251968503937
 30
0.0
 11
1.258858267716535
 21
5.261811023622047
 31
0.0
  0
LINE
  5
2C29
330
1E
100
AcDbEntity
  8
7
100
AcDbLine
 10
1.258858267716535
 20
5.261811023622047
 30
0.0
 11
1.255905511811023
 21
5.179133858267716
 31
0.0
  0
LINE
  5
2C2A
330
1E
100
AcDbEntity
  8
7
100
AcDbLine
 10
1.255905511811023
 20
5.179133858267716
 30
0.0
 11
1.260826771653543
 21
5.097440944881889
 31
0.0
  0
LINE
  5
2C2B
330
1E
100
AcDbEntity
  8
7
100
AcDbLine
 10
1.260826771653543
 20
5.097440944881889
 30
0.0
 11
1.274606299212598
 21
5.016732283464566
 31
0.0
  0
LINE
  5
2C2C
330
1E
100
AcDbEntity
  8
7
100
AcDbLine
 10
1.939960629921259
 20
5.980314960629921
 30
0.0
 11
1.859251968503936
 21
5.964566929133858
 31
0.0
  0
LINE
  5
2C2D
330
1E
100
AcDbEntity
  8
7
100
AcDbLine
 10
1.859251968503936
 20
5.964566929133858
 30
0.0
 11
1.781496062992126
 21
5.939960629921259
 31
0.0
  0
LINE
  5
2C2E
330
1E
100
AcDbEntity
  8
7
100
AcDbLine
 10
1.781496062992126
 20
5.939960629921259
 30
0.0
 11
1.705708661417322
 21
5.908464566929133
 31
0.0
  0
LINE
  5
2C2F
330
1E
100
AcDbEntity
  8
7
100
AcDbLine
 10
1.705708661417322
 20
5.908464566929133
 30
0.0
 11
1.633858267716535
 21
5.868110236220472
 31
0.0
  0
LINE
  5
2C30
330
1E
100
AcDbEntity
  8
7
100
AcDbLine
 10
1.482283464566929
 20
4.70767716535433
 30
0.0
 11
1.536417322834645
 21
4.650590551181101
 31
0.0
  0
LINE
  5
2C31
330
1E
100
AcDbEntity
  8
7
100
AcDbLine
 10
1.536417322834645
 20
4.650590551181101
 30
0.0
 11
1.596456692913385
 21
4.598425196850393
 31
0.0
  0
LINE
  5
2C32
330
1E
100
AcDbEntity
  8
7
100
AcDbLine
 10
1.596456692913385
 20
4.598425196850393
 30
0.0
 11
1.661417322834645
 21
4.553149606299212
 31
0.0
  0
LINE
  5
2C33
330
1E
100
AcDbEntity
  8
7
100
AcDbLine
 10
1.661417322834645
 20
4.553149606299212
 30
0.0
 11
1.730314960629921
 21
4.515748031496062
 31
0.0
  0
LINE
  5
2C34
330
1E
100
AcDbEntity
  8
7
100
AcDbLine
 10
1.730314960629921
 20
4.515748031496062
 30
0.0
 11
1.803149606299212
 21
4.48523622047244
 31
0.0
  0
LINE
  5
2C35
330
1E
100
AcDbEntity
  8
7
100
AcDbLine
 10
1.803149606299212
 20
4.48523622047244
 30
0.0
 11
1.878937007874015
 21
4.46259842519685
 31
0.0
  0
LINE
  5
2C36
330
1E
100
AcDbEntity
  8
7
100
AcDbLine
 10
1.470472440944881
 20
5.657480314960629
 30
0.0
 11
1.424212598425196
 21
5.593503937007874
 31
0.0
  0
LINE
  5
2C37
330
1E
100
AcDbEntity
  8
7
100
AcDbLine
 10
1.424212598425196
 20
5.593503937007874
 30
0.0
 11
1.384842519685039
 21
5.524606299212598
 31
0.0
  0
LINE
  5
2C38
330
1E
100
AcDbEntity
  8
7
100
AcDbLine
 10
1.384842519685039
 20
5.524606299212598
 30
0.0
 11
1.353346456692913
 21
5.452755905511811
 31
0.0
  0
LINE
  5
2C39
330
1E
100
AcDbEntity
  8
7
100
AcDbLine
 10
1.353346456692913
 20
5.452755905511811
 30
0.0
 11
1.329724409448818
 21
5.376968503937007
 31
0.0
  0
LINE
  5
2C3A
330
1E
100
AcDbEntity
  8
7
100
AcDbLine
 10
1.329724409448818
 20
5.376968503937007
 30
0.0
 11
1.313976377952755
 21
5.299212598425196
 31
0.0
  0
LINE
  5
2C3B
330
1E
100
AcDbEntity
  8
7
100
AcDbLine
 10
1.313976377952755
 20
5.299212598425196
 30
0.0
 11
1.307086614173228
 21
5.220472440944881
 31
0.0
  0
LINE
  5
2C3C
330
1E
100
AcDbEntity
  8
7
100
AcDbLine
 10
1.307086614173228
 20
5.220472440944881
 30
0.0
 11
1.308070866141732
 21
5.141732283464566
 31
0.0
  0
LINE
  5
2C3D
330
1E
100
AcDbEntity
  8
7
100
AcDbLine
 10
1.308070866141732
 20
5.141732283464566
 30
0.0
 11
1.316929133858267
 21
5.062992125984251
 31
0.0
  0
LINE
  5
2C3E
330
1E
100
AcDbEntity
  8
7
100
AcDbLine
 10
1.316929133858267
 20
5.062992125984251
 30
0.0
 11
1.334645669291338
 21
4.98523622047244
 31
0.0
  0
LINE
  5
2C3F
330
1E
100
AcDbEntity
  8
7
100
AcDbLine
 10
1.334645669291338
 20
4.98523622047244
 30
0.0
 11
1.36023622047244
 21
4.910433070866141
 31
0.0
  0
LINE
  5
2C40
330
1E
100
AcDbEntity
  8
7
100
AcDbLine
 10
1.36023622047244
 20
4.910433070866141
 30
0.0
 11
1.393700787401574
 21
4.838582677165354
 31
0.0
  0
LINE
  5
2C41
330
1E
100
AcDbEntity
  8
7
100
AcDbLine
 10
1.393700787401574
 20
4.838582677165354
 30
0.0
 11
1.434055118110236
 21
4.771653543307086
 31
0.0
  0
LINE
  5
2C42
330
1E
100
AcDbEntity
  8
7
100
AcDbLine
 10
1.434055118110236
 20
4.771653543307086
 30
0.0
 11
1.482283464566929
 21
4.70767716535433
 31
0.0
  0
LINE
  5
2C43
330
1E
100
AcDbEntity
  8
7
100
AcDbLine
 10
1.938976377952755
 20
5.929133858267716
 30
0.0
 11
1.862204724409448
 21
5.912401574803149
 31
0.0
  0
LINE
  5
2C44
330
1E
100
AcDbEntity
  8
7
100
AcDbLine
 10
1.862204724409448
 20
5.912401574803149
 30
0.0
 11
1.786417322834645
 21
5.888779527559054
 31
0.0
  0
LINE
  5
2C45
330
1E
100
AcDbEntity
  8
7
100
AcDbLine
 10
1.786417322834645
 20
5.888779527559054
 30
0.0
 11
1.714566929133858
 21
5.856299212598425
 31
0.0
  0
LINE
  5
2C46
330
1E
100
AcDbEntity
  8
7
100
AcDbLine
 10
1.714566929133858
 20
5.856299212598425
 30
0.0
 11
1.645669291338582
 21
5.816929133858267
 31
0.0
  0
LINE
  5
2C47
330
1E
100
AcDbEntity
  8
7
100
AcDbLine
 10
1.645669291338582
 20
5.816929133858267
 30
0.0
 11
1.581692913385826
 21
5.769685039370078
 31
0.0
  0
LINE
  5
2C48
330
1E
100
AcDbEntity
  8
7
100
AcDbLine
 10
1.581692913385826
 20
5.769685039370078
 30
0.0
 11
1.523622047244094
 21
5.716535433070865
 31
0.0
  0
LINE
  5
2C49
330
1E
100
AcDbEntity
  8
7
100
AcDbLine
 10
1.523622047244094
 20
5.716535433070865
 30
0.0
 11
1.470472440944881
 21
5.657480314960629
 31
0.0
  0
LINE
  5
2C4A
330
1E
100
AcDbEntity
  8
7
100
AcDbLine
 10
2.169291338582677
 20
5.864173228346456
 30
0.0
 11
2.09251968503937
 21
5.873031496062991
 31
0.0
  0
LINE
  5
2C4B
330
1E
100
AcDbEntity
  8
7
100
AcDbLine
 10
2.09251968503937
 20
5.873031496062991
 30
0.0
 11
2.015748031496062
 21
5.873031496062991
 31
0.0
  0
LINE
  5
2C4C
330
1E
100
AcDbEntity
  8
7
100
AcDbLine
 10
2.015748031496062
 20
5.873031496062991
 30
0.0
 11
1.938976377952755
 21
5.864173228346456
 31
0.0
  0
LINE
  5
2C4D
330
1E
100
AcDbEntity
  8
7
100
AcDbLine
 10
2.321850393700787
 20
5.888779527559054
 30
0.0
 11
2.246062992125984
 21
5.912401574803149
 31
0.0
  0
LINE
  5
2C4E
330
1E
100
AcDbEntity
  8
7
100
AcDbLine
 10
2.246062992125984
 20
5.912401574803149
 30
0.0
 11
2.169291338582677
 21
5.929133858267716
 31
0.0
  0
LINE
  5
2C4F
330
1E
100
AcDbEntity
  8
7
100
AcDbLine
 10
2.773622047244094
 20
4.98523622047244
 30
0.0
 11
2.791338582677165
 21
5.062992125984251
 31
0.0
  0
LINE
  5
2C50
330
1E
100
AcDbEntity
  8
7
100
AcDbLine
 10
2.791338582677165
 20
5.062992125984251
 30
0.0
 11
2.8001968503937
 21
5.141732283464566
 31
0.0
  0
LINE
  5
2C51
330
1E
100
AcDbEntity
  8
7
100
AcDbLine
 10
2.8001968503937
 20
5.141732283464566
 30
0.0
 11
2.801181102362205
 21
5.220472440944881
 31
0.0
  0
LINE
  5
2C52
330
1E
100
AcDbEntity
  8
7
100
AcDbLine
 10
2.801181102362205
 20
5.220472440944881
 30
0.0
 11
2.794291338582677
 21
5.299212598425196
 31
0.0
  0
LINE
  5
2C53
330
1E
100
AcDbEntity
  8
7
100
AcDbLine
 10
2.794291338582677
 20
5.299212598425196
 30
0.0
 11
2.778543307086614
 21
5.376968503937007
 31
0.0
  0
LINE
  5
2C54
330
1E
100
AcDbEntity
  8
7
100
AcDbLine
 10
2.778543307086614
 20
5.376968503937007
 30
0.0
 11
2.754921259842519
 21
5.452755905511811
 31
0.0
  0
LINE
  5
2C55
330
1E
100
AcDbEntity
  8
7
100
AcDbLine
 10
2.754921259842519
 20
5.452755905511811
 30
0.0
 11
2.723425196850393
 21
5.524606299212598
 31
0.0
  0
LINE
  5
2C56
330
1E
100
AcDbEntity
  8
7
100
AcDbLine
 10
2.723425196850393
 20
5.524606299212598
 30
0.0
 11
2.684055118110236
 21
5.593503937007874
 31
0.0
  0
LINE
  5
2C57
330
1E
100
AcDbEntity
  8
7
100
AcDbLine
 10
2.684055118110236
 20
5.593503937007874
 30
0.0
 11
2.637795275590551
 21
5.657480314960629
 31
0.0
  0
LINE
  5
2C58
330
1E
100
AcDbEntity
  8
7
100
AcDbLine
 10
2.637795275590551
 20
5.657480314960629
 30
0.0
 11
2.584645669291338
 21
5.716535433070865
 31
0.0
  0
LINE
  5
2C59
330
1E
100
AcDbEntity
  8
7
100
AcDbLine
 10
2.584645669291338
 20
5.716535433070865
 30
0.0
 11
2.526574803149606
 21
5.769685039370078
 31
0.0
  0
LINE
  5
2C5A
330
1E
100
AcDbEntity
  8
7
100
AcDbLine
 10
2.526574803149606
 20
5.769685039370078
 30
0.0
 11
2.46259842519685
 21
5.816929133858267
 31
0.0
  0
LINE
  5
2C5B
330
1E
100
AcDbEntity
  8
7
100
AcDbLine
 10
2.46259842519685
 20
5.816929133858267
 30
0.0
 11
2.393700787401574
 21
5.856299212598425
 31
0.0
  0
LINE
  5
2C5C
330
1E
100
AcDbEntity
  8
7
100
AcDbLine
 10
2.393700787401574
 20
5.856299212598425
 30
0.0
 11
2.321850393700787
 21
5.888779527559054
 31
0.0
  0
LINE
  5
2C5D
330
1E
100
AcDbEntity
  8
7
100
AcDbLine
 10
2.229330708661417
 20
4.46259842519685
 30
0.0
 11
2.30511811023622
 21
4.48523622047244
 31
0.0
  0
LINE
  5
2C5E
330
1E
100
AcDbEntity
  8
7
100
AcDbLine
 10
2.30511811023622
 20
4.48523622047244
 30
0.0
 11
2.377952755905512
 21
4.515748031496062
 31
0.0
  0
LINE
  5
2C5F
330
1E
100
AcDbEntity
  8
7
100
AcDbLine
 10
2.377952755905512
 20
4.515748031496062
 30
0.0
 11
2.446850393700787
 21
4.553149606299212
 31
0.0
  0
LINE
  5
2C60
330
1E
100
AcDbEntity
  8
7
100
AcDbLine
 10
2.446850393700787
 20
4.553149606299212
 30
0.0
 11
2.511811023622047
 21
4.598425196850393
 31
0.0
  0
LINE
  5
2C61
330
1E
100
AcDbEntity
  8
7
100
AcDbLine
 10
2.511811023622047
 20
4.598425196850393
 30
0.0
 11
2.571850393700787
 21
4.650590551181101
 31
0.0
  0
LINE
  5
2C62
330
1E
100
AcDbEntity
  8
7
100
AcDbLine
 10
2.571850393700787
 20
4.650590551181101
 30
0.0
 11
2.625984251968504
 21
4.70767716535433
 31
0.0
  0
LINE
  5
2C63
330
1E
100
AcDbEntity
  8
7
100
AcDbLine
 10
2.625984251968504
 20
4.70767716535433
 30
0.0
 11
2.674212598425197
 21
4.771653543307086
 31
0.0
  0
LINE
  5
2C64
330
1E
100
AcDbEntity
  8
7
100
AcDbLine
 10
2.674212598425197
 20
4.771653543307086
 30
0.0
 11
2.714566929133858
 21
4.838582677165354
 31
0.0
  0
LINE
  5
2C65
330
1E
100
AcDbEntity
  8
7
100
AcDbLine
 10
2.714566929133858
 20
4.838582677165354
 30
0.0
 11
2.748031496062992
 21
4.910433070866141
 31
0.0
  0
LINE
  5
2C66
330
1E
100
AcDbEntity
  8
7
100
AcDbLine
 10
2.748031496062992
 20
4.910433070866141
 30
0.0
 11
2.773622047244094
 21
4.98523622047244
 31
0.0
  0
LINE
  5
2C67
330
1E
100
AcDbEntity
  8
7
100
AcDbLine
 10
2.604330708661417
 20
5.76771653543307
 30
0.0
 11
2.542322834645669
 21
5.821850393700787
 31
0.0
  0
LINE
  5
2C68
330
1E
100
AcDbEntity
  8
7
100
AcDbLine
 10
2.542322834645669
 20
5.821850393700787
 30
0.0
 11
2.474409448818897
 21
5.868110236220472
 31
0.0
  0
LINE
  5
2C69
330
1E
100
AcDbEntity
  8
7
100
AcDbLine
 10
2.474409448818897
 20
5.868110236220472
 30
0.0
 11
2.40255905511811
 21
5.908464566929133
 31
0.0
  0
LINE
  5
2C6A
330
1E
100
AcDbEntity
  8
7
100
AcDbLine
 10
2.40255905511811
 20
5.908464566929133
 30
0.0
 11
2.326771653543307
 21
5.939960629921259
 31
0.0
  0
LINE
  5
2C6B
330
1E
100
AcDbEntity
  8
7
100
AcDbLine
 10
2.326771653543307
 20
5.939960629921259
 30
0.0
 11
2.249015748031496
 21
5.964566929133858
 31
0.0
  0
LINE
  5
2C6C
330
1E
100
AcDbEntity
  8
7
100
AcDbLine
 10
2.249015748031496
 20
5.964566929133858
 30
0.0
 11
2.168307086614173
 21
5.980314960629921
 31
0.0
  0
LINE
  5
2C6D
330
1E
100
AcDbEntity
  8
7
100
AcDbLine
 10
2.698818897637795
 20
4.719488188976377
 30
0.0
 11
2.744094488188976
 21
4.788385826771653
 31
0.0
  0
LINE
  5
2C6E
330
1E
100
AcDbEntity
  8
7
100
AcDbLine
 10
2.744094488188976
 20
4.788385826771653
 30
0.0
 11
2.781496062992125
 21
4.861220472440944
 31
0.0
  0
LINE
  5
2C6F
330
1E
100
AcDbEntity
  8
7
100
AcDbLine
 10
2.781496062992125
 20
4.861220472440944
 30
0.0
 11
2.811023622047244
 21
4.937007874015748
 31
0.0
  0
LINE
  5
2C70
330
1E
100
AcDbEntity
  8
7
100
AcDbLine
 10
2.811023622047244
 20
4.937007874015748
 30
0.0
 11
2.833661417322834
 21
5.016732283464566
 31
0.0
  0
LINE
  5
2C71
330
1E
100
AcDbEntity
  8
7
100
AcDbLine
 10
2.833661417322834
 20
5.016732283464566
 30
0.0
 11
2.847440944881889
 21
5.097440944881889
 31
0.0
  0
LINE
  5
2C72
330
1E
100
AcDbEntity
  8
7
100
AcDbLine
 10
2.847440944881889
 20
5.097440944881889
 30
0.0
 11
2.852362204724409
 21
5.179133858267716
 31
0.0
  0
LINE
  5
2C73
330
1E
100
AcDbEntity
  8
7
100
AcDbLine
 10
2.852362204724409
 20
5.179133858267716
 30
0.0
 11
2.849409448818897
 21
5.261811023622047
 31
0.0
  0
LINE
  5
2C74
330
1E
100
AcDbEntity
  8
7
100
AcDbLine
 10
2.849409448818897
 20
5.261811023622047
 30
0.0
 11
2.83759842519685
 21
5.34251968503937
 31
0.0
  0
LINE
  5
2C75
330
1E
100
AcDbEntity
  8
7
100
AcDbLine
 10
2.83759842519685
 20
5.34251968503937
 30
0.0
 11
2.817913385826771
 21
5.422244094488188
 31
0.0
  0
LINE
  5
2C76
330
1E
100
AcDbEntity
  8
7
100
AcDbLine
 10
2.817913385826771
 20
5.422244094488188
 30
0.0
 11
2.789370078740157
 21
5.5
 31
0.0
  0
LINE
  5
2C77
330
1E
100
AcDbEntity
  8
7
100
AcDbLine
 10
2.789370078740157
 20
5.5
 30
0.0
 11
2.753937007874015
 21
5.573818897637795
 31
0.0
  0
LINE
  5
2C78
330
1E
100
AcDbEntity
  8
7
100
AcDbLine
 10
2.753937007874015
 20
5.573818897637795
 30
0.0
 11
2.710629921259842
 21
5.643700787401574
 31
0.0
  0
LINE
  5
2C79
330
1E
100
AcDbEntity
  8
7
100
AcDbLine
 10
2.710629921259842
 20
5.643700787401574
 30
0.0
 11
2.661417322834645
 21
5.708661417322834
 31
0.0
  0
LINE
  5
2C7A
330
1E
100
AcDbEntity
  8
7
100
AcDbLine
 10
2.661417322834645
 20
5.708661417322834
 30
0.0
 11
2.604330708661417
 21
5.76771653543307
 31
0.0
  0
LINE
  5
2C7B
330
1E
100
AcDbEntity
  8
7
100
AcDbLine
 10
2.228346456692913
 20
4.411417322834645
 30
0.0
 11
2.307086614173228
 21
4.433070866141732
 31
0.0
  0
LINE
  5
2C7C
330
1E
100
AcDbEntity
  8
7
100
AcDbLine
 10
2.307086614173228
 20
4.433070866141732
 30
0.0
 11
2.383858267716535
 21
4.46259842519685
 31
0.0
  0
LINE
  5
2C7D
330
1E
100
AcDbEntity
  8
7
100
AcDbLine
 10
2.383858267716535
 20
4.46259842519685
 30
0.0
 11
2.456692913385826
 21
4.500984251968503
 31
0.0
  0
LINE
  5
2C7E
330
1E
100
AcDbEntity
  8
7
100
AcDbLine
 10
2.456692913385826
 20
4.500984251968503
 30
0.0
 11
2.525590551181102
 21
4.54527559055118
 31
0.0
  0
LINE
  5
2C7F
330
1E
100
AcDbEntity
  8
7
100
AcDbLine
 10
2.525590551181102
 20
4.54527559055118
 30
0.0
 11
2.588582677165354
 21
4.597440944881889
 31
0.0
  0
LINE
  5
2C80
330
1E
100
AcDbEntity
  8
7
100
AcDbLine
 10
2.588582677165354
 20
4.597440944881889
 30
0.0
 11
2.646653543307086
 21
4.655511811023622
 31
0.0
  0
LINE
  5
2C81
330
1E
100
AcDbEntity
  8
7
100
AcDbLine
 10
2.646653543307086
 20
4.655511811023622
 30
0.0
 11
2.698818897637795
 21
4.719488188976377
 31
0.0
  0
LINE
  5
2C82
330
1E
100
AcDbEntity
  8
7
100
AcDbLine
 10
2.167322834645669
 20
5.982283464566928
 30
0.0
 11
2.167322834645669
 21
5.980314960629921
 31
0.0
  0
LINE
  5
2C83
330
1E
100
AcDbEntity
  8
7
100
AcDbLine
 10
2.167322834645669
 20
5.980314960629921
 30
0.0
 11
2.168307086614173
 21
5.980314960629921
 31
0.0
  0
LINE
  5
2C84
330
1E
100
AcDbEntity
  8
7
100
AcDbLine
 10
2.850393700787401
 20
5.261811023622047
 30
0.0
 11
2.838582677165354
 21
5.34251968503937
 31
0.0
  0
LINE
  5
2C85
330
1E
100
AcDbEntity
  8
7
100
AcDbLine
 10
2.838582677165354
 20
5.34251968503937
 30
0.0
 11
2.818897637795275
 21
5.423228346456692
 31
0.0
  0
LINE
  5
2C86
330
1E
100
AcDbEntity
  8
7
100
AcDbLine
 10
2.818897637795275
 20
5.423228346456692
 30
0.0
 11
2.790354330708661
 21
5.5
 31
0.0
  0
LINE
  5
2C87
330
1E
100
AcDbEntity
  8
7
100
AcDbLine
 10
2.790354330708661
 20
5.5
 30
0.0
 11
2.754921259842519
 21
5.573818897637795
 31
0.0
  0
LINE
  5
2C88
330
1E
100
AcDbEntity
  8
7
100
AcDbLine
 10
2.754921259842519
 20
5.573818897637795
 30
0.0
 11
2.711614173228346
 21
5.644685039370078
 31
0.0
  0
LINE
  5
2C89
330
1E
100
AcDbEntity
  8
7
100
AcDbLine
 10
2.711614173228346
 20
5.644685039370078
 30
0.0
 11
2.661417322834645
 21
5.709645669291338
 31
0.0
  0
LINE
  5
2C8A
330
1E
100
AcDbEntity
  8
7
100
AcDbLine
 10
2.661417322834645
 20
5.709645669291338
 30
0.0
 11
2.604330708661417
 21
5.768700787401574
 31
0.0
  0
LINE
  5
2C8B
330
1E
100
AcDbEntity
  8
7
100
AcDbLine
 10
2.604330708661417
 20
5.768700787401574
 30
0.0
 11
2.542322834645669
 21
5.82283464566929
 31
0.0
  0
LINE
  5
2C8C
330
1E
100
AcDbEntity
  8
7
100
AcDbLine
 10
2.542322834645669
 20
5.82283464566929
 30
0.0
 11
2.474409448818897
 21
5.869094488188975
 31
0.0
  0
LINE
  5
2C8D
330
1E
100
AcDbEntity
  8
7
100
AcDbLine
 10
2.474409448818897
 20
5.869094488188975
 30
0.0
 11
2.40255905511811
 21
5.909448818897637
 31
0.0
  0
LINE
  5
2C8E
330
1E
100
AcDbEntity
  8
7
100
AcDbLine
 10
2.40255905511811
 20
5.909448818897637
 30
0.0
 11
2.326771653543307
 21
5.940944881889763
 31
0.0
  0
LINE
  5
2C8F
330
1E
100
AcDbEntity
  8
7
100
AcDbLine
 10
2.326771653543307
 20
5.940944881889763
 30
0.0
 11
2.248031496062992
 21
5.965551181102362
 31
0.0
  0
LINE
  5
2C90
330
1E
100
AcDbEntity
  8
7
100
AcDbLine
 10
2.248031496062992
 20
5.965551181102362
 30
0.0
 11
2.167322834645669
 21
5.981299212598425
 31
0.0
  0
LINE
  5
2C91
330
1E
100
AcDbEntity
  8
7
100
AcDbLine
 10
2.227362204724409
 20
4.409448818897637
 30
0.0
 11
2.306102362204724
 21
4.432086614173227
 31
0.0
  0
LINE
  5
2C92
330
1E
100
AcDbEntity
  8
7
100
AcDbLine
 10
2.306102362204724
 20
4.432086614173227
 30
0.0
 11
2.382874015748031
 21
4.461614173228346
 31
0.0
  0
LINE
  5
2C93
330
1E
100
AcDbEntity
  8
7
100
AcDbLine
 10
2.382874015748031
 20
4.461614173228346
 30
0.0
 11
2.456692913385826
 21
4.499015748031496
 31
0.0
  0
LINE
  5
2C94
330
1E
100
AcDbEntity
  8
7
100
AcDbLine
 10
2.456692913385826
 20
4.499015748031496
 30
0.0
 11
2.525590551181102
 21
4.544291338582676
 31
0.0
  0
LINE
  5
2C95
330
1E
100
AcDbEntity
  8
7
100
AcDbLine
 10
2.525590551181102
 20
4.544291338582676
 30
0.0
 11
2.589566929133858
 21
4.596456692913386
 31
0.0
  0
LINE
  5
2C96
330
1E
100
AcDbEntity
  8
7
100
AcDbLine
 10
2.589566929133858
 20
4.596456692913386
 30
0.0
 11
2.64763779527559
 21
4.654527559055117
 31
0.0
  0
LINE
  5
2C97
330
1E
100
AcDbEntity
  8
7
100
AcDbLine
 10
2.64763779527559
 20
4.654527559055117
 30
0.0
 11
2.698818897637795
 21
4.718503937007874
 31
0.0
  0
LINE
  5
2C98
330
1E
100
AcDbEntity
  8
7
100
AcDbLine
 10
2.698818897637795
 20
4.718503937007874
 30
0.0
 11
2.744094488188976
 21
4.787401574803149
 31
0.0
  0
LINE
  5
2C99
330
1E
100
AcDbEntity
  8
7
100
AcDbLine
 10
2.744094488188976
 20
4.787401574803149
 30
0.0
 11
2.78248031496063
 21
4.86023622047244
 31
0.0
  0
LINE
  5
2C9A
330
1E
100
AcDbEntity
  8
7
100
AcDbLine
 10
2.78248031496063
 20
4.86023622047244
 30
0.0
 11
2.812007874015748
 21
4.937007874015748
 31
0.0
  0
LINE
  5
2C9B
330
1E
100
AcDbEntity
  8
7
100
AcDbLine
 10
2.812007874015748
 20
4.937007874015748
 30
0.0
 11
2.834645669291338
 21
5.015748031496062
 31
0.0
  0
LINE
  5
2C9C
330
1E
100
AcDbEntity
  8
7
100
AcDbLine
 10
2.834645669291338
 20
5.015748031496062
 30
0.0
 11
2.848425196850394
 21
5.097440944881889
 31
0.0
  0
LINE
  5
2C9D
330
1E
100
AcDbEntity
  8
7
100
AcDbLine
 10
2.848425196850394
 20
5.097440944881889
 30
0.0
 11
2.853346456692913
 21
5.179133858267716
 31
0.0
  0
LINE
  5
2C9E
330
1E
100
AcDbEntity
  8
7
100
AcDbLine
 10
2.853346456692913
 20
5.179133858267716
 30
0.0
 11
2.850393700787401
 21
5.261811023622047
 31
0.0
  0
LINE
  5
2C9F
330
1E
100
AcDbEntity
  8
7
100
AcDbLine
 10
2.221456692913386
 20
4.607283464566928
 30
0.0
 11
2.222440944881889
 21
4.608267716535433
 31
0.0
  0
LINE
  5
2CA0
330
1E
100
AcDbEntity
  8
7
100
AcDbLine
 10
2.222440944881889
 20
4.608267716535433
 30
0.0
 11
2.227362204724409
 21
4.61515748031496
 31
0.0
  0
LINE
  5
2CA1
330
1E
100
AcDbEntity
  8
7
100
AcDbLine
 10
2.227362204724409
 20
4.409448818897637
 30
0.0
 11
2.228346456692913
 21
4.411417322834645
 31
0.0
  0
LINE
  5
2CA2
330
1E
100
AcDbEntity
  8
7
100
AcDbLine
 10
2.228346456692913
 20
4.411417322834645
 30
0.0
 11
2.228346456692913
 21
4.414370078740157
 31
0.0
  0
LINE
  5
2CA3
330
1E
100
AcDbEntity
  8
7
100
AcDbLine
 10
2.228346456692913
 20
4.414370078740157
 30
0.0
 11
2.228346456692913
 21
4.423228346456692
 31
0.0
  0
LINE
  5
2CA4
330
1E
100
AcDbEntity
  8
7
100
AcDbLine
 10
2.228346456692913
 20
4.423228346456692
 30
0.0
 11
2.228346456692913
 21
4.436023622047243
 31
0.0
  0
LINE
  5
2CA5
330
1E
100
AcDbEntity
  8
7
100
AcDbLine
 10
2.228346456692913
 20
4.436023622047243
 30
0.0
 11
2.228346456692913
 21
4.451771653543307
 31
0.0
  0
LINE
  5
2CA6
330
1E
100
AcDbEntity
  8
7
100
AcDbLine
 10
2.228346456692913
 20
4.451771653543307
 30
0.0
 11
2.228346456692913
 21
4.46259842519685
 31
0.0
  0
LINE
  5
2CA7
330
1E
100
AcDbEntity
  8
7
100
AcDbLine
 10
2.176181102362205
 20
4.597440944881889
 30
0.0
 11
2.198818897637795
 21
4.602362204724409
 31
0.0
  0
LINE
  5
2CA8
330
1E
100
AcDbEntity
  8
7
100
AcDbLine
 10
2.198818897637795
 20
4.602362204724409
 30
0.0
 11
2.221456692913386
 21
4.608267716535433
 31
0.0
  0
LINE
  5
2CA9
330
1E
100
AcDbEntity
  8
7
100
AcDbLine
 10
2.176181102362205
 20
4.542322834645669
 30
0.0
 11
2.198818897637795
 21
4.546259842519685
 31
0.0
  0
LINE
  5
2CAA
330
1E
100
AcDbEntity
  8
7
100
AcDbLine
 10
2.198818897637795
 20
4.546259842519685
 30
0.0
 11
2.221456692913386
 21
4.552165354330708
 31
0.0
  0
LINE
  5
2CAB
330
1E
100
AcDbEntity
  8
7
100
AcDbLine
 10
1.886811023622047
 20
4.552165354330708
 30
0.0
 11
1.909448818897637
 21
4.546259842519685
 31
0.0
  0
LINE
  5
2CAC
330
1E
100
AcDbEntity
  8
7
100
AcDbLine
 10
1.909448818897637
 20
4.546259842519685
 30
0.0
 11
1.932086614173228
 21
4.542322834645669
 31
0.0
  0
LINE
  5
2CAD
330
1E
100
AcDbEntity
  8
7
100
AcDbLine
 10
1.886811023622047
 20
4.608267716535433
 30
0.0
 11
1.909448818897637
 21
4.602362204724409
 31
0.0
  0
LINE
  5
2CAE
330
1E
100
AcDbEntity
  8
7
100
AcDbLine
 10
1.909448818897637
 20
4.602362204724409
 30
0.0
 11
1.932086614173228
 21
4.597440944881889
 31
0.0
  0
LINE
  5
2CAF
330
1E
100
AcDbEntity
  8
7
100
AcDbLine
 10
1.880905511811023
 20
4.61515748031496
 30
0.0
 11
1.885826771653543
 21
4.608267716535433
 31
0.0
  0
LINE
  5
2CB0
330
1E
100
AcDbEntity
  8
7
100
AcDbLine
 10
1.885826771653543
 20
4.608267716535433
 30
0.0
 11
1.885826771653543
 21
4.607283464566928
 31
0.0
  0
LINE
  5
2CB1
330
1E
100
AcDbEntity
  8
7
100
AcDbLine
 10
1.878937007874015
 20
4.46259842519685
 30
0.0
 11
1.878937007874015
 21
4.444881889763779
 31
0.0
  0
LINE
  5
2CB2
330
1E
100
AcDbEntity
  8
7
100
AcDbLine
 10
1.878937007874015
 20
4.444881889763779
 30
0.0
 11
1.878937007874015
 21
4.429133858267716
 31
0.0
  0
LINE
  5
2CB3
330
1E
100
AcDbEntity
  8
7
100
AcDbLine
 10
1.878937007874015
 20
4.429133858267716
 30
0.0
 11
1.878937007874015
 21
4.418307086614173
 31
0.0
  0
LINE
  5
2CB4
330
1E
100
AcDbEntity
  8
7
100
AcDbLine
 10
1.878937007874015
 20
4.418307086614173
 30
0.0
 11
1.879921259842519
 21
4.412401574803149
 31
0.0
  0
LINE
  5
2CB5
330
1E
100
AcDbEntity
  8
7
100
AcDbLine
 10
1.879921259842519
 20
4.412401574803149
 30
0.0
 11
1.879921259842519
 21
4.411417322834645
 31
0.0
  0
LINE
  5
2CB6
330
1E
100
AcDbEntity
  8
7
100
AcDbLine
 10
1.879921259842519
 20
4.411417322834645
 30
0.0
 11
1.880905511811023
 21
4.409448818897637
 31
0.0
  0
LINE
  5
2CB7
330
1E
100
AcDbEntity
  8
7
100
AcDbLine
 10
2.005905511811023
 20
4.646653543307086
 30
0.0
 11
1.993110236220472
 21
4.648622047244094
 31
0.0
  0
LINE
  5
2CB8
330
1E
100
AcDbEntity
  8
7
100
AcDbLine
 10
1.993110236220472
 20
4.648622047244094
 30
0.0
 11
1.954724409448818
 21
4.654527559055117
 31
0.0
  0
LINE
  5
2CB9
330
1E
100
AcDbEntity
  8
7
100
AcDbLine
 10
1.993110236220472
 20
4.704724409448818
 30
0.0
 11
1.970472440944881
 21
4.682086614173227
 31
0.0
  0
LINE
  5
2CBA
330
1E
100
AcDbEntity
  8
7
100
AcDbLine
 10
1.970472440944881
 20
4.682086614173227
 30
0.0
 11
1.955708661417322
 21
4.653543307086613
 31
0.0
  0
LINE
  5
2CBB
330
1E
100
AcDbEntity
  8
7
100
AcDbLine
 10
2.15255905511811
 20
4.653543307086613
 30
0.0
 11
2.137795275590551
 21
4.682086614173227
 31
0.0
  0
LINE
  5
2CBC
330
1E
100
AcDbEntity
  8
7
100
AcDbLine
 10
2.137795275590551
 20
4.682086614173227
 30
0.0
 11
2.11515748031496
 21
4.704724409448818
 31
0.0
  0
LINE
  5
2CBD
330
1E
100
AcDbEntity
  8
7
100
AcDbLine
 10
2.11515748031496
 20
4.704724409448818
 30
0.0
 11
2.085629921259842
 21
4.719488188976377
 31
0.0
  0
LINE
  5
2CBE
330
1E
100
AcDbEntity
  8
7
100
AcDbLine
 10
2.085629921259842
 20
4.719488188976377
 30
0.0
 11
2.054133858267716
 21
4.724409448818897
 31
0.0
  0
LINE
  5
2CBF
330
1E
100
AcDbEntity
  8
7
100
AcDbLine
 10
2.054133858267716
 20
4.724409448818897
 30
0.0
 11
2.02263779527559
 21
4.719488188976377
 31
0.0
  0
LINE
  5
2CC0
330
1E
100
AcDbEntity
  8
7
100
AcDbLine
 10
2.02263779527559
 20
4.719488188976377
 30
0.0
 11
1.993110236220472
 21
4.704724409448818
 31
0.0
  0
LINE
  5
2CC1
330
1E
100
AcDbEntity
  8
7
100
AcDbLine
 10
2.3001968503937
 20
4.874015748031496
 30
0.0
 11
2.3001968503937
 21
4.939960629921259
 31
0.0
  0
LINE
  5
2CC2
330
1E
100
AcDbEntity
  8
7
100
AcDbLine
 10
2.3001968503937
 20
4.939960629921259
 30
0.0
 11
2.299212598425197
 21
4.940944881889763
 31
0.0
  0
LINE
  5
2CC3
330
1E
100
AcDbEntity
  8
7
100
AcDbLine
 10
1.951771653543307
 20
4.913385826771653
 30
0.0
 11
1.951771653543307
 21
4.90255905511811
 31
0.0
  0
LINE
  5
2CC4
330
1E
100
AcDbEntity
  8
7
100
AcDbLine
 10
1.951771653543307
 20
4.90255905511811
 30
0.0
 11
1.950787401574802
 21
4.891732283464566
 31
0.0
  0
LINE
  5
2CC5
330
1E
100
AcDbEntity
  8
7
100
AcDbLine
 10
1.950787401574802
 20
4.891732283464566
 30
0.0
 11
1.950787401574802
 21
4.88779527559055
 31
0.0
  0
LINE
  5
2CC6
330
1E
100
AcDbEntity
  8
7
100
AcDbLine
 10
1.950787401574802
 20
4.88779527559055
 30
0.0
 11
2.15748031496063
 21
4.88779527559055
 31
0.0
  0
LINE
  5
2CC7
330
1E
100
AcDbEntity
  8
7
100
AcDbLine
 10
2.15748031496063
 20
4.88779527559055
 30
0.0
 11
2.156496062992125
 21
4.891732283464566
 31
0.0
  0
LINE
  5
2CC8
330
1E
100
AcDbEntity
  8
7
100
AcDbLine
 10
2.156496062992125
 20
4.891732283464566
 30
0.0
 11
2.156496062992125
 21
4.90255905511811
 31
0.0
  0
LINE
  5
2CC9
330
1E
100
AcDbEntity
  8
7
100
AcDbLine
 10
1.950787401574802
 20
4.949803149606299
 30
0.0
 11
1.951771653543307
 21
4.933070866141732
 31
0.0
  0
LINE
  5
2CCA
330
1E
100
AcDbEntity
  8
7
100
AcDbLine
 10
1.951771653543307
 20
4.933070866141732
 30
0.0
 11
1.951771653543307
 21
4.913385826771653
 31
0.0
  0
LINE
  5
2CCB
330
1E
100
AcDbEntity
  8
7
100
AcDbLine
 10
2.156496062992125
 20
4.913385826771653
 30
0.0
 11
2.156496062992125
 21
4.933070866141732
 31
0.0
  0
LINE
  5
2CCC
330
1E
100
AcDbEntity
  8
7
100
AcDbLine
 10
2.156496062992125
 20
4.933070866141732
 30
0.0
 11
2.156496062992125
 21
4.949803149606299
 31
0.0
  0
LINE
  5
2CCD
330
1E
100
AcDbEntity
  8
7
100
AcDbLine
 10
1.950787401574802
 20
4.949803149606299
 30
0.0
 11
2.156496062992125
 21
4.949803149606299
 31
0.0
  0
LINE
  5
2CCE
330
1E
100
AcDbEntity
  8
7
100
AcDbLine
 10
2.156496062992125
 20
4.949803149606299
 30
0.0
 11
2.156496062992125
 21
4.954724409448818
 31
0.0
  0
LINE
  5
2CCF
330
1E
100
AcDbEntity
  8
7
100
AcDbLine
 10
2.156496062992125
 20
4.964566929133858
 30
0.0
 11
1.950787401574802
 21
4.964566929133858
 31
0.0
  0
LINE
  5
2CD0
330
1E
100
AcDbEntity
  8
7
100
AcDbLine
 10
1.950787401574802
 20
4.964566929133858
 30
0.0
 11
1.950787401574802
 21
4.954724409448818
 31
0.0
  0
LINE
  5
2CD1
330
1E
100
AcDbEntity
  8
7
100
AcDbLine
 10
2.088582677165354
 20
4.590551181102362
 30
0.0
 11
2.129921259842519
 21
4.594488188976377
 31
0.0
  0
LINE
  5
2CD2
330
1E
100
AcDbEntity
  8
7
100
AcDbLine
 10
2.129921259842519
 20
4.594488188976377
 30
0.0
 11
2.171259842519685
 21
4.601377952755905
 31
0.0
  0
LINE
  5
2CD3
330
1E
100
AcDbEntity
  8
7
100
AcDbLine
 10
2.154527559055118
 20
4.589566929133858
 30
0.0
 11
2.161417322834645
 21
4.591535433070865
 31
0.0
  0
LINE
  5
2CD4
330
1E
100
AcDbEntity
  8
7
100
AcDbLine
 10
2.161417322834645
 20
4.591535433070865
 30
0.0
 11
2.169291338582677
 21
4.59251968503937
 31
0.0
  0
LINE
  5
2CD5
330
1E
100
AcDbEntity
  8
7
100
AcDbLine
 10
1.938976377952755
 20
4.59251968503937
 30
0.0
 11
1.946850393700787
 21
4.591535433070865
 31
0.0
  0
LINE
  5
2CD6
330
1E
100
AcDbEntity
  8
7
100
AcDbLine
 10
1.946850393700787
 20
4.591535433070865
 30
0.0
 11
1.953740157480314
 21
4.589566929133858
 31
0.0
  0
LINE
  5
2CD7
330
1E
100
AcDbEntity
  8
7
100
AcDbLine
 10
1.938976377952755
 20
4.489173228346456
 30
0.0
 11
2.015748031496062
 21
4.480314960629921
 31
0.0
  0
LINE
  5
2CD8
330
1E
100
AcDbEntity
  8
7
100
AcDbLine
 10
2.015748031496062
 20
4.480314960629921
 30
0.0
 11
2.09251968503937
 21
4.480314960629921
 31
0.0
  0
LINE
  5
2CD9
330
1E
100
AcDbEntity
  8
7
100
AcDbLine
 10
2.09251968503937
 20
4.480314960629921
 30
0.0
 11
2.169291338582677
 21
4.489173228346456
 31
0.0
  0
LINE
  5
2CDA
330
1E
100
AcDbEntity
  8
7
100
AcDbLine
 10
1.977362204724409
 20
4.478346456692912
 30
0.0
 11
2.054133858267716
 21
4.474409448818897
 31
0.0
  0
LINE
  5
2CDB
330
1E
100
AcDbEntity
  8
7
100
AcDbLine
 10
2.054133858267716
 20
4.474409448818897
 30
0.0
 11
2.130905511811023
 21
4.478346456692912
 31
0.0
  0
LINE
  5
2CDC
330
1E
100
AcDbEntity
  8
7
100
AcDbLine
 10
2.133858267716535
 20
4.439960629921259
 30
0.0
 11
2.153543307086614
 21
4.442913385826771
 31
0.0
  0
LINE
  5
2CDD
330
1E
100
AcDbEntity
  8
7
100
AcDbLine
 10
2.153543307086614
 20
4.442913385826771
 30
0.0
 11
2.173228346456693
 21
4.445866141732283
 31
0.0
  0
LINE
  5
2CDE
330
1E
100
AcDbEntity
  8
7
100
AcDbLine
 10
1.93503937007874
 20
4.445866141732283
 30
0.0
 11
1.954724409448818
 21
4.442913385826771
 31
0.0
  0
LINE
  5
2CDF
330
1E
100
AcDbEntity
  8
7
100
AcDbLine
 10
1.954724409448818
 20
4.442913385826771
 30
0.0
 11
1.974409448818897
 21
4.439960629921259
 31
0.0
  0
LINE
  5
2CE0
330
1E
100
AcDbEntity
  8
7
100
AcDbLine
 10
1.93503937007874
 20
4.468503937007874
 30
0.0
 11
1.954724409448818
 21
4.465551181102362
 31
0.0
  0
LINE
  5
2CE1
330
1E
100
AcDbEntity
  8
7
100
AcDbLine
 10
1.954724409448818
 20
4.465551181102362
 30
0.0
 11
1.974409448818897
 21
4.46259842519685
 31
0.0
  0
LINE
  5
2CE2
330
1E
100
AcDbEntity
  8
7
100
AcDbLine
 10
2.091535433070866
 20
4.646653543307086
 30
0.0
 11
2.090551181102362
 21
4.646653543307086
 31
0.0
  0
LINE
  5
2CE3
330
1E
100
AcDbEntity
  8
7
100
AcDbLine
 10
2.090551181102362
 20
4.646653543307086
 30
0.0
 11
2.090551181102362
 21
4.645669291338582
 31
0.0
  0
LINE
  5
2CE4
330
1E
100
AcDbEntity
  8
7
100
AcDbLine
 10
2.101377952755905
 20
4.646653543307086
 30
0.0
 11
2.086614173228346
 21
4.663385826771653
 31
0.0
  0
LINE
  5
2CE5
330
1E
100
AcDbEntity
  8
7
100
AcDbLine
 10
2.086614173228346
 20
4.663385826771653
 30
0.0
 11
2.065944881889763
 21
4.673228346456692
 31
0.0
  0
LINE
  5
2CE6
330
1E
100
AcDbEntity
  8
7
100
AcDbLine
 10
2.065944881889763
 20
4.673228346456692
 30
0.0
 11
2.042322834645669
 21
4.673228346456692
 31
0.0
  0
LINE
  5
2CE7
330
1E
100
AcDbEntity
  8
7
100
AcDbLine
 10
2.042322834645669
 20
4.673228346456692
 30
0.0
 11
2.021653543307086
 21
4.663385826771653
 31
0.0
  0
LINE
  5
2CE8
330
1E
100
AcDbEntity
  8
7
100
AcDbLine
 10
2.021653543307086
 20
4.663385826771653
 30
0.0
 11
2.006889763779527
 21
4.646653543307086
 31
0.0
  0
LINE
  5
2CE9
330
1E
100
AcDbEntity
  8
7
100
AcDbLine
 10
2.090551181102362
 20
4.646653543307086
 30
0.0
 11
2.074803149606299
 21
4.660433070866141
 31
0.0
  0
LINE
  5
2CEA
330
1E
100
AcDbEntity
  8
7
100
AcDbLine
 10
2.074803149606299
 20
4.660433070866141
 30
0.0
 11
2.054133858267716
 21
4.665354330708661
 31
0.0
  0
LINE
  5
2CEB
330
1E
100
AcDbEntity
  8
7
100
AcDbLine
 10
2.054133858267716
 20
4.665354330708661
 30
0.0
 11
2.033464566929134
 21
4.660433070866141
 31
0.0
  0
LINE
  5
2CEC
330
1E
100
AcDbEntity
  8
7
100
AcDbLine
 10
2.033464566929134
 20
4.660433070866141
 30
0.0
 11
2.01771653543307
 21
4.646653543307086
 31
0.0
  0
LINE
  5
2CED
330
1E
100
AcDbEntity
  8
7
100
AcDbLine
 10
2.007874015748031
 20
4.590551181102362
 30
0.0
 11
2.013779527559055
 21
4.589566929133858
 31
0.0
  0
LINE
  5
2CEE
330
1E
100
AcDbEntity
  8
7
100
AcDbLine
 10
2.013779527559055
 20
4.589566929133858
 30
0.0
 11
2.019685039370078
 21
4.589566929133858
 31
0.0
  0
LINE
  5
2CEF
330
1E
100
AcDbEntity
  8
7
100
AcDbLine
 10
2.088582677165354
 20
4.589566929133858
 30
0.0
 11
2.094488188976378
 21
4.589566929133858
 31
0.0
  0
LINE
  5
2CF0
330
1E
100
AcDbEntity
  8
7
100
AcDbLine
 10
2.094488188976378
 20
4.589566929133858
 30
0.0
 11
2.100393700787401
 21
4.590551181102362
 31
0.0
  0
LINE
  5
2CF1
330
1E
100
AcDbEntity
  8
7
100
AcDbLine
 10
2.020669291338582
 20
4.591535433070865
 30
0.0
 11
2.035433070866142
 21
4.579724409448818
 31
0.0
  0
LINE
  5
2CF2
330
1E
100
AcDbEntity
  8
7
100
AcDbLine
 10
2.035433070866142
 20
4.579724409448818
 30
0.0
 11
2.054133858267716
 21
4.575787401574802
 31
0.0
  0
LINE
  5
2CF3
330
1E
100
AcDbEntity
  8
7
100
AcDbLine
 10
2.054133858267716
 20
4.575787401574802
 30
0.0
 11
2.072834645669291
 21
4.579724409448818
 31
0.0
  0
LINE
  5
2CF4
330
1E
100
AcDbEntity
  8
7
100
AcDbLine
 10
2.072834645669291
 20
4.579724409448818
 30
0.0
 11
2.08759842519685
 21
4.591535433070865
 31
0.0
  0
LINE
  5
2CF5
330
1E
100
AcDbEntity
  8
7
100
AcDbLine
 10
2.020669291338582
 20
4.590551181102362
 30
0.0
 11
2.035433070866142
 21
4.578740157480314
 31
0.0
  0
LINE
  5
2CF6
330
1E
100
AcDbEntity
  8
7
100
AcDbLine
 10
2.035433070866142
 20
4.578740157480314
 30
0.0
 11
2.054133858267716
 21
4.574803149606299
 31
0.0
  0
LINE
  5
2CF7
330
1E
100
AcDbEntity
  8
7
100
AcDbLine
 10
2.054133858267716
 20
4.574803149606299
 30
0.0
 11
2.072834645669291
 21
4.578740157480314
 31
0.0
  0
LINE
  5
2CF8
330
1E
100
AcDbEntity
  8
7
100
AcDbLine
 10
2.072834645669291
 20
4.578740157480314
 30
0.0
 11
2.08759842519685
 21
4.590551181102362
 31
0.0
  0
LINE
  5
2CF9
330
1E
100
AcDbEntity
  8
7
100
AcDbLine
 10
2.068897637795275
 20
4.516732283464566
 30
0.0
 11
2.097440944881889
 21
4.524606299212598
 31
0.0
  0
LINE
  5
2CFA
330
1E
100
AcDbEntity
  8
7
100
AcDbLine
 10
2.097440944881889
 20
4.524606299212598
 30
0.0
 11
2.122047244094488
 21
4.541338582677164
 31
0.0
  0
LINE
  5
2CFB
330
1E
100
AcDbEntity
  8
7
100
AcDbLine
 10
2.122047244094488
 20
4.541338582677164
 30
0.0
 11
2.141732283464567
 21
4.562992125984251
 31
0.0
  0
LINE
  5
2CFC
330
1E
100
AcDbEntity
  8
7
100
AcDbLine
 10
2.141732283464567
 20
4.562992125984251
 30
0.0
 11
2.154527559055118
 21
4.590551181102362
 31
0.0
  0
LINE
  5
2CFD
330
1E
100
AcDbEntity
  8
7
100
AcDbLine
 10
1.953740157480314
 20
4.590551181102362
 30
0.0
 11
1.966535433070865
 21
4.562992125984251
 31
0.0
  0
LINE
  5
2CFE
330
1E
100
AcDbEntity
  8
7
100
AcDbLine
 10
1.966535433070865
 20
4.562992125984251
 30
0.0
 11
1.986220472440944
 21
4.541338582677164
 31
0.0
  0
LINE
  5
2CFF
330
1E
100
AcDbEntity
  8
7
100
AcDbLine
 10
1.986220472440944
 20
4.541338582677164
 30
0.0
 11
2.010826771653543
 21
4.524606299212598
 31
0.0
  0
LINE
  5
2D00
330
1E
100
AcDbEntity
  8
7
100
AcDbLine
 10
2.010826771653543
 20
4.524606299212598
 30
0.0
 11
2.039370078740157
 21
4.516732283464566
 31
0.0
  0
LINE
  5
2D01
330
1E
100
AcDbEntity
  8
7
100
AcDbLine
 10
2.039370078740157
 20
4.516732283464566
 30
0.0
 11
2.068897637795275
 21
4.516732283464566
 31
0.0
  0
LINE
  5
2D02
330
1E
100
AcDbEntity
  8
7
100
AcDbLine
 10
1.953740157480314
 20
4.589566929133858
 30
0.0
 11
1.956692913385826
 21
4.589566929133858
 31
0.0
  0
LINE
  5
2D03
330
1E
100
AcDbEntity
  8
7
100
AcDbLine
 10
1.956692913385826
 20
4.589566929133858
 30
0.0
 11
2.007874015748031
 21
4.590551181102362
 31
0.0
  0
LINE
  5
2D04
330
1E
100
AcDbEntity
  8
7
100
AcDbLine
 10
2.043307086614173
 20
4.566929133858267
 30
0.0
 11
2.06496062992126
 21
4.566929133858267
 31
0.0
  0
LINE
  5
2D05
330
1E
100
AcDbEntity
  8
7
100
AcDbLine
 10
2.06496062992126
 20
4.566929133858267
 30
0.0
 11
2.084645669291338
 21
4.575787401574802
 31
0.0
  0
LINE
  5
2D06
330
1E
100
AcDbEntity
  8
7
100
AcDbLine
 10
2.084645669291338
 20
4.575787401574802
 30
0.0
 11
2.099409448818897
 21
4.590551181102362
 31
0.0
  0
LINE
  5
2D07
330
1E
100
AcDbEntity
  8
7
100
AcDbLine
 10
2.008858267716535
 20
4.590551181102362
 30
0.0
 11
2.023622047244094
 21
4.575787401574802
 31
0.0
  0
LINE
  5
2D08
330
1E
100
AcDbEntity
  8
7
100
AcDbLine
 10
2.023622047244094
 20
4.575787401574802
 30
0.0
 11
2.043307086614173
 21
4.566929133858267
 31
0.0
  0
LINE
  5
2D09
330
1E
100
AcDbEntity
  8
7
100
AcDbLine
 10
2.100393700787401
 20
4.590551181102362
 30
0.0
 11
2.140748031496062
 21
4.589566929133858
 31
0.0
  0
LINE
  5
2D0A
330
1E
100
AcDbEntity
  8
7
100
AcDbLine
 10
2.140748031496062
 20
4.589566929133858
 30
0.0
 11
2.150590551181102
 21
4.589566929133858
 31
0.0
  0
LINE
  5
2D0B
330
1E
100
AcDbEntity
  8
7
100
AcDbLine
 10
2.150590551181102
 20
4.589566929133858
 30
0.0
 11
2.154527559055118
 21
4.589566929133858
 31
0.0
  0
LINE
  5
2D0C
330
1E
100
AcDbEntity
  8
7
100
AcDbLine
 10
2.090551181102362
 20
4.645669291338582
 30
0.0
 11
2.074803149606299
 21
4.659448818897637
 31
0.0
  0
LINE
  5
2D0D
330
1E
100
AcDbEntity
  8
7
100
AcDbLine
 10
2.074803149606299
 20
4.659448818897637
 30
0.0
 11
2.054133858267716
 21
4.664370078740157
 31
0.0
  0
LINE
  5
2D0E
330
1E
100
AcDbEntity
  8
7
100
AcDbLine
 10
2.054133858267716
 20
4.664370078740157
 30
0.0
 11
2.033464566929134
 21
4.659448818897637
 31
0.0
  0
LINE
  5
2D0F
330
1E
100
AcDbEntity
  8
7
100
AcDbLine
 10
2.033464566929134
 20
4.659448818897637
 30
0.0
 11
2.01771653543307
 21
4.645669291338582
 31
0.0
  0
ENDSEC
  0
SECTION
  2
OBJECTS
  0
DICTIONARY
  5
C
330
0
100
AcDbDictionary
  3
ACAD_GROUP
350
D
  3
ACAD_LAYOUT
350
19
  3
ACAD_MLINESTYLE
350
16
  3
ACAD_PLOTSETTINGS
350
18
1001
ACAD
1000
TREAT_AS_HARD
1070
     0
  0
DICTIONARY
  5
3B87
330
1E
100
AcDbDictionary
  3
ACAD_LAYOUTSELFREF
350
3BF1
1001
ACAD
1000
TREAT_AS_HARD
1070
     1
  0
DICTIONARY
  5
3B89
330
1A
100
AcDbDictionary
  3
ACAD_LAYOUTSELFREF
350
3BF0
1001
ACAD
1000
TREAT_AS_HARD
1070
     1
  0
DICTIONARY
  5
D
102
{ACAD_REACTORS
330
C
102
}
330
C
100
AcDbDictionary
1001
ACAD
1000
TREAT_AS_HARD
1070
     0
  0
DICTIONARY
  5
19
102
{ACAD_REACTORS
330
C
102
}
330
C
100
AcDbDictionary
1001
ACAD
1000
TREAT_AS_HARD
1070
     0
  0
DICTIONARY
  5
16
102
{ACAD_REACTORS
330
C
102
}
330
C
100
AcDbDictionary
  3
STANDARD
350
17
1001
ACAD
1000
TREAT_AS_HARD
1070
     0
  0
DICTIONARY
  5
18
102
{ACAD_REACTORS
330
C
102
}
330
C
100
AcDbDictionary
1001
ACAD
1000
TREAT_AS_HARD
1070
     0
  0
XRECORD
  5
3BF1
102
{ACAD_REACTORS
330
3B87
102
}
330
3B87
100
AcDbXrecord
340
1E
  0
XRECORD
  5
3BF0
102
{ACAD_REACTORS
330
3B89
102
}
330
3B89
100
AcDbXrecord
340
1A
  0
MLINESTYLE
  5
17
102
{ACAD_REACTORS
330
16
102
}
330
16
100
AcDbMlineStyle
  2
STANDARD
 70
     0
  3

 62
   256
 51
90.0
 52
90.0
 71
     2
 49
0.5
 62
   256
  6
BYLAYER
 49
-0.5
 62
   256
  6
BYLAYER
  0
ENDSEC
  0
EOF
