  0
SECTION
  2
HEADER
  9
$ACADVER
  1
AC1012
  9
$DWGCODEPAGE
  3
ANSI_1252
  9
$INSBASE
 10
0.0
 20
0.0
 30
0.0
  9
$EXTMIN
 10
-2.088294689971689
 20
-15.17610700549617
 30
0.0
  9
$EXTMAX
 10
16.91170531002831
 20
-1.995004643291446
 30
0.0
  9
$LIMMIN
 10
0.0
 20
0.0
  9
$LIMMAX
 10
12.0
 20
9.0
  9
$ORTHOMODE
 70
     1
  9
$REGENMODE
 70
     1
  9
$FILLMODE
 70
     1
  9
$QTEXTMODE
 70
     0
  9
$MIRRTEXT
 70
     1
  9
$DRAGMODE
 70
     2
  9
$LTSCALE
 40
1.0
  9
$OSMODE
 70
   547
  9
$ATTMODE
 70
     1
  9
$TEXTSIZE
 40
0.2
  9
$TRACEWID
 40
0.05
  9
$TEXTSTYLE
  7
STANDARD
  9
$CLAYER
  8
0
  9
$CELTYPE
  6
BYLAYER
  9
$CECOLOR
 62
   256
  9
$CELTSCALE
 40
1.0
  9
$DELOBJ
 70
     1
  9
$DISPSILH
 70
     0
  9
$DIMSCALE
 40
1.0
  9
$DIMASZ
 40
0.18
  9
$DIMEXO
 40
0.0625
  9
$DIMDLI
 40
0.38
  9
$DIMRND
 40
0.0
  9
$DIMDLE
 40
0.0
  9
$DIMEXE
 40
0.18
  9
$DIMTP
 40
0.0
  9
$DIMTM
 40
0.0
  9
$DIMTXT
 40
0.18
  9
$DIMCEN
 40
0.09
  9
$DIMTSZ
 40
0.0
  9
$DIMTOL
 70
     0
  9
$DIMLIM
 70
     0
  9
$DIMTIH
 70
     1
  9
$DIMTOH
 70
     1
  9
$DIMSE1
 70
     0
  9
$DIMSE2
 70
     0
  9
$DIMTAD
 70
     0
  9
$DIMZIN
 70
     0
  9
$DIMBLK
  1

  9
$DIMASO
 70
     1
  9
$DIMSHO
 70
     1
  9
$DIMPOST
  1

  9
$DIMAPOST
  1

  9
$DIMALT
 70
     0
  9
$DIMALTD
 70
     2
  9
$DIMALTF
 40
25.4
  9
$DIMLFAC
 40
1.0
  9
$DIMTOFL
 70
     0
  9
$DIMTVP
 40
0.0
  9
$DIMTIX
 70
     0
  9
$DIMSOXD
 70
     0
  9
$DIMSAH
 70
     0
  9
$DIMBLK1
  1

  9
$DIMBLK2
  1

  9
$DIMSTYLE
  2
STANDARD
  9
$DIMCLRD
 70
     0
  9
$DIMCLRE
 70
     0
  9
$DIMCLRT
 70
     0
  9
$DIMTFAC
 40
1.0
  9
$DIMGAP
 40
0.09
  9
$DIMJUST
 70
     0
  9
$DIMSD1
 70
     0
  9
$DIMSD2
 70
     0
  9
$DIMTOLJ
 70
     1
  9
$DIMTZIN
 70
     0
  9
$DIMALTZ
 70
     0
  9
$DIMALTTZ
 70
     0
  9
$DIMFIT
 70
     5
  9
$DIMUPT
 70
     0
  9
$DIMUNIT
 70
     2
  9
$DIMDEC
 70
     4
  9
$DIMTDEC
 70
     4
  9
$DIMALTU
 70
     2
  9
$DIMALTTD
 70
     2
  9
$DIMTXSTY
  7
STANDARD
  9
$DIMAUNIT
 70
     0
  9
$LUNITS
 70
     2
  9
$LUPREC
 70
     4
  9
$SKETCHINC
 40
0.1
  9
$FILLETRAD
 40
0.0
  9
$AUNITS
 70
     0
  9
$AUPREC
 70
     0
  9
$MENU
  1
acad
  9
$ELEVATION
 40
0.0
  9
$PELEVATION
 40
0.0
  9
$THICKNESS
 40
0.0
  9
$LIMCHECK
 70
     0
  9
$BLIPMODE
 70
     0
  9
$CHAMFERA
 40
0.0
  9
$CHAMFERB
 40
0.0
  9
$CHAMFERC
 40
0.0
  9
$CHAMFERD
 40
0.0
  9
$SKPOLY
 70
     0
  9
$TDCREATE
 40
2453682.562488426
  9
$TDUPDATE
 40
2453776.650817025
  9
$TDINDWG
 40
0.0029829051
  9
$TDUSRTIMER
 40
0.0029829051
  9
$USRTIMER
 70
     1
  9
$ANGBASE
 50
0.0
  9
$ANGDIR
 70
     0
  9
$PDMODE
 70
     0
  9
$PDSIZE
 40
0.0
  9
$PLINEWID
 40
0.0
  9
$COORDS
 70
     1
  9
$SPLFRAME
 70
     0
  9
$SPLINETYPE
 70
     6
  9
$SPLINESEGS
 70
     8
  9
$ATTDIA
 70
     0
  9
$ATTREQ
 70
     1
  9
$HANDLING
 70
  4097
  9
$HANDSEED
  5
46E6
  9
$SURFTAB1
 70
     6
  9
$SURFTAB2
 70
     6
  9
$SURFTYPE
 70
     6
  9
$SURFU
 70
     6
  9
$SURFV
 70
     6
  9
$UCSNAME
  2

  9
$UCSORG
 10
0.0
 20
0.0
 30
0.0
  9
$UCSXDIR
 10
1.0
 20
0.0
 30
0.0
  9
$UCSYDIR
 10
0.0
 20
1.0
 30
0.0
  9
$PUCSNAME
  2

  9
$PUCSORG
 10
0.0
 20
0.0
 30
0.0
  9
$PUCSXDIR
 10
1.0
 20
0.0
 30
0.0
  9
$PUCSYDIR
 10
0.0
 20
1.0
 30
0.0
  9
$USERI1
 70
     0
  9
$USERI2
 70
     0
  9
$USERI3
 70
     0
  9
$USERI4
 70
     0
  9
$USERI5
 70
     0
  9
$USERR1
 40
0.0
  9
$USERR2
 40
0.0
  9
$USERR3
 40
0.0
  9
$USERR4
 40
0.0
  9
$USERR5
 40
0.0
  9
$WORLDVIEW
 70
     1
  9
$SHADEDGE
 70
     3
  9
$SHADEDIF
 70
    70
  9
$TILEMODE
 70
     1
  9
$MAXACTVP
 70
    16
  9
$PINSBASE
 10
0.0
 20
0.0
 30
0.0
  9
$PLIMCHECK
 70
     0
  9
$PEXTMIN
 10
1.000000000000000E+20
 20
1.000000000000000E+20
 30
1.000000000000000E+20
  9
$PEXTMAX
 10
-1.000000000000000E+20
 20
-1.000000000000000E+20
 30
-1.000000000000000E+20
  9
$PLIMMIN
 10
0.0
 20
0.0
  9
$PLIMMAX
 10
12.0
 20
9.0
  9
$UNITMODE
 70
     0
  9
$VISRETAIN
 70
     0
  9
$PLINEGEN
 70
     0
  9
$PSLTSCALE
 70
     1
  9
$TREEDEPTH
 70
  3020
  9
$PICKSTYLE
 70
     1
  9
$CMLSTYLE
  2
STANDARD
  9
$CMLJUST
 70
     0
  9
$CMLSCALE
 40
1.0
  9
$SAVEIMAGES
 70
     1
  0
ENDSEC
  0
SECTION
  2
CLASSES
  0
CLASS
  1
ACDBDICTIONARYWDFLT
  2
AcDbDictionaryWithDefault
  3
AutoCAD 2000
 90
    32768
280
     0
281
     0
  0
CLASS
  1
ACDBPLACEHOLDER
  2
AcDbPlaceHolder
  3
AutoCAD 2000
 90
    32768
280
     0
281
     0
  0
CLASS
  1
LAYOUT
  2
AcDbLayout
  3
AutoCAD 2000
 90
    32768
280
     0
281
     0
  0
CLASS
  1
LONG_TRANSACTION
  2
AcDbLongTransaction
  3
AutoCAD 2000
 90
    32768
280
     0
281
     0
  0
CLASS
  1
LWPOLYLINE
  2
AcDbPolyline
  3
AutoCAD 2000
 90
    32768
280
     0
281
     1
  0
CLASS
  1
HATCH
  2
AcDbHatch
  3
AutoCAD 2000
 90
    32768
280
     0
281
     1
  0
CLASS
  1
XRECORD
  2
AcDbXrecord
  3
AutoCAD 2000
 90
    32768
280
     0
281
     0
  0
CLASS
  1
LONG_TRANSACTION
  2
AcDbLongTransaction
  3
AutoCAD 2000
 90
    32768
280
     0
281
     0
  0
CLASS
  1
LWPOLYLINE
  2
AcDbPolyline
  3
AutoCAD 2000
 90
    32768
280
     0
281
     1
  0
CLASS
  1
HATCH
  2
AcDbHatch
  3
AutoCAD 2000
 90
    32768
280
     0
281
     1
  0
CLASS
  1
XRECORD
  2
AcDbXrecord
  3
AutoCAD 2000
 90
    32768
280
     0
281
     0
  0
ENDSEC
  0
SECTION
  2
TABLES
  0
TABLE
  2
VPORT
  5
8
330
0
100
AcDbSymbolTable
 70
     2
  0
VPORT
  5
46E3
330
8
100
AcDbSymbolTableRecord
100
AcDbViewportTableRecord
  2
*ACTIVE
 70
     0
 10
0.0
 20
0.0
 11
1.0
 21
1.0
 12
7.410800469029143
 22
-8.585707792570508
 13
0.0
 23
0.0
 14
1.0
 24
1.0
 15
0.0
 25
0.0
 16
0.0
 26
0.0
 36
1.0
 17
0.0
 27
0.0
 37
0.0
 40
13.33683437333715
 41
1.748134328358208
 42
50.0
 43
0.0
 44
0.0
 50
0.0
 51
0.0
 71
     0
 72
   100
 73
     1
 74
     1
 75
     0
 76
     0
 77
     0
 78
     0
  0
ENDTAB
  0
TABLE
  2
LTYPE
  5
5
330
0
100
AcDbSymbolTable
 70
    25
  0
LTYPE
  5
13
330
5
100
AcDbSymbolTableRecord
100
AcDbLinetypeTableRecord
  2
BYBLOCK
 70
     0
  3

 72
    65
 73
     0
 40
0.0
  0
LTYPE
  5
14
330
5
100
AcDbSymbolTableRecord
100
AcDbLinetypeTableRecord
  2
BYLAYER
 70
     0
  3

 72
    65
 73
     0
 40
0.0
  0
LTYPE
  5
15
330
5
100
AcDbSymbolTableRecord
100
AcDbLinetypeTableRecord
  2
CONTINUOUS
 70
     0
  3
Solid line
 72
    65
 73
     0
 40
0.0
  0
LTYPE
  5
22
330
5
100
AcDbSymbolTableRecord
100
AcDbLinetypeTableRecord
  2
BORDER
 70
     0
  3
__ __ . __ __ . __ __ . __ __ . __ __ . __ __ .
 72
    65
 73
     6
 40
1.75
 49
0.5
 74
     0
 49
-0.25
 74
     0
 49
0.5
 74
     0
 49
-0.25
 74
     0
 49
0.5
 74
     0
 49
-0.25
 74
     0
  0
LTYPE
  5
23
330
5
100
AcDbSymbolTableRecord
100
AcDbLinetypeTableRecord
  2
BORDER2
 70
     0
  3
__.__.__.__.__.__.__.__.__.__.__.__.__.__.__.__
 72
    65
 73
     6
 40
0.875
 49
0.25
 74
     0
 49
-0.125
 74
     0
 49
0.25
 74
     0
 49
-0.125
 74
     0
 49
0.25
 74
     0
 49
-0.125
 74
     0
  0
LTYPE
  5
24
330
5
100
AcDbSymbolTableRecord
100
AcDbLinetypeTableRecord
  2
BORDERX2
 70
     0
  3
____  ____  .  ____  ____  .  
 72
    65
 73
     6
 40
3.5
 49
1.0
 74
     0
 49
-0.5
 74
     0
 49
1.0
 74
     0
 49
-0.5
 74
     0
 49
1.0
 74
     0
 49
-0.5
 74
     0
  0
LTYPE
  5
25
330
5
100
AcDbSymbolTableRecord
100
AcDbLinetypeTableRecord
  2
CENTER
 70
     0
  3
____ _ ____ _ ____ _ ____ _ ____ _ ____ _ ____
 72
    65
 73
     4
 40
2.0
 49
1.25
 74
     0
 49
-0.25
 74
     0
 49
0.25
 74
     0
 49
-0.25
 74
     0
  0
LTYPE
  5
26
330
5
100
AcDbSymbolTableRecord
100
AcDbLinetypeTableRecord
  2
CENTER2
 70
     0
  3
____ _ ____ _ ____ _ ____ _ ____ _ ____ _ ____
 72
    65
 73
     4
 40
1.125
 49
0.75
 74
     0
 49
-0.125
 74
     0
 49
0.125
 74
     0
 49
-0.125
 74
     0
  0
LTYPE
  5
27
330
5
100
AcDbSymbolTableRecord
100
AcDbLinetypeTableRecord
  2
CENTERX2
 70
     0
  3
________  __  ________  __  ________  __  
 72
    65
 73
     4
 40
4.0
 49
2.5
 74
     0
 49
-0.5
 74
     0
 49
0.5
 74
     0
 49
-0.5
 74
     0
  0
LTYPE
  5
28
330
5
100
AcDbSymbolTableRecord
100
AcDbLinetypeTableRecord
  2
DASHDOT
 70
     0
  3
__ . __ . __ . __ . __ . __ . __ . 
 72
    65
 73
     4
 40
1.0
 49
0.5
 74
     0
 49
-0.25
 74
     0
 49
0.0
 74
     0
 49
-0.25
 74
     0
  0
LTYPE
  5
29
330
5
100
AcDbSymbolTableRecord
100
AcDbLinetypeTableRecord
  2
DASHDOT2
 70
     0
  3
_._._._._._._._._._._._._._._._.
 72
    65
 73
     4
 40
0.5
 49
0.25
 74
     0
 49
-0.125
 74
     0
 49
0.0
 74
     0
 49
-0.125
 74
     0
  0
LTYPE
  5
2A
330
5
100
AcDbSymbolTableRecord
100
AcDbLinetypeTableRecord
  2
DASHDOTX2
 70
     0
  3
____  .  ____  .  ____  .  ____  .  
 72
    65
 73
     4
 40
2.0
 49
1.0
 74
     0
 49
-0.5
 74
     0
 49
0.0
 74
     0
 49
-0.5
 74
     0
  0
LTYPE
  5
2B
330
5
100
AcDbSymbolTableRecord
100
AcDbLinetypeTableRecord
  2
DASHED
 70
     0
  3
__ __ __ __ __ __ __ __ __ __ __ __ 
 72
    65
 73
     2
 40
0.75
 49
0.5
 74
     0
 49
-0.25
 74
     0
  0
LTYPE
  5
2C
330
5
100
AcDbSymbolTableRecord
100
AcDbLinetypeTableRecord
  2
DASHED2
 70
     0
  3
_ _ _ _ _ _ _ _ _ _ _ _ _ _ _ _ _ _ 
 72
    65
 73
     2
 40
0.375
 49
0.25
 74
     0
 49
-0.125
 74
     0
  0
LTYPE
  5
2D
330
5
100
AcDbSymbolTableRecord
100
AcDbLinetypeTableRecord
  2
DASHEDX2
 70
     0
  3
____  ____  ____  ____  ____  ____  
 72
    65
 73
     2
 40
1.5
 49
1.0
 74
     0
 49
-0.5
 74
     0
  0
LTYPE
  5
2E
330
5
100
AcDbSymbolTableRecord
100
AcDbLinetypeTableRecord
  2
DIVIDE
 70
     0
  3
____ . . ____ . . ____ . . ____ . . 
 72
    65
 73
     6
 40
1.25
 49
0.5
 74
     0
 49
-0.25
 74
     0
 49
0.0
 74
     0
 49
-0.25
 74
     0
 49
0.0
 74
     0
 49
-0.25
 74
     0
  0
LTYPE
  5
2F
330
5
100
AcDbSymbolTableRecord
100
AcDbLinetypeTableRecord
  2
DIVIDE2
 70
     0
  3
__..__..__..__..__..__..__..__..__..
 72
    65
 73
     6
 40
0.625
 49
0.25
 74
     0
 49
-0.125
 74
     0
 49
0.0
 74
     0
 49
-0.125
 74
     0
 49
0.0
 74
     0
 49
-0.125
 74
     0
  0
LTYPE
  5
30
330
5
100
AcDbSymbolTableRecord
100
AcDbLinetypeTableRecord
  2
DIVIDEX2
 70
     0
  3
________  .  .  ________  .  .  ________  .  . 
 72
    65
 73
     6
 40
2.5
 49
1.0
 74
     0
 49
-0.5
 74
     0
 49
0.0
 74
     0
 49
-0.5
 74
     0
 49
0.0
 74
     0
 49
-0.5
 74
     0
  0
LTYPE
  5
31
330
5
100
AcDbSymbolTableRecord
100
AcDbLinetypeTableRecord
  2
DOT
 70
     0
  3
. . . . . . . . . . . . . . . . . . 
 72
    65
 73
     2
 40
0.25
 49
0.0
 74
     0
 49
-0.25
 74
     0
  0
LTYPE
  5
32
330
5
100
AcDbSymbolTableRecord
100
AcDbLinetypeTableRecord
  2
DOT2
 70
     0
  3
....................................
 72
    65
 73
     2
 40
0.125
 49
0.0
 74
     0
 49
-0.125
 74
     0
  0
LTYPE
  5
33
330
5
100
AcDbSymbolTableRecord
100
AcDbLinetypeTableRecord
  2
DOTX2
 70
     0
  3
.  .  .  .  .  .  .  .  .  .  .  .  .  
 72
    65
 73
     2
 40
0.5
 49
0.0
 74
     0
 49
-0.5
 74
     0
  0
LTYPE
  5
34
330
5
100
AcDbSymbolTableRecord
100
AcDbLinetypeTableRecord
  2
HIDDEN
 70
     0
  3
__ __ __ __ __ __ __ __ __ __ __ __ 
 72
    65
 73
     2
 40
0.375
 49
0.25
 74
     0
 49
-0.125
 74
     0
  0
LTYPE
  5
35
330
5
100
AcDbSymbolTableRecord
100
AcDbLinetypeTableRecord
  2
HIDDEN2
 70
     0
  3
_ _ _ _ _ _ _ _ _ _ _ _ _ _ _ _ _ _ 
 72
    65
 73
     2
 40
0.1875
 49
0.125
 74
     0
 49
-0.0625
 74
     0
  0
LTYPE
  5
36
330
5
100
AcDbSymbolTableRecord
100
AcDbLinetypeTableRecord
  2
HIDDENX2
 70
     0
  3
____ ____ ____ ____ ____ ____ ____ 
 72
    65
 73
     2
 40
0.75
 49
0.5
 74
     0
 49
-0.25
 74
     0
  0
LTYPE
  5
37
330
5
100
AcDbSymbolTableRecord
100
AcDbLinetypeTableRecord
  2
PHANTOM
 70
     0
  3
______  __  __  ______  __  __  
 72
    65
 73
     6
 40
2.5
 49
1.25
 74
     0
 49
-0.25
 74
     0
 49
0.25
 74
     0
 49
-0.25
 74
     0
 49
0.25
 74
     0
 49
-0.25
 74
     0
  0
LTYPE
  5
38
330
5
100
AcDbSymbolTableRecord
100
AcDbLinetypeTableRecord
  2
PHANTOM2
 70
     0
  3
___ _ _ ___ _ _ ___ _ _ ___ _ _ 
 72
    65
 73
     6
 40
1.25
 49
0.625
 74
     0
 49
-0.125
 74
     0
 49
0.125
 74
     0
 49
-0.125
 74
     0
 49
0.125
 74
     0
 49
-0.125
 74
     0
  0
LTYPE
  5
39
330
5
100
AcDbSymbolTableRecord
100
AcDbLinetypeTableRecord
  2
PHANTOMX2
 70
     0
  3
___ _ _ ___ _ _ ___ _ _ ___ _ _ 
 72
    65
 73
     6
 40
5.0
 49
2.5
 74
     0
 49
-0.5
 74
     0
 49
0.5
 74
     0
 49
-0.5
 74
     0
 49
0.5
 74
     0
 49
-0.5
 74
     0
  0
ENDTAB
  0
TABLE
  2
LAYER
  5
2
330
0
100
AcDbSymbolTable
 70
   257
  0
LAYER
  5
10
330
2
100
AcDbSymbolTableRecord
100
AcDbLayerTableRecord
  2
0
 70
     0
 62
     7
  6
CONTINUOUS
  0
LAYER
  5
3A
330
2
100
AcDbSymbolTableRecord
100
AcDbLayerTableRecord
  2
1
 70
     0
 62
     1
  6
CONTINUOUS
  0
LAYER
  5
3B
330
2
100
AcDbSymbolTableRecord
100
AcDbLayerTableRecord
  2
2
 70
     0
 62
     2
  6
CONTINUOUS
  0
LAYER
  5
3C
330
2
100
AcDbSymbolTableRecord
100
AcDbLayerTableRecord
  2
3
 70
     0
 62
     3
  6
CONTINUOUS
  0
LAYER
  5
3D
330
2
100
AcDbSymbolTableRecord
100
AcDbLayerTableRecord
  2
4
 70
     0
 62
     4
  6
CONTINUOUS
  0
LAYER
  5
3E
330
2
100
AcDbSymbolTableRecord
100
AcDbLayerTableRecord
  2
5
 70
     0
 62
     5
  6
CONTINUOUS
  0
LAYER
  5
3F
330
2
100
AcDbSymbolTableRecord
100
AcDbLayerTableRecord
  2
6
 70
     0
 62
     6
  6
CONTINUOUS
  0
LAYER
  5
40
330
2
100
AcDbSymbolTableRecord
100
AcDbLayerTableRecord
  2
7
 70
     0
 62
     7
  6
CONTINUOUS
  0
LAYER
  5
41
330
2
100
AcDbSymbolTableRecord
100
AcDbLayerTableRecord
  2
8
 70
     0
 62
     8
  6
CONTINUOUS
  0
LAYER
  5
42
330
2
100
AcDbSymbolTableRecord
100
AcDbLayerTableRecord
  2
9
 70
     0
 62
     9
  6
CONTINUOUS
  0
LAYER
  5
43
330
2
100
AcDbSymbolTableRecord
100
AcDbLayerTableRecord
  2
10
 70
     0
 62
    10
  6
CONTINUOUS
  0
LAYER
  5
44
330
2
100
AcDbSymbolTableRecord
100
AcDbLayerTableRecord
  2
11
 70
     0
 62
    11
  6
CONTINUOUS
  0
LAYER
  5
45
330
2
100
AcDbSymbolTableRecord
100
AcDbLayerTableRecord
  2
12
 70
     0
 62
    12
  6
CONTINUOUS
  0
LAYER
  5
46
330
2
100
AcDbSymbolTableRecord
100
AcDbLayerTableRecord
  2
13
 70
     0
 62
    13
  6
CONTINUOUS
  0
LAYER
  5
47
330
2
100
AcDbSymbolTableRecord
100
AcDbLayerTableRecord
  2
14
 70
     0
 62
    14
  6
CONTINUOUS
  0
LAYER
  5
48
330
2
100
AcDbSymbolTableRecord
100
AcDbLayerTableRecord
  2
15
 70
     0
 62
    15
  6
CONTINUOUS
  0
LAYER
  5
49
330
2
100
AcDbSymbolTableRecord
100
AcDbLayerTableRecord
  2
16
 70
     0
 62
    16
  6
CONTINUOUS
  0
LAYER
  5
4A
330
2
100
AcDbSymbolTableRecord
100
AcDbLayerTableRecord
  2
17
 70
     0
 62
    17
  6
CONTINUOUS
  0
LAYER
  5
4B
330
2
100
AcDbSymbolTableRecord
100
AcDbLayerTableRecord
  2
18
 70
     0
 62
    18
  6
CONTINUOUS
  0
LAYER
  5
4C
330
2
100
AcDbSymbolTableRecord
100
AcDbLayerTableRecord
  2
19
 70
     0
 62
    19
  6
CONTINUOUS
  0
LAYER
  5
4D
330
2
100
AcDbSymbolTableRecord
100
AcDbLayerTableRecord
  2
20
 70
     0
 62
    20
  6
CONTINUOUS
  0
LAYER
  5
4E
330
2
100
AcDbSymbolTableRecord
100
AcDbLayerTableRecord
  2
21
 70
     0
 62
    21
  6
CONTINUOUS
  0
LAYER
  5
4F
330
2
100
AcDbSymbolTableRecord
100
AcDbLayerTableRecord
  2
22
 70
     0
 62
    22
  6
CONTINUOUS
  0
LAYER
  5
50
330
2
100
AcDbSymbolTableRecord
100
AcDbLayerTableRecord
  2
23
 70
     0
 62
    23
  6
CONTINUOUS
  0
LAYER
  5
51
330
2
100
AcDbSymbolTableRecord
100
AcDbLayerTableRecord
  2
24
 70
     0
 62
    24
  6
CONTINUOUS
  0
LAYER
  5
52
330
2
100
AcDbSymbolTableRecord
100
AcDbLayerTableRecord
  2
25
 70
     0
 62
    25
  6
CONTINUOUS
  0
LAYER
  5
53
330
2
100
AcDbSymbolTableRecord
100
AcDbLayerTableRecord
  2
26
 70
     0
 62
    26
  6
CONTINUOUS
  0
LAYER
  5
54
330
2
100
AcDbSymbolTableRecord
100
AcDbLayerTableRecord
  2
27
 70
     0
 62
    27
  6
CONTINUOUS
  0
LAYER
  5
55
330
2
100
AcDbSymbolTableRecord
100
AcDbLayerTableRecord
  2
28
 70
     0
 62
    28
  6
CONTINUOUS
  0
LAYER
  5
56
330
2
100
AcDbSymbolTableRecord
100
AcDbLayerTableRecord
  2
29
 70
     0
 62
    29
  6
CONTINUOUS
  0
LAYER
  5
57
330
2
100
AcDbSymbolTableRecord
100
AcDbLayerTableRecord
  2
30
 70
     0
 62
    30
  6
CONTINUOUS
  0
LAYER
  5
58
330
2
100
AcDbSymbolTableRecord
100
AcDbLayerTableRecord
  2
31
 70
     0
 62
    31
  6
CONTINUOUS
  0
LAYER
  5
59
330
2
100
AcDbSymbolTableRecord
100
AcDbLayerTableRecord
  2
32
 70
     0
 62
    32
  6
CONTINUOUS
  0
LAYER
  5
5A
330
2
100
AcDbSymbolTableRecord
100
AcDbLayerTableRecord
  2
33
 70
     0
 62
    33
  6
CONTINUOUS
  0
LAYER
  5
5B
330
2
100
AcDbSymbolTableRecord
100
AcDbLayerTableRecord
  2
34
 70
     0
 62
    34
  6
CONTINUOUS
  0
LAYER
  5
5C
330
2
100
AcDbSymbolTableRecord
100
AcDbLayerTableRecord
  2
35
 70
     0
 62
    35
  6
CONTINUOUS
  0
LAYER
  5
5D
330
2
100
AcDbSymbolTableRecord
100
AcDbLayerTableRecord
  2
36
 70
     0
 62
    36
  6
CONTINUOUS
  0
LAYER
  5
5E
330
2
100
AcDbSymbolTableRecord
100
AcDbLayerTableRecord
  2
37
 70
     0
 62
    37
  6
CONTINUOUS
  0
LAYER
  5
5F
330
2
100
AcDbSymbolTableRecord
100
AcDbLayerTableRecord
  2
38
 70
     0
 62
    38
  6
CONTINUOUS
  0
LAYER
  5
60
330
2
100
AcDbSymbolTableRecord
100
AcDbLayerTableRecord
  2
39
 70
     0
 62
    39
  6
CONTINUOUS
  0
LAYER
  5
61
330
2
100
AcDbSymbolTableRecord
100
AcDbLayerTableRecord
  2
40
 70
     0
 62
    40
  6
CONTINUOUS
  0
LAYER
  5
62
330
2
100
AcDbSymbolTableRecord
100
AcDbLayerTableRecord
  2
41
 70
     0
 62
    41
  6
CONTINUOUS
  0
LAYER
  5
63
330
2
100
AcDbSymbolTableRecord
100
AcDbLayerTableRecord
  2
42
 70
     0
 62
    42
  6
CONTINUOUS
  0
LAYER
  5
64
330
2
100
AcDbSymbolTableRecord
100
AcDbLayerTableRecord
  2
43
 70
     0
 62
    43
  6
CONTINUOUS
  0
LAYER
  5
65
330
2
100
AcDbSymbolTableRecord
100
AcDbLayerTableRecord
  2
44
 70
     0
 62
    44
  6
CONTINUOUS
  0
LAYER
  5
66
330
2
100
AcDbSymbolTableRecord
100
AcDbLayerTableRecord
  2
45
 70
     0
 62
    45
  6
CONTINUOUS
  0
LAYER
  5
67
330
2
100
AcDbSymbolTableRecord
100
AcDbLayerTableRecord
  2
46
 70
     0
 62
    46
  6
CONTINUOUS
  0
LAYER
  5
68
330
2
100
AcDbSymbolTableRecord
100
AcDbLayerTableRecord
  2
47
 70
     0
 62
    47
  6
CONTINUOUS
  0
LAYER
  5
69
330
2
100
AcDbSymbolTableRecord
100
AcDbLayerTableRecord
  2
48
 70
     0
 62
    48
  6
CONTINUOUS
  0
LAYER
  5
6A
330
2
100
AcDbSymbolTableRecord
100
AcDbLayerTableRecord
  2
49
 70
     0
 62
    49
  6
CONTINUOUS
  0
LAYER
  5
6B
330
2
100
AcDbSymbolTableRecord
100
AcDbLayerTableRecord
  2
50
 70
     0
 62
    50
  6
CONTINUOUS
  0
LAYER
  5
6C
330
2
100
AcDbSymbolTableRecord
100
AcDbLayerTableRecord
  2
51
 70
     0
 62
    51
  6
CONTINUOUS
  0
LAYER
  5
6D
330
2
100
AcDbSymbolTableRecord
100
AcDbLayerTableRecord
  2
52
 70
     0
 62
    52
  6
CONTINUOUS
  0
LAYER
  5
6E
330
2
100
AcDbSymbolTableRecord
100
AcDbLayerTableRecord
  2
53
 70
     0
 62
    53
  6
CONTINUOUS
  0
LAYER
  5
6F
330
2
100
AcDbSymbolTableRecord
100
AcDbLayerTableRecord
  2
54
 70
     0
 62
    54
  6
CONTINUOUS
  0
LAYER
  5
70
330
2
100
AcDbSymbolTableRecord
100
AcDbLayerTableRecord
  2
55
 70
     0
 62
    55
  6
CONTINUOUS
  0
LAYER
  5
71
330
2
100
AcDbSymbolTableRecord
100
AcDbLayerTableRecord
  2
56
 70
     0
 62
    56
  6
CONTINUOUS
  0
LAYER
  5
72
330
2
100
AcDbSymbolTableRecord
100
AcDbLayerTableRecord
  2
57
 70
     0
 62
    57
  6
CONTINUOUS
  0
LAYER
  5
73
330
2
100
AcDbSymbolTableRecord
100
AcDbLayerTableRecord
  2
58
 70
     0
 62
    58
  6
CONTINUOUS
  0
LAYER
  5
74
330
2
100
AcDbSymbolTableRecord
100
AcDbLayerTableRecord
  2
59
 70
     0
 62
    59
  6
CONTINUOUS
  0
LAYER
  5
75
330
2
100
AcDbSymbolTableRecord
100
AcDbLayerTableRecord
  2
60
 70
     0
 62
    60
  6
CONTINUOUS
  0
LAYER
  5
76
330
2
100
AcDbSymbolTableRecord
100
AcDbLayerTableRecord
  2
61
 70
     0
 62
    61
  6
CONTINUOUS
  0
LAYER
  5
77
330
2
100
AcDbSymbolTableRecord
100
AcDbLayerTableRecord
  2
62
 70
     0
 62
    62
  6
CONTINUOUS
  0
LAYER
  5
78
330
2
100
AcDbSymbolTableRecord
100
AcDbLayerTableRecord
  2
63
 70
     0
 62
    63
  6
CONTINUOUS
  0
LAYER
  5
79
330
2
100
AcDbSymbolTableRecord
100
AcDbLayerTableRecord
  2
64
 70
     0
 62
    64
  6
CONTINUOUS
  0
LAYER
  5
7A
330
2
100
AcDbSymbolTableRecord
100
AcDbLayerTableRecord
  2
65
 70
     0
 62
    65
  6
CONTINUOUS
  0
LAYER
  5
7B
330
2
100
AcDbSymbolTableRecord
100
AcDbLayerTableRecord
  2
66
 70
     0
 62
    66
  6
CONTINUOUS
  0
LAYER
  5
7C
330
2
100
AcDbSymbolTableRecord
100
AcDbLayerTableRecord
  2
67
 70
     0
 62
    67
  6
CONTINUOUS
  0
LAYER
  5
7D
330
2
100
AcDbSymbolTableRecord
100
AcDbLayerTableRecord
  2
68
 70
     0
 62
    68
  6
CONTINUOUS
  0
LAYER
  5
7E
330
2
100
AcDbSymbolTableRecord
100
AcDbLayerTableRecord
  2
69
 70
     0
 62
    69
  6
CONTINUOUS
  0
LAYER
  5
7F
330
2
100
AcDbSymbolTableRecord
100
AcDbLayerTableRecord
  2
70
 70
     0
 62
    70
  6
CONTINUOUS
  0
LAYER
  5
80
330
2
100
AcDbSymbolTableRecord
100
AcDbLayerTableRecord
  2
71
 70
     0
 62
    71
  6
CONTINUOUS
  0
LAYER
  5
81
330
2
100
AcDbSymbolTableRecord
100
AcDbLayerTableRecord
  2
72
 70
     0
 62
    72
  6
CONTINUOUS
  0
LAYER
  5
82
330
2
100
AcDbSymbolTableRecord
100
AcDbLayerTableRecord
  2
73
 70
     0
 62
    73
  6
CONTINUOUS
  0
LAYER
  5
83
330
2
100
AcDbSymbolTableRecord
100
AcDbLayerTableRecord
  2
74
 70
     0
 62
    74
  6
CONTINUOUS
  0
LAYER
  5
84
330
2
100
AcDbSymbolTableRecord
100
AcDbLayerTableRecord
  2
75
 70
     0
 62
    75
  6
CONTINUOUS
  0
LAYER
  5
85
330
2
100
AcDbSymbolTableRecord
100
AcDbLayerTableRecord
  2
76
 70
     0
 62
    76
  6
CONTINUOUS
  0
LAYER
  5
86
330
2
100
AcDbSymbolTableRecord
100
AcDbLayerTableRecord
  2
77
 70
     0
 62
    77
  6
CONTINUOUS
  0
LAYER
  5
87
330
2
100
AcDbSymbolTableRecord
100
AcDbLayerTableRecord
  2
78
 70
     0
 62
    78
  6
CONTINUOUS
  0
LAYER
  5
88
330
2
100
AcDbSymbolTableRecord
100
AcDbLayerTableRecord
  2
79
 70
     0
 62
    79
  6
CONTINUOUS
  0
LAYER
  5
89
330
2
100
AcDbSymbolTableRecord
100
AcDbLayerTableRecord
  2
80
 70
     0
 62
    80
  6
CONTINUOUS
  0
LAYER
  5
8A
330
2
100
AcDbSymbolTableRecord
100
AcDbLayerTableRecord
  2
81
 70
     0
 62
    81
  6
CONTINUOUS
  0
LAYER
  5
8B
330
2
100
AcDbSymbolTableRecord
100
AcDbLayerTableRecord
  2
82
 70
     0
 62
    82
  6
CONTINUOUS
  0
LAYER
  5
8C
330
2
100
AcDbSymbolTableRecord
100
AcDbLayerTableRecord
  2
83
 70
     0
 62
    83
  6
CONTINUOUS
  0
LAYER
  5
8D
330
2
100
AcDbSymbolTableRecord
100
AcDbLayerTableRecord
  2
84
 70
     0
 62
    84
  6
CONTINUOUS
  0
LAYER
  5
8E
330
2
100
AcDbSymbolTableRecord
100
AcDbLayerTableRecord
  2
85
 70
     0
 62
    85
  6
CONTINUOUS
  0
LAYER
  5
8F
330
2
100
AcDbSymbolTableRecord
100
AcDbLayerTableRecord
  2
86
 70
     0
 62
    86
  6
CONTINUOUS
  0
LAYER
  5
90
330
2
100
AcDbSymbolTableRecord
100
AcDbLayerTableRecord
  2
87
 70
     0
 62
    87
  6
CONTINUOUS
  0
LAYER
  5
91
330
2
100
AcDbSymbolTableRecord
100
AcDbLayerTableRecord
  2
88
 70
     0
 62
    88
  6
CONTINUOUS
  0
LAYER
  5
92
330
2
100
AcDbSymbolTableRecord
100
AcDbLayerTableRecord
  2
89
 70
     0
 62
    89
  6
CONTINUOUS
  0
LAYER
  5
93
330
2
100
AcDbSymbolTableRecord
100
AcDbLayerTableRecord
  2
90
 70
     0
 62
    90
  6
CONTINUOUS
  0
LAYER
  5
94
330
2
100
AcDbSymbolTableRecord
100
AcDbLayerTableRecord
  2
91
 70
     0
 62
    91
  6
CONTINUOUS
  0
LAYER
  5
95
330
2
100
AcDbSymbolTableRecord
100
AcDbLayerTableRecord
  2
92
 70
     0
 62
    92
  6
CONTINUOUS
  0
LAYER
  5
96
330
2
100
AcDbSymbolTableRecord
100
AcDbLayerTableRecord
  2
93
 70
     0
 62
    93
  6
CONTINUOUS
  0
LAYER
  5
97
330
2
100
AcDbSymbolTableRecord
100
AcDbLayerTableRecord
  2
94
 70
     0
 62
    94
  6
CONTINUOUS
  0
LAYER
  5
98
330
2
100
AcDbSymbolTableRecord
100
AcDbLayerTableRecord
  2
95
 70
     0
 62
    95
  6
CONTINUOUS
  0
LAYER
  5
99
330
2
100
AcDbSymbolTableRecord
100
AcDbLayerTableRecord
  2
96
 70
     0
 62
    96
  6
CONTINUOUS
  0
LAYER
  5
9A
330
2
100
AcDbSymbolTableRecord
100
AcDbLayerTableRecord
  2
97
 70
     0
 62
    97
  6
CONTINUOUS
  0
LAYER
  5
9B
330
2
100
AcDbSymbolTableRecord
100
AcDbLayerTableRecord
  2
98
 70
     0
 62
    98
  6
CONTINUOUS
  0
LAYER
  5
9C
330
2
100
AcDbSymbolTableRecord
100
AcDbLayerTableRecord
  2
99
 70
     0
 62
    99
  6
CONTINUOUS
  0
LAYER
  5
9D
330
2
100
AcDbSymbolTableRecord
100
AcDbLayerTableRecord
  2
100
 70
     0
 62
   100
  6
CONTINUOUS
  0
LAYER
  5
9E
330
2
100
AcDbSymbolTableRecord
100
AcDbLayerTableRecord
  2
101
 70
     0
 62
   101
  6
CONTINUOUS
  0
LAYER
  5
9F
330
2
100
AcDbSymbolTableRecord
100
AcDbLayerTableRecord
  2
102
 70
     0
 62
   102
  6
CONTINUOUS
  0
LAYER
  5
A0
330
2
100
AcDbSymbolTableRecord
100
AcDbLayerTableRecord
  2
103
 70
     0
 62
   103
  6
CONTINUOUS
  0
LAYER
  5
A1
330
2
100
AcDbSymbolTableRecord
100
AcDbLayerTableRecord
  2
104
 70
     0
 62
   104
  6
CONTINUOUS
  0
LAYER
  5
A2
330
2
100
AcDbSymbolTableRecord
100
AcDbLayerTableRecord
  2
105
 70
     0
 62
   105
  6
CONTINUOUS
  0
LAYER
  5
A3
330
2
100
AcDbSymbolTableRecord
100
AcDbLayerTableRecord
  2
106
 70
     0
 62
   106
  6
CONTINUOUS
  0
LAYER
  5
A4
330
2
100
AcDbSymbolTableRecord
100
AcDbLayerTableRecord
  2
107
 70
     0
 62
   107
  6
CONTINUOUS
  0
LAYER
  5
A5
330
2
100
AcDbSymbolTableRecord
100
AcDbLayerTableRecord
  2
108
 70
     0
 62
   108
  6
CONTINUOUS
  0
LAYER
  5
A6
330
2
100
AcDbSymbolTableRecord
100
AcDbLayerTableRecord
  2
109
 70
     0
 62
   109
  6
CONTINUOUS
  0
LAYER
  5
A7
330
2
100
AcDbSymbolTableRecord
100
AcDbLayerTableRecord
  2
110
 70
     0
 62
   110
  6
CONTINUOUS
  0
LAYER
  5
A8
330
2
100
AcDbSymbolTableRecord
100
AcDbLayerTableRecord
  2
111
 70
     0
 62
   111
  6
CONTINUOUS
  0
LAYER
  5
A9
330
2
100
AcDbSymbolTableRecord
100
AcDbLayerTableRecord
  2
112
 70
     0
 62
   112
  6
CONTINUOUS
  0
LAYER
  5
AA
330
2
100
AcDbSymbolTableRecord
100
AcDbLayerTableRecord
  2
113
 70
     0
 62
   113
  6
CONTINUOUS
  0
LAYER
  5
AB
330
2
100
AcDbSymbolTableRecord
100
AcDbLayerTableRecord
  2
114
 70
     0
 62
   114
  6
CONTINUOUS
  0
LAYER
  5
AC
330
2
100
AcDbSymbolTableRecord
100
AcDbLayerTableRecord
  2
115
 70
     0
 62
   115
  6
CONTINUOUS
  0
LAYER
  5
AD
330
2
100
AcDbSymbolTableRecord
100
AcDbLayerTableRecord
  2
116
 70
     0
 62
   116
  6
CONTINUOUS
  0
LAYER
  5
AE
330
2
100
AcDbSymbolTableRecord
100
AcDbLayerTableRecord
  2
117
 70
     0
 62
   117
  6
CONTINUOUS
  0
LAYER
  5
AF
330
2
100
AcDbSymbolTableRecord
100
AcDbLayerTableRecord
  2
118
 70
     0
 62
   118
  6
CONTINUOUS
  0
LAYER
  5
B0
330
2
100
AcDbSymbolTableRecord
100
AcDbLayerTableRecord
  2
119
 70
     0
 62
   119
  6
CONTINUOUS
  0
LAYER
  5
B1
330
2
100
AcDbSymbolTableRecord
100
AcDbLayerTableRecord
  2
120
 70
     0
 62
   120
  6
CONTINUOUS
  0
LAYER
  5
B2
330
2
100
AcDbSymbolTableRecord
100
AcDbLayerTableRecord
  2
121
 70
     0
 62
   121
  6
CONTINUOUS
  0
LAYER
  5
B3
330
2
100
AcDbSymbolTableRecord
100
AcDbLayerTableRecord
  2
122
 70
     0
 62
   122
  6
CONTINUOUS
  0
LAYER
  5
B4
330
2
100
AcDbSymbolTableRecord
100
AcDbLayerTableRecord
  2
123
 70
     0
 62
   123
  6
CONTINUOUS
  0
LAYER
  5
B5
330
2
100
AcDbSymbolTableRecord
100
AcDbLayerTableRecord
  2
124
 70
     0
 62
   124
  6
CONTINUOUS
  0
LAYER
  5
B6
330
2
100
AcDbSymbolTableRecord
100
AcDbLayerTableRecord
  2
125
 70
     0
 62
   125
  6
CONTINUOUS
  0
LAYER
  5
B7
330
2
100
AcDbSymbolTableRecord
100
AcDbLayerTableRecord
  2
126
 70
     0
 62
   126
  6
CONTINUOUS
  0
LAYER
  5
B8
330
2
100
AcDbSymbolTableRecord
100
AcDbLayerTableRecord
  2
127
 70
     0
 62
   127
  6
CONTINUOUS
  0
LAYER
  5
B9
330
2
100
AcDbSymbolTableRecord
100
AcDbLayerTableRecord
  2
128
 70
     0
 62
   128
  6
CONTINUOUS
  0
LAYER
  5
BA
330
2
100
AcDbSymbolTableRecord
100
AcDbLayerTableRecord
  2
129
 70
     0
 62
   129
  6
CONTINUOUS
  0
LAYER
  5
BB
330
2
100
AcDbSymbolTableRecord
100
AcDbLayerTableRecord
  2
130
 70
     0
 62
   130
  6
CONTINUOUS
  0
LAYER
  5
BC
330
2
100
AcDbSymbolTableRecord
100
AcDbLayerTableRecord
  2
131
 70
     0
 62
   131
  6
CONTINUOUS
  0
LAYER
  5
BD
330
2
100
AcDbSymbolTableRecord
100
AcDbLayerTableRecord
  2
132
 70
     0
 62
   132
  6
CONTINUOUS
  0
LAYER
  5
BE
330
2
100
AcDbSymbolTableRecord
100
AcDbLayerTableRecord
  2
133
 70
     0
 62
   133
  6
CONTINUOUS
  0
LAYER
  5
BF
330
2
100
AcDbSymbolTableRecord
100
AcDbLayerTableRecord
  2
134
 70
     0
 62
   134
  6
CONTINUOUS
  0
LAYER
  5
C0
330
2
100
AcDbSymbolTableRecord
100
AcDbLayerTableRecord
  2
135
 70
     0
 62
   135
  6
CONTINUOUS
  0
LAYER
  5
C1
330
2
100
AcDbSymbolTableRecord
100
AcDbLayerTableRecord
  2
136
 70
     0
 62
   136
  6
CONTINUOUS
  0
LAYER
  5
C2
330
2
100
AcDbSymbolTableRecord
100
AcDbLayerTableRecord
  2
137
 70
     0
 62
   137
  6
CONTINUOUS
  0
LAYER
  5
C3
330
2
100
AcDbSymbolTableRecord
100
AcDbLayerTableRecord
  2
138
 70
     0
 62
   138
  6
CONTINUOUS
  0
LAYER
  5
C4
330
2
100
AcDbSymbolTableRecord
100
AcDbLayerTableRecord
  2
139
 70
     0
 62
   139
  6
CONTINUOUS
  0
LAYER
  5
C5
330
2
100
AcDbSymbolTableRecord
100
AcDbLayerTableRecord
  2
140
 70
     0
 62
   140
  6
CONTINUOUS
  0
LAYER
  5
C6
330
2
100
AcDbSymbolTableRecord
100
AcDbLayerTableRecord
  2
141
 70
     0
 62
   141
  6
CONTINUOUS
  0
LAYER
  5
C7
330
2
100
AcDbSymbolTableRecord
100
AcDbLayerTableRecord
  2
142
 70
     0
 62
   142
  6
CONTINUOUS
  0
LAYER
  5
C8
330
2
100
AcDbSymbolTableRecord
100
AcDbLayerTableRecord
  2
143
 70
     0
 62
   143
  6
CONTINUOUS
  0
LAYER
  5
C9
330
2
100
AcDbSymbolTableRecord
100
AcDbLayerTableRecord
  2
144
 70
     0
 62
   144
  6
CONTINUOUS
  0
LAYER
  5
CA
330
2
100
AcDbSymbolTableRecord
100
AcDbLayerTableRecord
  2
145
 70
     0
 62
   145
  6
CONTINUOUS
  0
LAYER
  5
CB
330
2
100
AcDbSymbolTableRecord
100
AcDbLayerTableRecord
  2
146
 70
     0
 62
   146
  6
CONTINUOUS
  0
LAYER
  5
CC
330
2
100
AcDbSymbolTableRecord
100
AcDbLayerTableRecord
  2
147
 70
     0
 62
   147
  6
CONTINUOUS
  0
LAYER
  5
CD
330
2
100
AcDbSymbolTableRecord
100
AcDbLayerTableRecord
  2
148
 70
     0
 62
   148
  6
CONTINUOUS
  0
LAYER
  5
CE
330
2
100
AcDbSymbolTableRecord
100
AcDbLayerTableRecord
  2
149
 70
     0
 62
   149
  6
CONTINUOUS
  0
LAYER
  5
CF
330
2
100
AcDbSymbolTableRecord
100
AcDbLayerTableRecord
  2
150
 70
     0
 62
   150
  6
CONTINUOUS
  0
LAYER
  5
D0
330
2
100
AcDbSymbolTableRecord
100
AcDbLayerTableRecord
  2
151
 70
     0
 62
   151
  6
CONTINUOUS
  0
LAYER
  5
D1
330
2
100
AcDbSymbolTableRecord
100
AcDbLayerTableRecord
  2
152
 70
     0
 62
   152
  6
CONTINUOUS
  0
LAYER
  5
D2
330
2
100
AcDbSymbolTableRecord
100
AcDbLayerTableRecord
  2
153
 70
     0
 62
   153
  6
CONTINUOUS
  0
LAYER
  5
D3
330
2
100
AcDbSymbolTableRecord
100
AcDbLayerTableRecord
  2
154
 70
     0
 62
   154
  6
CONTINUOUS
  0
LAYER
  5
D4
330
2
100
AcDbSymbolTableRecord
100
AcDbLayerTableRecord
  2
155
 70
     0
 62
   155
  6
CONTINUOUS
  0
LAYER
  5
D5
330
2
100
AcDbSymbolTableRecord
100
AcDbLayerTableRecord
  2
156
 70
     0
 62
   156
  6
CONTINUOUS
  0
LAYER
  5
D6
330
2
100
AcDbSymbolTableRecord
100
AcDbLayerTableRecord
  2
157
 70
     0
 62
   157
  6
CONTINUOUS
  0
LAYER
  5
D7
330
2
100
AcDbSymbolTableRecord
100
AcDbLayerTableRecord
  2
158
 70
     0
 62
   158
  6
CONTINUOUS
  0
LAYER
  5
D8
330
2
100
AcDbSymbolTableRecord
100
AcDbLayerTableRecord
  2
159
 70
     0
 62
   159
  6
CONTINUOUS
  0
LAYER
  5
D9
330
2
100
AcDbSymbolTableRecord
100
AcDbLayerTableRecord
  2
160
 70
     0
 62
   160
  6
CONTINUOUS
  0
LAYER
  5
DA
330
2
100
AcDbSymbolTableRecord
100
AcDbLayerTableRecord
  2
161
 70
     0
 62
   161
  6
CONTINUOUS
  0
LAYER
  5
DB
330
2
100
AcDbSymbolTableRecord
100
AcDbLayerTableRecord
  2
162
 70
     0
 62
   162
  6
CONTINUOUS
  0
LAYER
  5
DC
330
2
100
AcDbSymbolTableRecord
100
AcDbLayerTableRecord
  2
163
 70
     0
 62
   163
  6
CONTINUOUS
  0
LAYER
  5
DD
330
2
100
AcDbSymbolTableRecord
100
AcDbLayerTableRecord
  2
164
 70
     0
 62
   164
  6
CONTINUOUS
  0
LAYER
  5
DE
330
2
100
AcDbSymbolTableRecord
100
AcDbLayerTableRecord
  2
165
 70
     0
 62
   165
  6
CONTINUOUS
  0
LAYER
  5
DF
330
2
100
AcDbSymbolTableRecord
100
AcDbLayerTableRecord
  2
166
 70
     0
 62
   166
  6
CONTINUOUS
  0
LAYER
  5
E0
330
2
100
AcDbSymbolTableRecord
100
AcDbLayerTableRecord
  2
167
 70
     0
 62
   167
  6
CONTINUOUS
  0
LAYER
  5
E1
330
2
100
AcDbSymbolTableRecord
100
AcDbLayerTableRecord
  2
168
 70
     0
 62
   168
  6
CONTINUOUS
  0
LAYER
  5
E2
330
2
100
AcDbSymbolTableRecord
100
AcDbLayerTableRecord
  2
169
 70
     0
 62
   169
  6
CONTINUOUS
  0
LAYER
  5
E3
330
2
100
AcDbSymbolTableRecord
100
AcDbLayerTableRecord
  2
170
 70
     0
 62
   170
  6
CONTINUOUS
  0
LAYER
  5
E4
330
2
100
AcDbSymbolTableRecord
100
AcDbLayerTableRecord
  2
171
 70
     0
 62
   171
  6
CONTINUOUS
  0
LAYER
  5
E5
330
2
100
AcDbSymbolTableRecord
100
AcDbLayerTableRecord
  2
172
 70
     0
 62
   172
  6
CONTINUOUS
  0
LAYER
  5
E6
330
2
100
AcDbSymbolTableRecord
100
AcDbLayerTableRecord
  2
173
 70
     0
 62
   173
  6
CONTINUOUS
  0
LAYER
  5
E7
330
2
100
AcDbSymbolTableRecord
100
AcDbLayerTableRecord
  2
174
 70
     0
 62
   174
  6
CONTINUOUS
  0
LAYER
  5
E8
330
2
100
AcDbSymbolTableRecord
100
AcDbLayerTableRecord
  2
175
 70
     0
 62
   175
  6
CONTINUOUS
  0
LAYER
  5
E9
330
2
100
AcDbSymbolTableRecord
100
AcDbLayerTableRecord
  2
176
 70
     0
 62
   176
  6
CONTINUOUS
  0
LAYER
  5
EA
330
2
100
AcDbSymbolTableRecord
100
AcDbLayerTableRecord
  2
177
 70
     0
 62
   177
  6
CONTINUOUS
  0
LAYER
  5
EB
330
2
100
AcDbSymbolTableRecord
100
AcDbLayerTableRecord
  2
178
 70
     0
 62
   178
  6
CONTINUOUS
  0
LAYER
  5
EC
330
2
100
AcDbSymbolTableRecord
100
AcDbLayerTableRecord
  2
179
 70
     0
 62
   179
  6
CONTINUOUS
  0
LAYER
  5
ED
330
2
100
AcDbSymbolTableRecord
100
AcDbLayerTableRecord
  2
180
 70
     0
 62
   180
  6
CONTINUOUS
  0
LAYER
  5
EE
330
2
100
AcDbSymbolTableRecord
100
AcDbLayerTableRecord
  2
181
 70
     0
 62
   181
  6
CONTINUOUS
  0
LAYER
  5
EF
330
2
100
AcDbSymbolTableRecord
100
AcDbLayerTableRecord
  2
182
 70
     0
 62
   182
  6
CONTINUOUS
  0
LAYER
  5
F0
330
2
100
AcDbSymbolTableRecord
100
AcDbLayerTableRecord
  2
183
 70
     0
 62
   183
  6
CONTINUOUS
  0
LAYER
  5
F1
330
2
100
AcDbSymbolTableRecord
100
AcDbLayerTableRecord
  2
184
 70
     0
 62
   184
  6
CONTINUOUS
  0
LAYER
  5
F2
330
2
100
AcDbSymbolTableRecord
100
AcDbLayerTableRecord
  2
185
 70
     0
 62
   185
  6
CONTINUOUS
  0
LAYER
  5
F3
330
2
100
AcDbSymbolTableRecord
100
AcDbLayerTableRecord
  2
186
 70
     0
 62
   186
  6
CONTINUOUS
  0
LAYER
  5
F4
330
2
100
AcDbSymbolTableRecord
100
AcDbLayerTableRecord
  2
187
 70
     0
 62
   187
  6
CONTINUOUS
  0
LAYER
  5
F5
330
2
100
AcDbSymbolTableRecord
100
AcDbLayerTableRecord
  2
188
 70
     0
 62
   188
  6
CONTINUOUS
  0
LAYER
  5
F6
330
2
100
AcDbSymbolTableRecord
100
AcDbLayerTableRecord
  2
189
 70
     0
 62
   189
  6
CONTINUOUS
  0
LAYER
  5
F7
330
2
100
AcDbSymbolTableRecord
100
AcDbLayerTableRecord
  2
190
 70
     0
 62
   190
  6
CONTINUOUS
  0
LAYER
  5
F8
330
2
100
AcDbSymbolTableRecord
100
AcDbLayerTableRecord
  2
191
 70
     0
 62
   191
  6
CONTINUOUS
  0
LAYER
  5
F9
330
2
100
AcDbSymbolTableRecord
100
AcDbLayerTableRecord
  2
192
 70
     0
 62
   192
  6
CONTINUOUS
  0
LAYER
  5
FA
330
2
100
AcDbSymbolTableRecord
100
AcDbLayerTableRecord
  2
193
 70
     0
 62
   193
  6
CONTINUOUS
  0
LAYER
  5
FB
330
2
100
AcDbSymbolTableRecord
100
AcDbLayerTableRecord
  2
194
 70
     0
 62
   194
  6
CONTINUOUS
  0
LAYER
  5
FC
330
2
100
AcDbSymbolTableRecord
100
AcDbLayerTableRecord
  2
195
 70
     0
 62
   195
  6
CONTINUOUS
  0
LAYER
  5
FD
330
2
100
AcDbSymbolTableRecord
100
AcDbLayerTableRecord
  2
196
 70
     0
 62
   196
  6
CONTINUOUS
  0
LAYER
  5
FE
330
2
100
AcDbSymbolTableRecord
100
AcDbLayerTableRecord
  2
197
 70
     0
 62
   197
  6
CONTINUOUS
  0
LAYER
  5
FF
330
2
100
AcDbSymbolTableRecord
100
AcDbLayerTableRecord
  2
198
 70
     0
 62
   198
  6
CONTINUOUS
  0
LAYER
  5
100
330
2
100
AcDbSymbolTableRecord
100
AcDbLayerTableRecord
  2
199
 70
     0
 62
   199
  6
CONTINUOUS
  0
LAYER
  5
101
330
2
100
AcDbSymbolTableRecord
100
AcDbLayerTableRecord
  2
200
 70
     0
 62
   200
  6
CONTINUOUS
  0
LAYER
  5
102
330
2
100
AcDbSymbolTableRecord
100
AcDbLayerTableRecord
  2
201
 70
     0
 62
   201
  6
CONTINUOUS
  0
LAYER
  5
103
330
2
100
AcDbSymbolTableRecord
100
AcDbLayerTableRecord
  2
202
 70
     0
 62
   202
  6
CONTINUOUS
  0
LAYER
  5
104
330
2
100
AcDbSymbolTableRecord
100
AcDbLayerTableRecord
  2
203
 70
     0
 62
   203
  6
CONTINUOUS
  0
LAYER
  5
105
330
2
100
AcDbSymbolTableRecord
100
AcDbLayerTableRecord
  2
204
 70
     0
 62
   204
  6
CONTINUOUS
  0
LAYER
  5
106
330
2
100
AcDbSymbolTableRecord
100
AcDbLayerTableRecord
  2
205
 70
     0
 62
   205
  6
CONTINUOUS
  0
LAYER
  5
107
330
2
100
AcDbSymbolTableRecord
100
AcDbLayerTableRecord
  2
206
 70
     0
 62
   206
  6
CONTINUOUS
  0
LAYER
  5
108
330
2
100
AcDbSymbolTableRecord
100
AcDbLayerTableRecord
  2
207
 70
     0
 62
   207
  6
CONTINUOUS
  0
LAYER
  5
109
330
2
100
AcDbSymbolTableRecord
100
AcDbLayerTableRecord
  2
208
 70
     0
 62
   208
  6
CONTINUOUS
  0
LAYER
  5
10A
330
2
100
AcDbSymbolTableRecord
100
AcDbLayerTableRecord
  2
209
 70
     0
 62
   209
  6
CONTINUOUS
  0
LAYER
  5
10B
330
2
100
AcDbSymbolTableRecord
100
AcDbLayerTableRecord
  2
210
 70
     0
 62
   210
  6
CONTINUOUS
  0
LAYER
  5
10C
330
2
100
AcDbSymbolTableRecord
100
AcDbLayerTableRecord
  2
211
 70
     0
 62
   211
  6
CONTINUOUS
  0
LAYER
  5
10D
330
2
100
AcDbSymbolTableRecord
100
AcDbLayerTableRecord
  2
212
 70
     0
 62
   212
  6
CONTINUOUS
  0
LAYER
  5
10E
330
2
100
AcDbSymbolTableRecord
100
AcDbLayerTableRecord
  2
213
 70
     0
 62
   213
  6
CONTINUOUS
  0
LAYER
  5
10F
330
2
100
AcDbSymbolTableRecord
100
AcDbLayerTableRecord
  2
214
 70
     0
 62
   214
  6
CONTINUOUS
  0
LAYER
  5
110
330
2
100
AcDbSymbolTableRecord
100
AcDbLayerTableRecord
  2
215
 70
     0
 62
   215
  6
CONTINUOUS
  0
LAYER
  5
111
330
2
100
AcDbSymbolTableRecord
100
AcDbLayerTableRecord
  2
216
 70
     0
 62
   216
  6
CONTINUOUS
  0
LAYER
  5
112
330
2
100
AcDbSymbolTableRecord
100
AcDbLayerTableRecord
  2
217
 70
     0
 62
   217
  6
CONTINUOUS
  0
LAYER
  5
113
330
2
100
AcDbSymbolTableRecord
100
AcDbLayerTableRecord
  2
218
 70
     0
 62
   218
  6
CONTINUOUS
  0
LAYER
  5
114
330
2
100
AcDbSymbolTableRecord
100
AcDbLayerTableRecord
  2
219
 70
     0
 62
   219
  6
CONTINUOUS
  0
LAYER
  5
115
330
2
100
AcDbSymbolTableRecord
100
AcDbLayerTableRecord
  2
220
 70
     0
 62
   220
  6
CONTINUOUS
  0
LAYER
  5
116
330
2
100
AcDbSymbolTableRecord
100
AcDbLayerTableRecord
  2
221
 70
     0
 62
   221
  6
CONTINUOUS
  0
LAYER
  5
117
330
2
100
AcDbSymbolTableRecord
100
AcDbLayerTableRecord
  2
222
 70
     0
 62
   222
  6
CONTINUOUS
  0
LAYER
  5
118
330
2
100
AcDbSymbolTableRecord
100
AcDbLayerTableRecord
  2
223
 70
     0
 62
   223
  6
CONTINUOUS
  0
LAYER
  5
119
330
2
100
AcDbSymbolTableRecord
100
AcDbLayerTableRecord
  2
224
 70
     0
 62
   224
  6
CONTINUOUS
  0
LAYER
  5
11A
330
2
100
AcDbSymbolTableRecord
100
AcDbLayerTableRecord
  2
225
 70
     0
 62
   225
  6
CONTINUOUS
  0
LAYER
  5
11B
330
2
100
AcDbSymbolTableRecord
100
AcDbLayerTableRecord
  2
226
 70
     0
 62
   226
  6
CONTINUOUS
  0
LAYER
  5
11C
330
2
100
AcDbSymbolTableRecord
100
AcDbLayerTableRecord
  2
227
 70
     0
 62
   227
  6
CONTINUOUS
  0
LAYER
  5
11D
330
2
100
AcDbSymbolTableRecord
100
AcDbLayerTableRecord
  2
228
 70
     0
 62
   228
  6
CONTINUOUS
  0
LAYER
  5
11E
330
2
100
AcDbSymbolTableRecord
100
AcDbLayerTableRecord
  2
229
 70
     0
 62
   229
  6
CONTINUOUS
  0
LAYER
  5
11F
330
2
100
AcDbSymbolTableRecord
100
AcDbLayerTableRecord
  2
230
 70
     0
 62
   230
  6
CONTINUOUS
  0
LAYER
  5
120
330
2
100
AcDbSymbolTableRecord
100
AcDbLayerTableRecord
  2
231
 70
     0
 62
   231
  6
CONTINUOUS
  0
LAYER
  5
121
330
2
100
AcDbSymbolTableRecord
100
AcDbLayerTableRecord
  2
232
 70
     0
 62
   232
  6
CONTINUOUS
  0
LAYER
  5
122
330
2
100
AcDbSymbolTableRecord
100
AcDbLayerTableRecord
  2
233
 70
     0
 62
   233
  6
CONTINUOUS
  0
LAYER
  5
123
330
2
100
AcDbSymbolTableRecord
100
AcDbLayerTableRecord
  2
234
 70
     0
 62
   234
  6
CONTINUOUS
  0
LAYER
  5
124
330
2
100
AcDbSymbolTableRecord
100
AcDbLayerTableRecord
  2
235
 70
     0
 62
   235
  6
CONTINUOUS
  0
LAYER
  5
125
330
2
100
AcDbSymbolTableRecord
100
AcDbLayerTableRecord
  2
236
 70
     0
 62
   236
  6
CONTINUOUS
  0
LAYER
  5
126
330
2
100
AcDbSymbolTableRecord
100
AcDbLayerTableRecord
  2
237
 70
     0
 62
   237
  6
CONTINUOUS
  0
LAYER
  5
127
330
2
100
AcDbSymbolTableRecord
100
AcDbLayerTableRecord
  2
238
 70
     0
 62
   238
  6
CONTINUOUS
  0
LAYER
  5
128
330
2
100
AcDbSymbolTableRecord
100
AcDbLayerTableRecord
  2
239
 70
     0
 62
   239
  6
CONTINUOUS
  0
LAYER
  5
129
330
2
100
AcDbSymbolTableRecord
100
AcDbLayerTableRecord
  2
240
 70
     0
 62
   240
  6
CONTINUOUS
  0
LAYER
  5
12A
330
2
100
AcDbSymbolTableRecord
100
AcDbLayerTableRecord
  2
241
 70
     0
 62
   241
  6
CONTINUOUS
  0
LAYER
  5
12B
330
2
100
AcDbSymbolTableRecord
100
AcDbLayerTableRecord
  2
242
 70
     0
 62
   242
  6
CONTINUOUS
  0
LAYER
  5
12C
330
2
100
AcDbSymbolTableRecord
100
AcDbLayerTableRecord
  2
243
 70
     0
 62
   243
  6
CONTINUOUS
  0
LAYER
  5
12D
330
2
100
AcDbSymbolTableRecord
100
AcDbLayerTableRecord
  2
244
 70
     0
 62
   244
  6
CONTINUOUS
  0
LAYER
  5
12E
330
2
100
AcDbSymbolTableRecord
100
AcDbLayerTableRecord
  2
245
 70
     0
 62
   245
  6
CONTINUOUS
  0
LAYER
  5
12F
330
2
100
AcDbSymbolTableRecord
100
AcDbLayerTableRecord
  2
246
 70
     0
 62
   246
  6
CONTINUOUS
  0
LAYER
  5
130
330
2
100
AcDbSymbolTableRecord
100
AcDbLayerTableRecord
  2
247
 70
     0
 62
   247
  6
CONTINUOUS
  0
LAYER
  5
131
330
2
100
AcDbSymbolTableRecord
100
AcDbLayerTableRecord
  2
248
 70
     0
 62
   248
  6
CONTINUOUS
  0
LAYER
  5
132
330
2
100
AcDbSymbolTableRecord
100
AcDbLayerTableRecord
  2
249
 70
     0
 62
   249
  6
CONTINUOUS
  0
LAYER
  5
133
330
2
100
AcDbSymbolTableRecord
100
AcDbLayerTableRecord
  2
250
 70
     0
 62
   250
  6
CONTINUOUS
  0
LAYER
  5
134
330
2
100
AcDbSymbolTableRecord
100
AcDbLayerTableRecord
  2
251
 70
     0
 62
   251
  6
CONTINUOUS
  0
LAYER
  5
135
330
2
100
AcDbSymbolTableRecord
100
AcDbLayerTableRecord
  2
252
 70
     0
 62
   252
  6
CONTINUOUS
  0
LAYER
  5
136
330
2
100
AcDbSymbolTableRecord
100
AcDbLayerTableRecord
  2
253
 70
     0
 62
   253
  6
CONTINUOUS
  0
LAYER
  5
137
330
2
100
AcDbSymbolTableRecord
100
AcDbLayerTableRecord
  2
254
 70
     0
 62
   254
  6
CONTINUOUS
  0
LAYER
  5
138
330
2
100
AcDbSymbolTableRecord
100
AcDbLayerTableRecord
  2
255
 70
     0
 62
   255
  6
CONTINUOUS
  0
LAYER
  5
4682
330
2
100
AcDbSymbolTableRecord
100
AcDbLayerTableRecord
  2
DEFPOINTS
 70
     0
 62
     7
  6
CONTINUOUS
  0
ENDTAB
  0
TABLE
  2
STYLE
  5
3
330
0
100
AcDbSymbolTable
 70
     1
  0
STYLE
  5
11
330
3
100
AcDbSymbolTableRecord
100
AcDbTextStyleTableRecord
  2
STANDARD
 70
     0
 40
0.0
 41
1.0
 50
0.0
 71
     0
 42
0.2
  3
monotxt
  4

  0
ENDTAB
  0
TABLE
  2
VIEW
  5
6
330
0
100
AcDbSymbolTable
 70
     0
  0
ENDTAB
  0
TABLE
  2
UCS
  5
7
330
0
100
AcDbSymbolTable
 70
     0
  0
ENDTAB
  0
TABLE
  2
APPID
  5
9
330
0
100
AcDbSymbolTable
 70
     1
  0
APPID
  5
12
330
9
100
AcDbSymbolTableRecord
100
AcDbRegAppTableRecord
  2
ACAD
 70
     0
  0
ENDTAB
  0
TABLE
  2
DIMSTYLE
  5
A
330
0
100
AcDbSymbolTable
 70
     1
  0
DIMSTYLE
105
30E1
330
A
100
AcDbSymbolTableRecord
100
AcDbDimStyleTableRecord
  2
STANDARD
 70
     0
  3

  4

  5

  6

  7

 40
1.0
 41
0.18
 42
0.0625
 43
0.38
 44
0.18
 45
0.0
 46
0.0
 47
0.0
 48
0.0
140
0.18
141
0.09
142
0.0
143
25.4
144
1.0
145
0.0
146
1.0
147
0.09
 71
     0
 72
     0
 73
     1
 74
     1
 75
     0
 76
     0
 77
     0
 78
     0
170
     0
171
     2
172
     0
173
     0
174
     0
175
     0
176
     0
177
     0
178
     0
270
     2
271
     4
272
     4
273
     2
274
     2
340
11
275
     0
280
     0
281
     0
282
     0
283
     1
284
     0
285
     0
286
     0
287
     3
288
     0
  0
ENDTAB
  0
TABLE
  2
BLOCK_RECORD
  5
1
330
0
100
AcDbSymbolTable
 70
     1
  0
BLOCK_RECORD
  5
1E
102
{ACAD_XDICTIONARY
360
46AB
102
}
330
1
100
AcDbSymbolTableRecord
100
AcDbBlockTableRecord
  2
*MODEL_SPACE
  0
BLOCK_RECORD
  5
1A
102
{ACAD_XDICTIONARY
360
46AD
102
}
330
1
100
AcDbSymbolTableRecord
100
AcDbBlockTableRecord
  2
*PAPER_SPACE
  0
ENDTAB
  0
ENDSEC
  0
SECTION
  2
BLOCKS
  0
BLOCK
  5
13B
330
1E
100
AcDbEntity
  8
0
100
AcDbBlockBegin
  2
*MODEL_SPACE
 70
     0
 10
0.0
 20
0.0
 30
0.0
  3
*MODEL_SPACE
  1

  0
ENDBLK
  5
13C
330
1E
100
AcDbEntity
  8
0
100
AcDbBlockEnd
  0
BLOCK
  5
139
330
1A
100
AcDbEntity
 67
     1
  8
0
100
AcDbBlockBegin
  2
*PAPER_SPACE
 70
     0
 10
0.0
 20
0.0
 30
0.0
  3
*PAPER_SPACE
  1

  0
ENDBLK
  5
13A
330
1A
100
AcDbEntity
 67
     1
  8
0
100
AcDbBlockEnd
  0
ENDSEC
  0
SECTION
  2
ENTITIES
  0
LINE
  5
25A6
330
1E
100
AcDbEntity
  8
7
100
AcDbLine
 10
0.6754848375873693
 20
-1.995004643291446
 30
0.0
 11
1.293595073807839
 21
-1.995004643291446
 31
0.0
  0
LINE
  5
27C5
330
1E
100
AcDbEntity
  8
7
100
AcDbLine
 10
16.77784704231177
 20
-2.479256611795385
 30
0.0
 11
16.8605242076661
 21
-2.479256611795385
 31
0.0
  0
LINE
  5
27C6
330
1E
100
AcDbEntity
  8
7
100
AcDbLine
 10
16.48257145176059
 20
-2.479256611795385
 30
0.0
 11
16.43139034939839
 21
-2.479256611795385
 31
0.0
  0
LINE
  5
27C7
330
1E
100
AcDbEntity
  8
7
100
AcDbLine
 10
16.48257145176059
 20
-2.479256611795385
 30
0.0
 11
16.50225649113067
 21
-2.479256611795385
 31
0.0
  0
LINE
  5
27C8
330
1E
100
AcDbEntity
  8
7
100
AcDbLine
 10
-1.407192327766967
 20
-2.479256611795381
 30
0.0
 11
-1.407192327766967
 21
-2.479256611795381
 31
0.0
  0
LINE
  5
27C9
330
1E
100
AcDbEntity
  8
7
100
AcDbLine
 10
16.70304389270547
 20
-2.479256611795385
 30
0.0
 11
16.70304389270547
 21
-2.479256611795385
 31
0.0
  0
LINE
  5
27CA
330
1E
100
AcDbEntity
  8
7
100
AcDbLine
 10
16.83690216042201
 20
-2.479256611795385
 30
0.0
 11
16.83690216042201
 21
-2.479256611795385
 31
0.0
  0
LINE
  5
27CB
330
1E
100
AcDbEntity
  8
7
100
AcDbLine
 10
16.38414625491019
 20
-2.479256611795385
 30
0.0
 11
16.39989428640626
 21
-2.479256611795385
 31
0.0
  0
LINE
  5
27CC
330
1E
100
AcDbEntity
  8
7
100
AcDbLine
 10
16.83690216042201
 20
-2.479256611795385
 30
0.0
 11
16.80146908955587
 21
-2.479256611795385
 31
0.0
  0
LINE
  5
27CD
330
1E
100
AcDbEntity
  8
7
100
AcDbLine
 10
16.37233523128815
 20
-2.479256611795385
 30
0.0
 11
16.38020924703618
 21
-2.479256611795385
 31
0.0
  0
LINE
  5
27CE
330
1E
100
AcDbEntity
  8
7
100
AcDbLine
 10
-1.407192327766967
 20
-2.479256611795381
 30
0.0
 11
-2.037113587609486
 21
-2.479256611795381
 31
0.0
  0
LINE
  5
27CF
330
1E
100
AcDbEntity
  8
7
100
AcDbLine
 10
16.48257145176059
 20
-2.479256611795385
 30
0.0
 11
16.48257145176059
 21
-2.479256611795385
 31
0.0
  0
LINE
  5
27D0
330
1E
100
AcDbEntity
  8
7
100
AcDbLine
 10
16.80146908955587
 20
-2.479256611795385
 30
0.0
 11
16.80146908955587
 21
-2.479256611795385
 31
0.0
  0
LINE
  5
27D1
330
1E
100
AcDbEntity
  8
7
100
AcDbLine
 10
16.41564231790232
 20
-2.479256611795385
 30
0.0
 11
16.39989428640626
 21
-2.479256611795385
 31
0.0
  0
LINE
  5
27D2
330
1E
100
AcDbEntity
  8
7
100
AcDbLine
 10
16.61249271160311
 20
-2.479256611795385
 30
0.0
 11
16.54950058561886
 21
-2.479256611795385
 31
0.0
  0
LINE
  5
27D3
330
1E
100
AcDbEntity
  8
7
100
AcDbLine
 10
16.73847696357162
 20
-2.479256611795385
 30
0.0
 11
16.73847696357162
 21
-2.479256611795385
 31
0.0
  0
LINE
  5
27D4
330
1E
100
AcDbEntity
  8
7
100
AcDbLine
 10
16.30146908955587
 20
-2.479256611795385
 30
0.0
 11
16.33690216042201
 21
-2.479256611795385
 31
0.0
  0
LINE
  5
27D5
330
1E
100
AcDbEntity
  8
7
100
AcDbLine
 10
16.64398877459524
 20
-2.479256611795385
 30
0.0
 11
16.64398877459524
 21
-2.479256611795385
 31
0.0
  0
LINE
  5
27D6
330
1E
100
AcDbEntity
  8
7
100
AcDbLine
 10
16.68335885333539
 20
-2.479256611795385
 30
0.0
 11
16.68335885333539
 21
-2.479256611795385
 31
0.0
  0
LINE
  5
27D7
330
1E
100
AcDbEntity
  8
7
100
AcDbLine
 10
16.53768956199681
 20
-2.479256611795385
 30
0.0
 11
16.53768956199681
 21
-2.479256611795385
 31
0.0
  0
LINE
  5
27D8
330
1E
100
AcDbEntity
  8
7
100
AcDbLine
 10
16.23060294782358
 20
-2.479256611795385
 30
0.0
 11
16.23060294782358
 21
-2.479256611795385
 31
0.0
  0
LINE
  5
27D9
330
1E
100
AcDbEntity
  8
7
100
AcDbLine
 10
16.60068168798106
 20
-2.479256611795385
 30
0.0
 11
16.60068168798106
 21
-2.479256611795385
 31
0.0
  0
LINE
  5
27DA
330
1E
100
AcDbEntity
  8
7
100
AcDbLine
 10
16.38414625491019
 20
-2.479256611795385
 30
0.0
 11
16.41564231790232
 21
-2.479256611795385
 31
0.0
  0
LINE
  5
27DB
330
1E
100
AcDbEntity
  8
7
100
AcDbLine
 10
16.8605242076661
 20
-2.479256611795385
 30
0.0
 11
16.8605242076661
 21
-2.479256611795385
 31
0.0
  0
LINE
  5
27DC
330
1E
100
AcDbEntity
  8
7
100
AcDbLine
 10
16.53768956199681
 20
-2.479256611795385
 30
0.0
 11
16.50225649113067
 21
-2.479256611795385
 31
0.0
  0
LINE
  5
27DD
330
1E
100
AcDbEntity
  8
7
100
AcDbLine
 10
16.73847696357162
 20
-2.479256611795385
 30
0.0
 11
16.76603601868973
 21
-2.479256611795385
 31
0.0
  0
LINE
  5
27DE
330
1E
100
AcDbEntity
  8
7
100
AcDbLine
 10
16.58099664861099
 20
-2.479256611795385
 30
0.0
 11
16.59280767223303
 21
-2.479256611795385
 31
0.0
  0
LINE
  5
27DF
330
1E
100
AcDbEntity
  8
7
100
AcDbLine
 10
16.70304389270547
 20
-2.479256611795385
 30
0.0
 11
16.72666593994956
 21
-2.479256611795385
 31
0.0
  0
LINE
  5
27E0
330
1E
100
AcDbEntity
  8
7
100
AcDbLine
 10
16.77784704231177
 20
-2.479256611795385
 30
0.0
 11
16.80146908955587
 21
-2.479256611795385
 31
0.0
  0
LINE
  5
27E1
330
1E
100
AcDbEntity
  8
7
100
AcDbLine
 10
-2.037113587609486
 20
-2.479256611795381
 30
0.0
 11
-1.407192327766967
 21
-2.479256611795381
 31
0.0
  0
LINE
  5
27E2
330
1E
100
AcDbEntity
  8
7
100
AcDbLine
 10
16.38414625491019
 20
-2.479256611795385
 30
0.0
 11
16.41564231790232
 21
-2.479256611795385
 31
0.0
  0
LINE
  5
27E3
330
1E
100
AcDbEntity
  8
7
100
AcDbLine
 10
16.45107538876846
 20
-2.479256611795385
 30
0.0
 11
16.45107538876846
 21
-2.479256611795385
 31
0.0
  0
LINE
  5
27E4
330
1E
100
AcDbEntity
  8
7
100
AcDbLine
 10
16.42351633365036
 20
-2.479256611795385
 30
0.0
 11
16.43139034939839
 21
-2.479256611795385
 31
0.0
  0
LINE
  5
27E5
330
1E
100
AcDbEntity
  8
7
100
AcDbLine
 10
16.72666593994956
 20
-2.479256611795385
 30
0.0
 11
16.72666593994956
 21
-2.479256611795385
 31
0.0
  0
LINE
  5
27E6
330
1E
100
AcDbEntity
  8
7
100
AcDbLine
 10
16.23060294782358
 20
-2.479256611795385
 30
0.0
 11
16.33690216042201
 21
-2.479256611795385
 31
0.0
  0
LINE
  5
27E7
330
1E
100
AcDbEntity
  8
7
100
AcDbLine
 10
16.63217775097319
 20
-2.479256611795385
 30
0.0
 11
16.63217775097319
 21
-2.479256611795385
 31
0.0
  0
LINE
  5
27E8
330
1E
100
AcDbEntity
  8
7
100
AcDbLine
 10
16.50619349900468
 20
-2.479256611795385
 30
0.0
 11
16.48650845963461
 21
-2.479256611795385
 31
0.0
  0
LINE
  5
27E9
330
1E
100
AcDbEntity
  8
7
100
AcDbLine
 10
16.32115412892594
 20
-2.479256611795385
 30
0.0
 11
16.32115412892594
 21
-2.479256611795385
 31
0.0
  0
LINE
  5
27EA
330
1E
100
AcDbEntity
  8
7
100
AcDbLine
 10
16.37233523128815
 20
-2.479256611795385
 30
0.0
 11
16.33690216042201
 21
-2.479256611795385
 31
0.0
  0
LINE
  5
27EB
330
1E
100
AcDbEntity
  8
7
100
AcDbLine
 10
16.30146908955587
 20
-2.479256611795385
 30
0.0
 11
16.30146908955587
 21
-2.479256611795385
 31
0.0
  0
LINE
  5
27EC
330
1E
100
AcDbEntity
  8
7
100
AcDbLine
 10
16.50619349900468
 20
-2.479256611795385
 30
0.0
 11
16.50619349900468
 21
-2.479256611795385
 31
0.0
  0
LINE
  5
27ED
330
1E
100
AcDbEntity
  8
7
100
AcDbLine
 10
16.68729586120941
 20
-2.479256611795385
 30
0.0
 11
16.69516987695744
 21
-2.479256611795385
 31
0.0
  0
LINE
  5
27EE
330
1E
100
AcDbEntity
  8
7
100
AcDbLine
 10
16.50619349900468
 20
-2.479256611795385
 30
0.0
 11
16.53768956199681
 21
-2.479256611795385
 31
0.0
  0
LINE
  5
27EF
330
1E
100
AcDbEntity
  8
7
100
AcDbLine
 10
16.76603601868973
 20
-2.479256611795385
 30
0.0
 11
16.76603601868973
 21
-2.479256611795385
 31
0.0
  0
LINE
  5
27F0
330
1E
100
AcDbEntity
  8
7
100
AcDbLine
 10
16.76603601868973
 20
-2.479256611795385
 30
0.0
 11
16.73847696357162
 21
-2.479256611795385
 31
0.0
  0
LINE
  5
27F1
330
1E
100
AcDbEntity
  8
7
100
AcDbLine
 10
16.77784704231177
 20
-2.479256611795385
 30
0.0
 11
16.77784704231177
 21
-2.479256611795385
 31
0.0
  0
LINE
  5
27F2
330
1E
100
AcDbEntity
  8
7
100
AcDbLine
 10
16.58099664861099
 20
-2.479256611795385
 30
0.0
 11
16.58099664861099
 21
-2.479256611795385
 31
0.0
  0
LINE
  5
27F3
330
1E
100
AcDbEntity
  8
7
100
AcDbLine
 10
16.54950058561886
 20
-2.479256611795385
 30
0.0
 11
16.54950058561886
 21
-2.479256611795385
 31
0.0
  0
LINE
  5
27F4
330
1E
100
AcDbEntity
  8
7
100
AcDbLine
 10
16.30146908955587
 20
-2.479256611795385
 30
0.0
 11
16.30146908955587
 21
-2.479256611795385
 31
0.0
  0
LINE
  5
27F5
330
1E
100
AcDbEntity
  8
7
100
AcDbLine
 10
16.30146908955587
 20
-2.479256611795385
 30
0.0
 11
16.31328011317791
 21
-2.479256611795385
 31
0.0
  0
LINE
  5
27F6
330
1E
100
AcDbEntity
  8
7
100
AcDbLine
 10
16.41564231790232
 20
-2.479256611795385
 30
0.0
 11
16.45107538876846
 21
-2.479256611795385
 31
0.0
  0
LINE
  5
27F7
330
1E
100
AcDbEntity
  8
7
100
AcDbLine
 10
16.33690216042201
 20
-2.479256611795385
 30
0.0
 11
16.36052420766611
 21
-2.479256611795385
 31
0.0
  0
LINE
  5
27F8
330
1E
100
AcDbEntity
  8
7
100
AcDbLine
 10
16.54950058561886
 20
-2.479256611795385
 30
0.0
 11
16.61249271160311
 21
-2.479256611795385
 31
0.0
  0
LINE
  5
27F9
330
1E
100
AcDbEntity
  8
7
100
AcDbLine
 10
16.8605242076661
 20
-2.479256611795385
 30
0.0
 11
16.83690216042201
 21
-2.479256611795385
 31
0.0
  0
LINE
  5
27FA
330
1E
100
AcDbEntity
  8
7
100
AcDbLine
 10
16.45107538876846
 20
-2.479256611795385
 30
0.0
 11
16.48650845963461
 21
-2.479256611795385
 31
0.0
  0
LINE
  5
27FB
330
1E
100
AcDbEntity
  8
7
100
AcDbLine
 10
16.58099664861099
 20
-2.479256611795385
 30
0.0
 11
16.59280767223303
 21
-2.479256611795385
 31
0.0
  0
LINE
  5
27FC
330
1E
100
AcDbEntity
  8
7
100
AcDbLine
 10
16.30146908955587
 20
-2.479256611795385
 30
0.0
 11
16.31328011317791
 21
-2.479256611795385
 31
0.0
  0
LINE
  5
27FD
330
1E
100
AcDbEntity
  8
7
100
AcDbLine
 10
-2.037113587609486
 20
-2.479256611795381
 30
0.0
 11
-2.037113587609486
 21
-2.479256611795381
 31
0.0
  0
LINE
  5
27FE
330
1E
100
AcDbEntity
  8
7
100
AcDbLine
 10
16.66367381396531
 20
-2.479256611795385
 30
0.0
 11
16.70698090057949
 21
-2.479256611795385
 31
0.0
  0
LINE
  5
27FF
330
1E
100
AcDbEntity
  8
7
100
AcDbLine
 10
16.38020924703618
 20
-2.479256611795385
 30
0.0
 11
16.42351633365036
 21
-2.479256611795385
 31
0.0
  0
LINE
  5
2800
330
1E
100
AcDbEntity
  8
7
100
AcDbLine
 10
16.64398877459524
 20
-2.479256611795385
 30
0.0
 11
16.68335885333539
 21
-2.479256611795385
 31
0.0
  0
LINE
  5
2801
330
1E
100
AcDbEntity
  8
7
100
AcDbLine
 10
16.30146908955587
 20
-2.479256611795385
 30
0.0
 11
16.23060294782358
 21
-2.479256611795385
 31
0.0
  0
LINE
  5
281B
330
1E
100
AcDbEntity
  8
7
100
AcDbLine
 10
16.32115412892594
 20
-2.479256611795385
 30
0.0
 11
16.31328011317791
 21
-2.479256611795385
 31
0.0
  0
LINE
  5
281C
330
1E
100
AcDbEntity
  8
7
100
AcDbLine
 10
16.68335885333539
 20
-2.479256611795385
 30
0.0
 11
16.68729586120941
 21
-2.479256611795385
 31
0.0
  0
LINE
  5
2827
330
1E
100
AcDbEntity
  8
7
100
AcDbLine
 10
16.31328011317791
 20
-2.479256611795385
 30
0.0
 11
16.32115412892594
 21
-2.479256611795385
 31
0.0
  0
LINE
  5
2832
330
1E
100
AcDbEntity
  8
7
100
AcDbLine
 10
7.549500585618861
 20
-2.762721178724516
 30
0.0
 11
10.19123286908343
 21
-2.762721178724518
 31
0.0
  0
LINE
  5
2833
330
1E
100
AcDbEntity
  8
7
100
AcDbLine
 10
10.19123286908343
 20
-2.762721178724518
 30
0.0
 11
10.19910688483146
 21
-2.479256611795385
 31
0.0
  0
LINE
  5
2834
330
1E
100
AcDbEntity
  8
7
100
AcDbLine
 10
10.19910688483146
 20
-2.479256611795385
 30
0.0
 11
7.541626569870828
 21
-2.479256611795383
 31
0.0
  0
LINE
  5
2835
330
1E
100
AcDbEntity
  8
7
100
AcDbLine
 10
7.549500585618861
 20
-2.762721178724516
 30
0.0
 11
7.541626569870828
 21
-2.479256611795383
 31
0.0
  0
LINE
  5
2836
330
1E
100
AcDbEntity
  8
7
100
AcDbLine
 10
10.19123286908343
 20
-2.876894407070976
 30
0.0
 11
7.549500585618861
 21
-2.876894407070974
 31
0.0
  0
LINE
  5
2847
330
1E
100
AcDbEntity
  8
7
100
AcDbLine
 10
7.419579325776343
 20
-2.479256611795383
 30
0.0
 11
7.431390349398387
 21
-2.762721178724516
 31
0.0
  0
LINE
  5
2859
330
1E
100
AcDbEntity
  8
7
100
AcDbLine
 10
10.32115412892594
 20
-2.479256611795385
 30
0.0
 11
10.3093431053039
 21
-2.762721178724518
 31
0.0
  0
LINE
  5
286F
330
1E
100
AcDbEntity
  8
7
100
AcDbLine
 10
9.171547829713352
 20
-1.995004643291446
 30
0.0
 11
8.569185624988941
 21
-1.995004643291446
 31
0.0
  0
LINE
  5
2870
330
1E
100
AcDbEntity
  8
7
100
AcDbLine
 10
10.46288641239051
 20
-2.762721178724518
 30
0.0
 11
13.10461869585508
 21
-2.762721178724518
 31
0.0
  0
LINE
  5
2871
330
1E
100
AcDbEntity
  8
7
100
AcDbLine
 10
13.10461869585508
 20
-2.762721178724518
 30
0.0
 11
13.11642971947713
 21
-2.479256611795385
 31
0.0
  0
LINE
  5
2872
330
1E
100
AcDbEntity
  8
7
100
AcDbLine
 10
13.11642971947713
 20
-2.479256611795385
 30
0.0
 11
10.45501239664248
 21
-2.479256611795385
 31
0.0
  0
LINE
  5
2873
330
1E
100
AcDbEntity
  8
7
100
AcDbLine
 10
10.46288641239051
 20
-2.762721178724518
 30
0.0
 11
10.45501239664248
 21
-2.479256611795385
 31
0.0
  0
LINE
  5
2874
330
1E
100
AcDbEntity
  8
7
100
AcDbLine
 10
13.10461869585508
 20
-2.876894407070976
 30
0.0
 11
10.46288641239051
 21
-2.876894407070976
 31
0.0
  0
LINE
  5
2885
330
1E
100
AcDbEntity
  8
7
100
AcDbLine
 10
10.33296515254799
 20
-2.479256611795385
 30
0.0
 11
10.34477617617004
 21
-2.762721178724518
 31
0.0
  0
LINE
  5
2897
330
1E
100
AcDbEntity
  8
7
100
AcDbLine
 10
13.2345399556976
 20
-2.479256611795385
 30
0.0
 11
13.22666593994957
 21
-2.762721178724518
 31
0.0
  0
LINE
  5
28AD
330
1E
100
AcDbEntity
  8
7
100
AcDbLine
 10
12.084933656485
 20
-1.995004643291448
 30
0.0
 11
11.48257145176059
 21
-1.995004643291448
 31
0.0
  0
LINE
  5
28AE
330
1E
100
AcDbEntity
  8
7
100
AcDbLine
 10
13.38020924703618
 20
-2.762721178724518
 30
0.0
 11
16.02194153050075
 21
-2.762721178724518
 31
0.0
  0
LINE
  5
28AF
330
1E
100
AcDbEntity
  8
7
100
AcDbLine
 10
16.02194153050075
 20
-2.762721178724518
 30
0.0
 11
16.02981554624878
 21
-2.479256611795385
 31
0.0
  0
LINE
  5
28B0
330
1E
100
AcDbEntity
  8
7
100
AcDbLine
 10
16.02981554624878
 20
-2.479256611795385
 30
0.0
 11
13.36839822341413
 21
-2.479256611795385
 31
0.0
  0
LINE
  5
28B1
330
1E
100
AcDbEntity
  8
7
100
AcDbLine
 10
13.38020924703618
 20
-2.762721178724518
 30
0.0
 11
13.36839822341413
 21
-2.479256611795385
 31
0.0
  0
LINE
  5
28B2
330
1E
100
AcDbEntity
  8
7
100
AcDbLine
 10
16.02194153050075
 20
-2.876894407070976
 30
0.0
 11
13.38020924703618
 21
-2.876894407070976
 31
0.0
  0
LINE
  5
28C3
330
1E
100
AcDbEntity
  8
7
100
AcDbLine
 10
13.25028798719366
 20
-2.479256611795385
 30
0.0
 11
13.25816200294169
 21
-2.762721178724518
 31
0.0
  0
LINE
  5
28D5
330
1E
100
AcDbEntity
  8
7
100
AcDbLine
 10
16.14792578246925
 20
-2.479256611795385
 30
0.0
 11
16.14005176672122
 21
-2.762721178724518
 31
0.0
  0
LINE
  5
28EB
330
1E
100
AcDbEntity
  8
7
100
AcDbLine
 10
15.00225649113067
 20
-1.995004643291448
 30
0.0
 11
14.39989428640626
 21
-1.995004643291448
 31
0.0
  0
LINE
  5
28EC
330
1E
100
AcDbEntity
  8
7
100
AcDbLine
 10
-1.194593902570115
 20
-2.762721178724515
 30
0.0
 11
1.443201373020436
 21
-2.762721178724516
 31
0.0
  0
LINE
  5
28ED
330
1E
100
AcDbEntity
  8
7
100
AcDbLine
 10
1.443201373020436
 20
-2.762721178724516
 30
0.0
 11
1.455012396642484
 21
-2.479256611795383
 31
0.0
  0
LINE
  5
28EE
330
1E
100
AcDbEntity
  8
7
100
AcDbLine
 10
1.455012396642484
 20
-2.479256611795383
 30
0.0
 11
-1.206404926192163
 21
-2.479256611795381
 31
0.0
  0
LINE
  5
28EF
330
1E
100
AcDbEntity
  8
7
100
AcDbLine
 10
-1.194593902570115
 20
-2.762721178724515
 30
0.0
 11
-1.206404926192163
 21
-2.479256611795381
 31
0.0
  0
LINE
  5
28F0
330
1E
100
AcDbEntity
  8
7
100
AcDbLine
 10
1.443201373020436
 20
-2.876894407070974
 30
0.0
 11
-1.194593902570115
 21
-2.876894407070972
 31
0.0
  0
LINE
  5
2901
330
1E
100
AcDbEntity
  8
7
100
AcDbLine
 10
-1.324515162412634
 20
-2.479256611795381
 30
0.0
 11
-1.316641146664604
 21
-2.762721178724515
 31
0.0
  0
LINE
  5
2913
330
1E
100
AcDbEntity
  8
7
100
AcDbLine
 10
1.573122632862954
 20
-2.479256611795383
 30
0.0
 11
1.565248617114921
 21
-2.762721178724516
 31
0.0
  0
LINE
  5
2929
330
1E
100
AcDbEntity
  8
7
100
AcDbLine
 10
0.4274533415243767
 20
-1.995004643291446
 30
0.0
 11
-0.1749088632000344
 21
-1.995004643291446
 31
0.0
  0
LINE
  5
292A
330
1E
100
AcDbEntity
  8
7
100
AcDbLine
 10
1.718791924201536
 20
-2.762721178724516
 30
0.0
 11
4.360524207666106
 21
-2.762721178724516
 31
0.0
  0
LINE
  5
292B
330
1E
100
AcDbEntity
  8
7
100
AcDbLine
 10
4.360524207666106
 20
-2.762721178724516
 30
0.0
 11
4.368398223414136
 21
-2.479256611795383
 31
0.0
  0
LINE
  5
292C
330
1E
100
AcDbEntity
  8
7
100
AcDbLine
 10
4.368398223414136
 20
-2.479256611795383
 30
0.0
 11
1.710917908453506
 21
-2.479256611795383
 31
0.0
  0
LINE
  5
292D
330
1E
100
AcDbEntity
  8
7
100
AcDbLine
 10
1.718791924201536
 20
-2.762721178724516
 30
0.0
 11
1.710917908453506
 21
-2.479256611795383
 31
0.0
  0
LINE
  5
292E
330
1E
100
AcDbEntity
  8
7
100
AcDbLine
 10
4.360524207666106
 20
-2.876894407070974
 30
0.0
 11
1.718791924201536
 21
-2.876894407070974
 31
0.0
  0
LINE
  5
293F
330
1E
100
AcDbEntity
  8
7
100
AcDbLine
 10
1.588870664359017
 20
-2.479256611795383
 30
0.0
 11
1.600681687981065
 21
-2.762721178724516
 31
0.0
  0
LINE
  5
2951
330
1E
100
AcDbEntity
  8
7
100
AcDbLine
 10
4.490445467508624
 20
-2.479256611795383
 30
0.0
 11
4.478634443886576
 21
-2.762721178724516
 31
0.0
  0
LINE
  5
2967
330
1E
100
AcDbEntity
  8
7
100
AcDbLine
 10
3.340839168296028
 20
-1.995004643291446
 30
0.0
 11
2.738476963571621
 21
-1.995004643291446
 31
0.0
  0
LINE
  5
2968
330
1E
100
AcDbEntity
  8
7
100
AcDbLine
 10
4.63611475884721
 20
-2.762721178724516
 30
0.0
 11
7.273910034437758
 21
-2.762721178724516
 31
0.0
  0
LINE
  5
2969
330
1E
100
AcDbEntity
  8
7
100
AcDbLine
 10
7.273910034437758
 20
-2.762721178724516
 30
0.0
 11
7.285721058059806
 21
-2.479256611795383
 31
0.0
  0
LINE
  5
296A
330
1E
100
AcDbEntity
  8
7
100
AcDbLine
 10
7.285721058059806
 20
-2.479256611795383
 30
0.0
 11
4.624303735225158
 21
-2.479256611795383
 31
0.0
  0
LINE
  5
296B
330
1E
100
AcDbEntity
  8
7
100
AcDbLine
 10
4.63611475884721
 20
-2.762721178724516
 30
0.0
 11
4.624303735225158
 21
-2.479256611795383
 31
0.0
  0
LINE
  5
296C
330
1E
100
AcDbEntity
  8
7
100
AcDbLine
 10
7.273910034437758
 20
-2.876894407070974
 30
0.0
 11
4.63611475884721
 21
-2.876894407070974
 31
0.0
  0
LINE
  5
297D
330
1E
100
AcDbEntity
  8
7
100
AcDbLine
 10
4.506193499004687
 20
-2.479256611795383
 30
0.0
 11
4.514067514752721
 21
-2.762721178724516
 31
0.0
  0
LINE
  5
298F
330
1E
100
AcDbEntity
  8
7
100
AcDbLine
 10
7.403831294280276
 20
-2.479256611795383
 30
0.0
 11
7.395957278532247
 21
-2.762721178724516
 31
0.0
  0
LINE
  5
29A5
330
1E
100
AcDbEntity
  8
7
100
AcDbLine
 10
6.254224995067684
 20
-1.995004643291446
 30
0.0
 11
5.651862790343272
 21
-1.995004643291446
 31
0.0
  0
LINE
  5
29AB
330
1E
100
AcDbEntity
  8
7
100
AcDbLine
 10
-1.308767130916571
 20
-2.266658186598531
 30
0.0
 11
-1.27333406005043
 21
-2.266658186598531
 31
0.0
  0
LINE
  5
29B1
330
1E
100
AcDbEntity
  8
7
100
AcDbLine
 10
-1.214278941940193
 20
-2.207603068488296
 30
0.0
 11
-1.21427894194019
 21
-2.097366848015854
 31
0.0
  0
LINE
  5
29BC
330
1E
100
AcDbEntity
  8
7
100
AcDbLine
 10
-1.54892461123153
 20
-2.479256611795381
 30
0.0
 11
-1.54892461123153
 21
-2.416264485811129
 31
0.0
  0
LINE
  5
29C2
330
1E
100
AcDbEntity
  8
7
100
AcDbLine
 10
-1.485932485247278
 20
-2.479256611795381
 30
0.0
 11
-1.485932485247278
 21
-2.416264485811129
 31
0.0
  0
LINE
  5
29C3
330
1E
100
AcDbEntity
  8
7
100
AcDbLine
 10
-2.029239571861452
 20
-2.479256611795381
 30
0.0
 11
-1.54892461123153
 21
-2.479256611795381
 31
0.0
  0
LINE
  5
29C4
330
1E
100
AcDbEntity
  8
7
100
AcDbLine
 10
-1.54892461123153
 20
-2.416264485811129
 30
0.0
 11
-2.029239571861452
 21
-2.416264485811129
 31
0.0
  0
LINE
  5
29C5
330
1E
100
AcDbEntity
  8
7
100
AcDbLine
 10
-2.029239571861452
 20
-2.416264485811129
 30
0.0
 11
-2.029239571861452
 21
-2.479256611795381
 31
0.0
  0
LINE
  5
29CB
330
1E
100
AcDbEntity
  8
7
100
AcDbLine
 10
-2.088294689971689
 20
-2.479256611795381
 30
0.0
 11
-2.088294689971689
 21
-2.416264485811129
 31
0.0
  0
LINE
  5
29F2
330
1E
100
AcDbEntity
  8
7
100
AcDbLine
 10
-1.367822249026808
 20
-2.329650312582783
 30
0.0
 11
-1.367822249026808
 21
-2.357209367700892
 31
0.0
  0
LINE
  5
29F3
330
1E
100
AcDbEntity
  8
7
100
AcDbLine
 10
15.97863444388657
 20
-2.038311729905622
 30
0.0
 11
-1.151286815955938
 21
-2.038311729905618
 31
0.0
  0
LINE
  5
29F4
330
1E
100
AcDbEntity
  8
7
100
AcDbLine
 10
16.25422499506768
 20
-2.479256611795385
 30
0.0
 11
16.14792578246925
 21
-2.479256611795385
 31
0.0
  0
LINE
  5
29F5
330
1E
100
AcDbEntity
  8
7
100
AcDbLine
 10
13.25028798719366
 20
-2.479256611795385
 30
0.0
 11
13.2345399556976
 21
-2.479256611795385
 31
0.0
  0
LINE
  5
29F6
330
1E
100
AcDbEntity
  8
7
100
AcDbLine
 10
10.33296515254799
 20
-2.479256611795385
 30
0.0
 11
10.32115412892594
 21
-2.479256611795385
 31
0.0
  0
LINE
  5
29F7
330
1E
100
AcDbEntity
  8
7
100
AcDbLine
 10
7.419579325776343
 20
-2.479256611795383
 30
0.0
 11
7.403831294280276
 21
-2.479256611795383
 31
0.0
  0
LINE
  5
29F8
330
1E
100
AcDbEntity
  8
7
100
AcDbLine
 10
4.506193499004687
 20
-2.479256611795383
 30
0.0
 11
4.490445467508624
 21
-2.479256611795383
 31
0.0
  0
LINE
  5
29F9
330
1E
100
AcDbEntity
  8
7
100
AcDbLine
 10
1.588870664359017
 20
-2.479256611795383
 30
0.0
 11
1.573122632862954
 21
-2.479256611795383
 31
0.0
  0
LINE
  5
29FA
330
1E
100
AcDbEntity
  8
7
100
AcDbLine
 10
-1.324515162412634
 20
-2.479256611795381
 30
0.0
 11
-1.426877367137045
 21
-2.479256611795381
 31
0.0
  0
LINE
  5
2A08
330
1E
100
AcDbEntity
  8
7
100
AcDbLine
 10
-1.367822249026808
 20
-2.357209367700892
 30
0.0
 11
16.19123286908342
 21
-2.357209367700896
 31
0.0
  0
LINE
  5
2A1D
330
1E
100
AcDbEntity
  8
7
100
AcDbLine
 10
16.85265019191807
 20
-2.416264485811133
 30
0.0
 11
16.37233523128815
 21
-2.416264485811133
 31
0.0
  0
LINE
  5
2A28
330
1E
100
AcDbEntity
  8
7
100
AcDbLine
 10
16.37233523128815
 20
-2.479256611795385
 30
0.0
 11
16.85265019191807
 21
-2.479256611795385
 31
0.0
  0
LINE
  5
2A33
330
1E
100
AcDbEntity
  8
7
100
AcDbLine
 10
16.19123286908342
 20
-2.329650312582787
 30
0.0
 11
16.19123286908342
 21
-2.357209367700896
 31
0.0
  0
LINE
  5
2A39
330
1E
100
AcDbEntity
  8
7
100
AcDbLine
 10
16.13217775097319
 20
-2.266658186598535
 30
0.0
 11
16.09674468010705
 21
-2.266658186598535
 31
0.0
  0
LINE
  5
2A3F
330
1E
100
AcDbEntity
  8
7
100
AcDbLine
 10
16.03768956199681
 20
-2.097366848015857
 30
0.0
 11
16.03768956199681
 21
-2.2076030684883
 31
0.0
  0
LINE
  5
2A45
330
1E
100
AcDbEntity
  8
7
100
AcDbLine
 10
16.85265019191807
 20
-2.479256611795385
 30
0.0
 11
16.85265019191807
 21
-2.416264485811133
 31
0.0
  0
LINE
  5
2A46
330
1E
100
AcDbEntity
  8
7
100
AcDbLine
 10
16.91170531002831
 20
-2.416264485811133
 30
0.0
 11
16.91170531002831
 21
-2.479256611795385
 31
0.0
  0
LINE
  5
2A47
330
1E
100
AcDbEntity
  8
7
100
AcDbLine
 10
16.31328011317791
 20
-2.416264485811133
 30
0.0
 11
16.31328011317791
 21
-2.479256611795385
 31
0.0
  0
LINE
  5
2A48
330
1E
100
AcDbEntity
  8
7
100
AcDbLine
 10
16.37233523128815
 20
-2.416264485811133
 30
0.0
 11
16.37233523128815
 21
-2.479256611795385
 31
0.0
  0
LINE
  5
2A49
330
1E
100
AcDbEntity
  8
7
100
AcDbLine
 10
16.77784704231177
 20
-6.857209367700896
 30
0.0
 11
16.8605242076661
 21
-6.857209367700896
 31
0.0
  0
LINE
  5
2A4A
330
1E
100
AcDbEntity
  8
7
100
AcDbLine
 10
16.48257145176059
 20
-6.971382596047355
 30
0.0
 11
16.43139034939838
 21
-6.971382596047355
 31
0.0
  0
LINE
  5
2A4B
330
1E
100
AcDbEntity
  8
7
100
AcDbLine
 10
16.48257145176059
 20
-6.920201493685148
 30
0.0
 11
16.50225649113067
 21
-6.971382596047355
 31
0.0
  0
LINE
  5
2A4C
330
1E
100
AcDbEntity
  8
7
100
AcDbLine
 10
-1.407192327766967
 20
-6.971382596047352
 30
0.0
 11
-1.407192327766967
 21
-6.821776296834752
 31
0.0
  0
LINE
  5
2A4D
330
1E
100
AcDbEntity
  8
7
100
AcDbLine
 10
16.70304389270547
 20
-6.939886533055229
 30
0.0
 11
16.70304389270547
 21
-6.857209367700896
 31
0.0
  0
LINE
  5
2A4E
330
1E
100
AcDbEntity
  8
7
100
AcDbLine
 10
16.83690216042201
 20
-6.971382596047355
 30
0.0
 11
16.83690216042201
 21
-6.880831414944992
 31
0.0
  0
LINE
  5
2A4F
330
1E
100
AcDbEntity
  8
7
100
AcDbLine
 10
16.38414625491019
 20
-6.928075509433181
 30
0.0
 11
16.39989428640626
 21
-6.896579446441052
 31
0.0
  0
LINE
  5
2A50
330
1E
100
AcDbEntity
  8
7
100
AcDbLine
 10
16.83690216042201
 20
-6.971382596047355
 30
0.0
 11
16.80146908955586
 21
-6.971382596047355
 31
0.0
  0
LINE
  5
2A51
330
1E
100
AcDbEntity
  8
7
100
AcDbLine
 10
16.37233523128815
 20
-6.971382596047355
 30
0.0
 11
16.38020924703618
 21
-6.955634564551289
 31
0.0
  0
LINE
  5
2A52
330
1E
100
AcDbEntity
  8
7
100
AcDbLine
 10
-1.407192327766967
 20
-6.821776296834752
 30
0.0
 11
-2.037113587609486
 21
-6.821776296834752
 31
0.0
  0
LINE
  5
2A53
330
1E
100
AcDbEntity
  8
7
100
AcDbLine
 10
16.48257145176059
 20
-6.971382596047355
 30
0.0
 11
16.48257145176059
 21
-6.920201493685148
 31
0.0
  0
LINE
  5
2A54
330
1E
100
AcDbEntity
  8
7
100
AcDbLine
 10
16.80146908955586
 20
-6.971382596047355
 30
0.0
 11
16.80146908955586
 21
-6.880831414944992
 31
0.0
  0
LINE
  5
2A55
330
1E
100
AcDbEntity
  8
7
100
AcDbLine
 10
16.41564231790232
 20
-6.928075509433181
 30
0.0
 11
16.39989428640626
 21
-6.896579446441052
 31
0.0
  0
LINE
  5
2A56
330
1E
100
AcDbEntity
  8
7
100
AcDbLine
 10
16.61249271160311
 20
-6.971382596047355
 30
0.0
 11
16.54950058561886
 21
-6.971382596047355
 31
0.0
  0
LINE
  5
2A57
330
1E
100
AcDbEntity
  8
7
100
AcDbLine
 10
16.73847696357161
 20
-6.971382596047355
 30
0.0
 11
16.73847696357161
 21
-6.857209367700896
 31
0.0
  0
LINE
  5
2A58
330
1E
100
AcDbEntity
  8
7
100
AcDbLine
 10
16.30146908955587
 20
-6.924138501559163
 30
0.0
 11
16.33690216042201
 21
-6.924138501559163
 31
0.0
  0
LINE
  5
2A59
330
1E
100
AcDbEntity
  8
7
100
AcDbLine
 10
16.64398877459523
 20
-6.951697556677274
 30
0.0
 11
16.64398877459523
 21
-6.857209367700896
 31
0.0
  0
LINE
  5
2A5A
330
1E
100
AcDbEntity
  8
7
100
AcDbLine
 10
16.68335885333539
 20
-6.857209367700896
 30
0.0
 11
16.68335885333539
 21
-6.939886533055229
 31
0.0
  0
LINE
  5
2A5B
330
1E
100
AcDbEntity
  8
7
100
AcDbLine
 10
16.53768956199681
 20
-6.857209367700896
 30
0.0
 11
16.53768956199681
 21
-6.971382596047355
 31
0.0
  0
LINE
  5
2A5C
330
1E
100
AcDbEntity
  8
7
100
AcDbLine
 10
16.23060294782358
 20
-6.971382596047355
 30
0.0
 11
16.23060294782358
 21
-6.821776296834755
 31
0.0
  0
LINE
  5
2A5D
330
1E
100
AcDbEntity
  8
7
100
AcDbLine
 10
16.60068168798106
 20
-6.884768422819007
 30
0.0
 11
16.60068168798106
 21
-6.939886533055229
 31
0.0
  0
LINE
  5
2A5E
330
1E
100
AcDbEntity
  8
7
100
AcDbLine
 10
16.38414625491019
 20
-6.928075509433181
 30
0.0
 11
16.41564231790232
 21
-6.928075509433181
 31
0.0
  0
LINE
  5
2A5F
330
1E
100
AcDbEntity
  8
7
100
AcDbLine
 10
16.8605242076661
 20
-6.880831414944992
 30
0.0
 11
16.8605242076661
 21
-6.857209367700896
 31
0.0
  0
LINE
  5
2A60
330
1E
100
AcDbEntity
  8
7
100
AcDbLine
 10
16.53768956199681
 20
-6.971382596047355
 30
0.0
 11
16.50225649113067
 21
-6.971382596047355
 31
0.0
  0
LINE
  5
2A61
330
1E
100
AcDbEntity
  8
7
100
AcDbLine
 10
16.73847696357161
 20
-6.857209367700896
 30
0.0
 11
16.76603601868972
 21
-6.857209367700896
 31
0.0
  0
LINE
  5
2A62
330
1E
100
AcDbEntity
  8
7
100
AcDbLine
 10
16.58099664861098
 20
-6.880831414944992
 30
0.0
 11
16.59280767223303
 21
-6.880831414944992
 31
0.0
  0
LINE
  5
2A63
330
1E
100
AcDbEntity
  8
7
100
AcDbLine
 10
16.70304389270547
 20
-6.857209367700896
 30
0.0
 11
16.72666593994956
 21
-6.857209367700896
 31
0.0
  0
LINE
  5
2A64
330
1E
100
AcDbEntity
  8
7
100
AcDbLine
 10
16.77784704231177
 20
-6.880831414944992
 30
0.0
 11
16.80146908955586
 21
-6.880831414944992
 31
0.0
  0
LINE
  5
2A65
330
1E
100
AcDbEntity
  8
7
100
AcDbLine
 10
-2.037113587609486
 20
-6.971382596047352
 30
0.0
 11
-1.407192327766967
 21
-6.971382596047352
 31
0.0
  0
LINE
  5
2A66
330
1E
100
AcDbEntity
  8
7
100
AcDbLine
 10
16.38414625491019
 20
-6.857209367700896
 30
0.0
 11
16.41564231790232
 21
-6.857209367700896
 31
0.0
  0
LINE
  5
2A67
330
1E
100
AcDbEntity
  8
7
100
AcDbLine
 10
16.45107538876846
 20
-6.932012517307196
 30
0.0
 11
16.45107538876846
 21
-6.857209367700896
 31
0.0
  0
LINE
  5
2A68
330
1E
100
AcDbEntity
  8
7
100
AcDbLine
 10
16.42351633365035
 20
-6.955634564551289
 30
0.0
 11
16.43139034939838
 21
-6.971382596047355
 31
0.0
  0
LINE
  5
2A69
330
1E
100
AcDbEntity
  8
7
100
AcDbLine
 10
16.72666593994956
 20
-6.857209367700896
 30
0.0
 11
16.72666593994956
 21
-6.951697556677274
 31
0.0
  0
LINE
  5
2A6A
330
1E
100
AcDbEntity
  8
7
100
AcDbLine
 10
16.23060294782358
 20
-6.821776296834755
 30
0.0
 11
16.33690216042201
 21
-6.821776296834755
 31
0.0
  0
LINE
  5
2A6B
330
1E
100
AcDbEntity
  8
7
100
AcDbLine
 10
16.63217775097319
 20
-6.876894407070977
 30
0.0
 11
16.63217775097319
 21
-6.951697556677274
 31
0.0
  0
LINE
  5
2A6C
330
1E
100
AcDbEntity
  8
7
100
AcDbLine
 10
16.50619349900468
 20
-6.896579446441052
 30
0.0
 11
16.48650845963461
 21
-6.857209367700896
 31
0.0
  0
LINE
  5
2A6D
330
1E
100
AcDbEntity
  8
7
100
AcDbLine
 10
16.32115412892594
 20
-6.892642438567037
 30
0.0
 11
16.32115412892594
 21
-6.853272359826881
 31
0.0
  0
LINE
  5
2A6E
330
1E
100
AcDbEntity
  8
7
100
AcDbLine
 10
16.37233523128815
 20
-6.971382596047355
 30
0.0
 11
16.33690216042201
 21
-6.971382596047355
 31
0.0
  0
LINE
  5
2A6F
330
1E
100
AcDbEntity
  8
7
100
AcDbLine
 10
16.30146908955587
 20
-6.90051645431507
 30
0.0
 11
16.30146908955587
 21
-6.845398344078851
 31
0.0
  0
LINE
  5
2A70
330
1E
100
AcDbEntity
  8
7
100
AcDbLine
 10
16.50619349900468
 20
-6.896579446441052
 30
0.0
 11
16.50619349900468
 21
-6.857209367700896
 31
0.0
  0
LINE
  5
2A71
330
1E
100
AcDbEntity
  8
7
100
AcDbLine
 10
16.68729586120941
 20
-6.943823540929244
 30
0.0
 11
16.69516987695744
 21
-6.943823540929244
 31
0.0
  0
LINE
  5
2A72
330
1E
100
AcDbEntity
  8
7
100
AcDbLine
 10
16.50619349900468
 20
-6.857209367700896
 30
0.0
 11
16.53768956199681
 21
-6.857209367700896
 31
0.0
  0
LINE
  5
2A73
330
1E
100
AcDbEntity
  8
7
100
AcDbLine
 10
16.76603601868972
 20
-6.971382596047355
 30
0.0
 11
16.76603601868972
 21
-6.857209367700896
 31
0.0
  0
LINE
  5
2A74
330
1E
100
AcDbEntity
  8
7
100
AcDbLine
 10
16.76603601868972
 20
-6.971382596047355
 30
0.0
 11
16.73847696357161
 21
-6.971382596047355
 31
0.0
  0
LINE
  5
2A75
330
1E
100
AcDbEntity
  8
7
100
AcDbLine
 10
16.77784704231177
 20
-6.857209367700896
 30
0.0
 11
16.77784704231177
 21
-6.880831414944992
 31
0.0
  0
LINE
  5
2A76
330
1E
100
AcDbEntity
  8
7
100
AcDbLine
 10
16.58099664861098
 20
-6.943823540929244
 30
0.0
 11
16.58099664861098
 21
-6.880831414944992
 31
0.0
  0
LINE
  5
2A77
330
1E
100
AcDbEntity
  8
7
100
AcDbLine
 10
16.54950058561886
 20
-6.971382596047355
 30
0.0
 11
16.54950058561886
 21
-6.857209367700896
 31
0.0
  0
LINE
  5
2A78
330
1E
100
AcDbEntity
  8
7
100
AcDbLine
 10
16.30146908955587
 20
-6.924138501559163
 30
0.0
 11
16.30146908955587
 21
-6.971382596047355
 31
0.0
  0
LINE
  5
2A79
330
1E
100
AcDbEntity
  8
7
100
AcDbLine
 10
16.30146908955587
 20
-6.845398344078851
 30
0.0
 11
16.31328011317791
 21
-6.845398344078851
 31
0.0
  0
LINE
  5
2A7A
330
1E
100
AcDbEntity
  8
7
100
AcDbLine
 10
16.41564231790232
 20
-6.857209367700896
 30
0.0
 11
16.45107538876846
 21
-6.932012517307196
 31
0.0
  0
LINE
  5
2A7B
330
1E
100
AcDbEntity
  8
7
100
AcDbLine
 10
16.33690216042201
 20
-6.971382596047355
 30
0.0
 11
16.3605242076661
 21
-6.920201493685148
 31
0.0
  0
LINE
  5
2A7C
330
1E
100
AcDbEntity
  8
7
100
AcDbLine
 10
16.54950058561886
 20
-6.857209367700896
 30
0.0
 11
16.61249271160311
 21
-6.857209367700896
 31
0.0
  0
LINE
  5
2A7D
330
1E
100
AcDbEntity
  8
7
100
AcDbLine
 10
16.8605242076661
 20
-6.880831414944992
 30
0.0
 11
16.83690216042201
 21
-6.880831414944992
 31
0.0
  0
LINE
  5
2A7E
330
1E
100
AcDbEntity
  8
7
100
AcDbLine
 10
16.45107538876846
 20
-6.857209367700896
 30
0.0
 11
16.48650845963461
 21
-6.857209367700896
 31
0.0
  0
LINE
  5
2A7F
330
1E
100
AcDbEntity
  8
7
100
AcDbLine
 10
16.58099664861098
 20
-6.943823540929244
 30
0.0
 11
16.59280767223303
 21
-6.943823540929244
 31
0.0
  0
LINE
  5
2A80
330
1E
100
AcDbEntity
  8
7
100
AcDbLine
 10
16.30146908955587
 20
-6.90051645431507
 30
0.0
 11
16.31328011317791
 21
-6.90051645431507
 31
0.0
  0
LINE
  5
2A81
330
1E
100
AcDbEntity
  8
7
100
AcDbLine
 10
-2.037113587609486
 20
-6.821776296834752
 30
0.0
 11
-2.037113587609486
 21
-6.971382596047352
 31
0.0
  0
LINE
  5
2A82
330
1E
100
AcDbEntity
  8
7
100
AcDbLine
 10
16.66367381396531
 20
-6.971382596047355
 30
0.0
 11
16.70698090057949
 21
-6.971382596047355
 31
0.0
  0
LINE
  5
2A83
330
1E
100
AcDbEntity
  8
7
100
AcDbLine
 10
16.38020924703618
 20
-6.955634564551289
 30
0.0
 11
16.42351633365035
 21
-6.955634564551289
 31
0.0
  0
LINE
  5
2A84
330
1E
100
AcDbEntity
  8
7
100
AcDbLine
 10
16.64398877459523
 20
-6.857209367700896
 30
0.0
 11
16.68335885333539
 21
-6.857209367700896
 31
0.0
  0
LINE
  5
2A85
330
1E
100
AcDbEntity
  8
7
100
AcDbLine
 10
16.30146908955587
 20
-6.971382596047355
 30
0.0
 11
16.23060294782358
 21
-6.971382596047355
 31
0.0
  0
LINE
  5
2AC2
330
1E
100
AcDbEntity
  8
7
100
AcDbLine
 10
8.368398223414136
 20
-8.03831172990562
 30
0.0
 11
8.368398223414136
 21
-8.050122753527665
 31
0.0
  0
LINE
  5
2AC3
330
1E
100
AcDbEntity
  8
7
100
AcDbLine
 10
8.368398223414136
 20
-8.03831172990562
 30
0.0
 11
7.549500585618861
 21
-8.03831172990562
 31
0.0
  0
LINE
  5
2AC4
330
1E
100
AcDbEntity
  8
7
100
AcDbLine
 10
7.541626569870828
 20
-8.050122753527665
 30
0.0
 11
7.549500585618861
 21
-8.03831172990562
 31
0.0
  0
LINE
  5
2AC5
330
1E
100
AcDbEntity
  8
7
100
AcDbLine
 10
8.368398223414136
 20
-8.050122753527665
 30
0.0
 11
7.541626569870828
 21
-8.050122753527665
 31
0.0
  0
LINE
  5
2AC6
330
1E
100
AcDbEntity
  8
7
100
AcDbLine
 10
10.1361147588472
 20
-7.447760548803259
 30
0.0
 11
10.1361147588472
 21
-6.802091257464674
 31
0.0
  0
LINE
  5
2AC7
330
1E
100
AcDbEntity
  8
7
100
AcDbLine
 10
7.60461869585508
 20
-7.447760548803257
 30
0.0
 11
7.60461869585508
 21
-6.802091257464672
 31
0.0
  0
LINE
  5
2AC8
330
1E
100
AcDbEntity
  8
7
100
AcDbLine
 10
8.368398223414136
 20
-8.034374722031605
 30
0.0
 11
9.368398223414136
 21
-8.034374722031607
 31
0.0
  0
LINE
  5
2AC9
330
1E
100
AcDbEntity
  8
7
100
AcDbLine
 10
8.183358853335397
 20
-6.802091257464672
 30
0.0
 11
7.60461869585508
 21
-6.802091257464672
 31
0.0
  0
LINE
  5
2ACA
330
1E
100
AcDbEntity
  8
7
100
AcDbLine
 10
8.832965152547997
 20
-6.802091257464672
 30
0.0
 11
8.254224995067682
 21
-6.802091257464672
 31
0.0
  0
LINE
  5
2ACB
330
1E
100
AcDbEntity
  8
7
100
AcDbLine
 10
8.183358853335395
 20
-7.447760548803257
 30
0.0
 11
8.183358853335397
 21
-6.802091257464672
 31
0.0
  0
LINE
  5
2ACC
330
1E
100
AcDbEntity
  8
7
100
AcDbLine
 10
8.183358853335395
 20
-7.447760548803257
 30
0.0
 11
7.60461869585508
 21
-7.447760548803257
 31
0.0
  0
LINE
  5
2ACD
330
1E
100
AcDbEntity
  8
7
100
AcDbLine
 10
8.832965152547995
 20
-7.447760548803257
 30
0.0
 11
8.832965152547997
 21
-6.802091257464672
 31
0.0
  0
LINE
  5
2ACE
330
1E
100
AcDbEntity
  8
7
100
AcDbLine
 10
8.832965152547995
 20
-7.447760548803257
 30
0.0
 11
8.25422499506768
 21
-7.447760548803257
 31
0.0
  0
LINE
  5
2ACF
330
1E
100
AcDbEntity
  8
7
100
AcDbLine
 10
8.25422499506768
 20
-7.447760548803257
 30
0.0
 11
8.254224995067682
 21
-6.802091257464672
 31
0.0
  0
LINE
  5
2AD0
330
1E
100
AcDbEntity
  8
7
100
AcDbLine
 10
9.486508459634611
 20
-6.802091257464674
 30
0.0
 11
8.903831294280278
 21
-6.802091257464672
 31
0.0
  0
LINE
  5
2AD1
330
1E
100
AcDbEntity
  8
7
100
AcDbLine
 10
8.903831294280276
 20
-7.447760548803257
 30
0.0
 11
8.903831294280278
 21
-6.802091257464672
 31
0.0
  0
LINE
  5
2AD2
330
1E
100
AcDbEntity
  8
7
100
AcDbLine
 10
9.48650845963461
 20
-7.447760548803259
 30
0.0
 11
8.903831294280276
 21
-7.447760548803257
 31
0.0
  0
LINE
  5
2AD3
330
1E
100
AcDbEntity
  8
7
100
AcDbLine
 10
9.48650845963461
 20
-7.447760548803259
 30
0.0
 11
9.486508459634611
 21
-6.802091257464674
 31
0.0
  0
LINE
  5
2AD4
330
1E
100
AcDbEntity
  8
7
100
AcDbLine
 10
10.1361147588472
 20
-6.802091257464674
 30
0.0
 11
9.553437593492878
 21
-6.802091257464674
 31
0.0
  0
LINE
  5
2AD5
330
1E
100
AcDbEntity
  8
7
100
AcDbLine
 10
9.553437593492876
 20
-7.447760548803259
 30
0.0
 11
9.553437593492878
 21
-6.802091257464674
 31
0.0
  0
LINE
  5
2AD6
330
1E
100
AcDbEntity
  8
7
100
AcDbLine
 10
10.1361147588472
 20
-7.447760548803259
 30
0.0
 11
9.553437593492876
 21
-7.447760548803259
 31
0.0
  0
LINE
  5
2AD7
330
1E
100
AcDbEntity
  8
7
100
AcDbLine
 10
9.37233523128815
 20
-8.050122753527666
 30
0.0
 11
9.368398223414136
 21
-8.038311729905622
 31
0.0
  0
LINE
  5
2AD8
330
1E
100
AcDbEntity
  8
7
100
AcDbLine
 10
10.19910688483145
 20
-8.050122753527666
 30
0.0
 11
9.37233523128815
 21
-8.050122753527666
 31
0.0
  0
LINE
  5
2AD9
330
1E
100
AcDbEntity
  8
7
100
AcDbLine
 10
10.19910688483145
 20
-8.050122753527666
 30
0.0
 11
10.19123286908342
 21
-8.038311729905622
 31
0.0
  0
LINE
  5
2ADA
330
1E
100
AcDbEntity
  8
7
100
AcDbLine
 10
10.19123286908342
 20
-8.038311729905622
 30
0.0
 11
9.368398223414136
 21
-8.038311729905622
 31
0.0
  0
LINE
  5
2ADB
330
1E
100
AcDbEntity
  8
7
100
AcDbLine
 10
8.368398223414136
 20
-8.03831172990562
 30
0.0
 11
8.368398223414136
 21
-8.034374722031605
 31
0.0
  0
LINE
  5
2ADC
330
1E
100
AcDbEntity
  8
7
100
AcDbLine
 10
9.368398223414136
 20
-8.034374722031607
 30
0.0
 11
9.368398223414136
 21
-8.038311729905622
 31
0.0
  0
LINE
  5
2AE2
330
1E
100
AcDbEntity
  8
7
100
AcDbLine
 10
10.19123286908342
 20
-7.920201493685148
 30
0.0
 11
7.549500585618861
 21
-7.920201493685146
 31
0.0
  0
LINE
  5
2AE8
330
1E
100
AcDbEntity
  8
7
100
AcDbLine
 10
7.431390349398387
 20
-7.920201493685146
 30
0.0
 11
7.419579325776343
 21
-7.928075509433179
 31
0.0
  0
LINE
  5
2AFA
330
1E
100
AcDbEntity
  8
7
100
AcDbLine
 10
10.30934310530389
 20
-7.920201493685148
 30
0.0
 11
10.32115412892594
 21
-7.928075509433181
 31
0.0
  0
LINE
  5
2B0C
330
1E
100
AcDbEntity
  8
7
100
AcDbLine
 10
7.549500585618861
 20
-6.353272359826879
 30
0.0
 11
10.19123286908343
 21
-6.353272359826881
 31
0.0
  0
LINE
  5
2B0D
330
1E
100
AcDbEntity
  8
7
100
AcDbLine
 10
10.19123286908343
 20
-6.353272359826881
 30
0.0
 11
10.19910688483146
 21
-6.345398344078851
 31
0.0
  0
LINE
  5
2B0E
330
1E
100
AcDbEntity
  8
7
100
AcDbLine
 10
10.19910688483146
 20
-6.345398344078851
 30
0.0
 11
7.541626569870828
 21
-6.34539834407885
 31
0.0
  0
LINE
  5
2B0F
330
1E
100
AcDbEntity
  8
7
100
AcDbLine
 10
7.549500585618861
 20
-6.353272359826879
 30
0.0
 11
7.541626569870828
 21
-6.34539834407885
 31
0.0
  0
LINE
  5
2B10
330
1E
100
AcDbEntity
  8
7
100
AcDbLine
 10
10.19123286908343
 20
-6.471382596047355
 30
0.0
 11
7.549500585618861
 21
-6.471382596047353
 31
0.0
  0
LINE
  5
2B21
330
1E
100
AcDbEntity
  8
7
100
AcDbLine
 10
7.419579325776343
 20
-6.46350858029932
 30
0.0
 11
7.431390349398387
 21
-6.471382596047353
 31
0.0
  0
LINE
  5
2B33
330
1E
100
AcDbEntity
  8
7
100
AcDbLine
 10
10.32115412892594
 20
-6.463508580299322
 30
0.0
 11
10.3093431053039
 21
-6.471382596047355
 31
0.0
  0
LINE
  5
2B3F
330
1E
100
AcDbEntity
  8
7
100
AcDbLine
 10
10.19123286908343
 20
-6.471382596047355
 30
0.0
 11
10.19123286908342
 21
-7.920201493685148
 31
0.0
  0
LINE
  5
2B40
330
1E
100
AcDbEntity
  8
7
100
AcDbLine
 10
10.30934310530389
 20
-7.920201493685148
 30
0.0
 11
10.3093431053039
 21
-6.471382596047355
 31
0.0
  0
LINE
  5
2B41
330
1E
100
AcDbEntity
  8
7
100
AcDbLine
 10
10.32115412892594
 20
-6.463508580299322
 30
0.0
 11
10.32115412892594
 21
-7.928075509433181
 31
0.0
  0
LINE
  5
2B42
330
1E
100
AcDbEntity
  8
7
100
AcDbLine
 10
7.431390349398387
 20
-7.920201493685146
 30
0.0
 11
7.431390349398387
 21
-6.471382596047353
 31
0.0
  0
LINE
  5
2B43
330
1E
100
AcDbEntity
  8
7
100
AcDbLine
 10
7.549500585618861
 20
-6.471382596047353
 30
0.0
 11
7.549500585618861
 21
-7.920201493685146
 31
0.0
  0
LINE
  5
2B44
330
1E
100
AcDbEntity
  8
7
100
AcDbLine
 10
7.419579325776343
 20
-6.46350858029932
 30
0.0
 11
7.419579325776343
 21
-7.928075509433179
 31
0.0
  0
LINE
  5
2B45
330
1E
100
AcDbEntity
  8
7
100
AcDbLine
 10
9.057374601366891
 20
-8.144610942504042
 30
0.0
 11
8.683358853335395
 21
-8.144610942504042
 31
0.0
  0
LINE
  5
2B46
330
1E
100
AcDbEntity
  8
7
100
AcDbLine
 10
9.069185624988939
 20
-8.034374722031605
 30
0.0
 11
9.057374601366891
 21
-8.144610942504042
 31
0.0
  0
LINE
  5
2B47
330
1E
100
AcDbEntity
  8
7
100
AcDbLine
 10
8.67154782971335
 20
-8.034374722031605
 30
0.0
 11
8.683358853335395
 21
-8.144610942504042
 31
0.0
  0
LINE
  5
2B48
330
1E
100
AcDbEntity
  8
7
100
AcDbLine
 10
11.2857210580598
 20
-8.038311729905622
 30
0.0
 11
11.28178405018579
 21
-8.050122753527666
 31
0.0
  0
LINE
  5
2B49
330
1E
100
AcDbEntity
  8
7
100
AcDbLine
 10
11.2857210580598
 20
-8.038311729905622
 30
0.0
 11
10.46288641239051
 21
-8.038311729905622
 31
0.0
  0
LINE
  5
2B4A
330
1E
100
AcDbEntity
  8
7
100
AcDbLine
 10
10.45501239664248
 20
-8.050122753527666
 30
0.0
 11
10.46288641239051
 21
-8.038311729905622
 31
0.0
  0
LINE
  5
2B4B
330
1E
100
AcDbEntity
  8
7
100
AcDbLine
 10
11.28178405018579
 20
-8.050122753527666
 30
0.0
 11
10.45501239664248
 21
-8.050122753527666
 31
0.0
  0
LINE
  5
2B4C
330
1E
100
AcDbEntity
  8
7
100
AcDbLine
 10
13.04950058561886
 20
-7.447760548803259
 30
0.0
 11
13.04950058561886
 21
-6.802091257464674
 31
0.0
  0
LINE
  5
2B4D
330
1E
100
AcDbEntity
  8
7
100
AcDbLine
 10
10.51800452262673
 20
-7.447760548803259
 30
0.0
 11
10.51800452262673
 21
-6.802091257464674
 31
0.0
  0
LINE
  5
2B4E
330
1E
100
AcDbEntity
  8
7
100
AcDbLine
 10
11.2857210580598
 20
-8.034374722031607
 30
0.0
 11
12.2857210580598
 21
-8.034374722031607
 31
0.0
  0
LINE
  5
2B4F
330
1E
100
AcDbEntity
  8
7
100
AcDbLine
 10
11.10068168798106
 20
-6.802091257464674
 30
0.0
 11
10.51800452262673
 21
-6.802091257464674
 31
0.0
  0
LINE
  5
2B50
330
1E
100
AcDbEntity
  8
7
100
AcDbLine
 10
11.75028798719366
 20
-6.802091257464674
 30
0.0
 11
11.17154782971334
 21
-6.802091257464674
 31
0.0
  0
LINE
  5
2B51
330
1E
100
AcDbEntity
  8
7
100
AcDbLine
 10
11.10068168798106
 20
-7.447760548803259
 30
0.0
 11
11.10068168798106
 21
-6.802091257464674
 31
0.0
  0
LINE
  5
2B52
330
1E
100
AcDbEntity
  8
7
100
AcDbLine
 10
11.10068168798106
 20
-7.447760548803259
 30
0.0
 11
10.51800452262673
 21
-7.447760548803259
 31
0.0
  0
LINE
  5
2B53
330
1E
100
AcDbEntity
  8
7
100
AcDbLine
 10
11.75028798719366
 20
-7.447760548803259
 30
0.0
 11
11.75028798719366
 21
-6.802091257464674
 31
0.0
  0
LINE
  5
2B54
330
1E
100
AcDbEntity
  8
7
100
AcDbLine
 10
11.75028798719366
 20
-7.447760548803259
 30
0.0
 11
11.17154782971334
 21
-7.447760548803259
 31
0.0
  0
LINE
  5
2B55
330
1E
100
AcDbEntity
  8
7
100
AcDbLine
 10
11.17154782971334
 20
-7.447760548803259
 30
0.0
 11
11.17154782971334
 21
-6.802091257464674
 31
0.0
  0
LINE
  5
2B56
330
1E
100
AcDbEntity
  8
7
100
AcDbLine
 10
12.39989428640626
 20
-6.802091257464674
 30
0.0
 11
11.82115412892595
 21
-6.802091257464674
 31
0.0
  0
LINE
  5
2B57
330
1E
100
AcDbEntity
  8
7
100
AcDbLine
 10
11.82115412892594
 20
-7.447760548803259
 30
0.0
 11
11.82115412892595
 21
-6.802091257464674
 31
0.0
  0
LINE
  5
2B58
330
1E
100
AcDbEntity
  8
7
100
AcDbLine
 10
12.39989428640626
 20
-7.447760548803259
 30
0.0
 11
11.82115412892594
 21
-7.447760548803259
 31
0.0
  0
LINE
  5
2B59
330
1E
100
AcDbEntity
  8
7
100
AcDbLine
 10
12.39989428640626
 20
-7.447760548803259
 30
0.0
 11
12.39989428640626
 21
-6.802091257464674
 31
0.0
  0
LINE
  5
2B5A
330
1E
100
AcDbEntity
  8
7
100
AcDbLine
 10
13.04950058561886
 20
-6.802091257464674
 30
0.0
 11
12.47076042813854
 21
-6.802091257464674
 31
0.0
  0
LINE
  5
2B5B
330
1E
100
AcDbEntity
  8
7
100
AcDbLine
 10
12.47076042813854
 20
-7.447760548803259
 30
0.0
 11
12.47076042813854
 21
-6.802091257464674
 31
0.0
  0
LINE
  5
2B5C
330
1E
100
AcDbEntity
  8
7
100
AcDbLine
 10
13.04950058561886
 20
-7.447760548803259
 30
0.0
 11
12.47076042813854
 21
-7.447760548803259
 31
0.0
  0
LINE
  5
2B5D
330
1E
100
AcDbEntity
  8
7
100
AcDbLine
 10
12.2857210580598
 20
-8.050122753527666
 30
0.0
 11
12.2857210580598
 21
-8.038311729905622
 31
0.0
  0
LINE
  5
2B5E
330
1E
100
AcDbEntity
  8
7
100
AcDbLine
 10
13.11642971947712
 20
-8.050122753527666
 30
0.0
 11
12.2857210580598
 21
-8.050122753527666
 31
0.0
  0
LINE
  5
2B5F
330
1E
100
AcDbEntity
  8
7
100
AcDbLine
 10
13.11642971947712
 20
-8.050122753527666
 30
0.0
 11
13.10461869585508
 21
-8.038311729905622
 31
0.0
  0
LINE
  5
2B60
330
1E
100
AcDbEntity
  8
7
100
AcDbLine
 10
13.10461869585508
 20
-8.038311729905622
 30
0.0
 11
12.2857210580598
 21
-8.038311729905622
 31
0.0
  0
LINE
  5
2B61
330
1E
100
AcDbEntity
  8
7
100
AcDbLine
 10
11.2857210580598
 20
-8.038311729905622
 30
0.0
 11
11.2857210580598
 21
-8.034374722031607
 31
0.0
  0
LINE
  5
2B62
330
1E
100
AcDbEntity
  8
7
100
AcDbLine
 10
12.2857210580598
 20
-8.034374722031607
 30
0.0
 11
12.2857210580598
 21
-8.038311729905622
 31
0.0
  0
LINE
  5
2B68
330
1E
100
AcDbEntity
  8
7
100
AcDbLine
 10
13.10461869585508
 20
-7.920201493685148
 30
0.0
 11
10.46288641239051
 21
-7.920201493685148
 31
0.0
  0
LINE
  5
2B6E
330
1E
100
AcDbEntity
  8
7
100
AcDbLine
 10
10.34477617617004
 20
-7.920201493685148
 30
0.0
 11
10.33296515254799
 21
-7.928075509433181
 31
0.0
  0
LINE
  5
2B80
330
1E
100
AcDbEntity
  8
7
100
AcDbLine
 10
13.22666593994957
 20
-7.920201493685148
 30
0.0
 11
13.2345399556976
 21
-7.928075509433181
 31
0.0
  0
LINE
  5
2B92
330
1E
100
AcDbEntity
  8
7
100
AcDbLine
 10
10.46288641239051
 20
-6.353272359826881
 30
0.0
 11
13.10461869585508
 21
-6.353272359826881
 31
0.0
  0
LINE
  5
2B93
330
1E
100
AcDbEntity
  8
7
100
AcDbLine
 10
13.10461869585508
 20
-6.353272359826881
 30
0.0
 11
13.11642971947713
 21
-6.345398344078851
 31
0.0
  0
LINE
  5
2B94
330
1E
100
AcDbEntity
  8
7
100
AcDbLine
 10
13.11642971947713
 20
-6.345398344078851
 30
0.0
 11
10.45501239664248
 21
-6.345398344078851
 31
0.0
  0
LINE
  5
2B95
330
1E
100
AcDbEntity
  8
7
100
AcDbLine
 10
10.46288641239051
 20
-6.353272359826881
 30
0.0
 11
10.45501239664248
 21
-6.345398344078851
 31
0.0
  0
LINE
  5
2B96
330
1E
100
AcDbEntity
  8
7
100
AcDbLine
 10
13.10461869585508
 20
-6.471382596047355
 30
0.0
 11
10.46288641239051
 21
-6.471382596047355
 31
0.0
  0
LINE
  5
2BA7
330
1E
100
AcDbEntity
  8
7
100
AcDbLine
 10
10.33296515254799
 20
-6.463508580299322
 30
0.0
 11
10.34477617617004
 21
-6.471382596047355
 31
0.0
  0
LINE
  5
2BB9
330
1E
100
AcDbEntity
  8
7
100
AcDbLine
 10
13.2345399556976
 20
-6.463508580299322
 30
0.0
 11
13.22666593994957
 21
-6.471382596047355
 31
0.0
  0
LINE
  5
2BC5
330
1E
100
AcDbEntity
  8
7
100
AcDbLine
 10
13.10461869585508
 20
-6.471382596047355
 30
0.0
 11
13.10461869585508
 21
-7.920201493685148
 31
0.0
  0
LINE
  5
2BC6
330
1E
100
AcDbEntity
  8
7
100
AcDbLine
 10
13.22666593994957
 20
-7.920201493685148
 30
0.0
 11
13.22666593994957
 21
-6.471382596047355
 31
0.0
  0
LINE
  5
2BC7
330
1E
100
AcDbEntity
  8
7
100
AcDbLine
 10
13.2345399556976
 20
-6.463508580299322
 30
0.0
 11
13.2345399556976
 21
-7.928075509433181
 31
0.0
  0
LINE
  5
2BC8
330
1E
100
AcDbEntity
  8
7
100
AcDbLine
 10
10.34477617617004
 20
-7.920201493685148
 30
0.0
 11
10.34477617617004
 21
-6.471382596047355
 31
0.0
  0
LINE
  5
2BC9
330
1E
100
AcDbEntity
  8
7
100
AcDbLine
 10
10.46288641239051
 20
-6.471382596047355
 30
0.0
 11
10.46288641239051
 21
-7.920201493685148
 31
0.0
  0
LINE
  5
2BCA
330
1E
100
AcDbEntity
  8
7
100
AcDbLine
 10
10.33296515254799
 20
-6.463508580299322
 30
0.0
 11
10.33296515254799
 21
-7.928075509433181
 31
0.0
  0
LINE
  5
2BCB
330
1E
100
AcDbEntity
  8
7
100
AcDbLine
 10
11.97076042813854
 20
-8.144610942504044
 30
0.0
 11
11.60068168798106
 21
-8.144610942504044
 31
0.0
  0
LINE
  5
2BCC
330
1E
100
AcDbEntity
  8
7
100
AcDbLine
 10
11.98257145176059
 20
-8.034374722031607
 30
0.0
 11
11.97076042813854
 21
-8.144610942504044
 31
0.0
  0
LINE
  5
2BCD
330
1E
100
AcDbEntity
  8
7
100
AcDbLine
 10
11.58887066435901
 20
-8.034374722031607
 30
0.0
 11
11.60068168798106
 21
-8.144610942504044
 31
0.0
  0
LINE
  5
2BCE
330
1E
100
AcDbEntity
  8
7
100
AcDbLine
 10
14.19910688483145
 20
-8.038311729905622
 30
0.0
 11
14.19910688483145
 21
-8.050122753527666
 31
0.0
  0
LINE
  5
2BCF
330
1E
100
AcDbEntity
  8
7
100
AcDbLine
 10
14.19910688483145
 20
-8.038311729905622
 30
0.0
 11
13.38020924703618
 21
-8.038311729905622
 31
0.0
  0
LINE
  5
2BD0
330
1E
100
AcDbEntity
  8
7
100
AcDbLine
 10
13.36839822341413
 20
-8.050122753527666
 30
0.0
 11
13.38020924703618
 21
-8.038311729905622
 31
0.0
  0
LINE
  5
2BD1
330
1E
100
AcDbEntity
  8
7
100
AcDbLine
 10
14.19910688483145
 20
-8.050122753527666
 30
0.0
 11
13.36839822341413
 21
-8.050122753527666
 31
0.0
  0
LINE
  5
2BD2
330
1E
100
AcDbEntity
  8
7
100
AcDbLine
 10
15.96682342026452
 20
-7.447760548803259
 30
0.0
 11
15.96682342026452
 21
-6.802091257464674
 31
0.0
  0
LINE
  5
2BD3
330
1E
100
AcDbEntity
  8
7
100
AcDbLine
 10
13.4353273572724
 20
-7.447760548803259
 30
0.0
 11
13.4353273572724
 21
-6.802091257464674
 31
0.0
  0
LINE
  5
2BD4
330
1E
100
AcDbEntity
  8
7
100
AcDbLine
 10
14.19910688483145
 20
-8.034374722031607
 30
0.0
 11
15.19910688483145
 21
-8.034374722031607
 31
0.0
  0
LINE
  5
2BD5
330
1E
100
AcDbEntity
  8
7
100
AcDbLine
 10
14.01406751475271
 20
-6.802091257464674
 30
0.0
 11
13.4353273572724
 21
-6.802091257464674
 31
0.0
  0
LINE
  5
2BD6
330
1E
100
AcDbEntity
  8
7
100
AcDbLine
 10
14.66367381396532
 20
-6.802091257464674
 30
0.0
 11
14.084933656485
 21
-6.802091257464674
 31
0.0
  0
LINE
  5
2BD7
330
1E
100
AcDbEntity
  8
7
100
AcDbLine
 10
14.01406751475271
 20
-7.447760548803259
 30
0.0
 11
14.01406751475271
 21
-6.802091257464674
 31
0.0
  0
LINE
  5
2BD8
330
1E
100
AcDbEntity
  8
7
100
AcDbLine
 10
14.01406751475271
 20
-7.447760548803259
 30
0.0
 11
13.4353273572724
 21
-7.447760548803259
 31
0.0
  0
LINE
  5
2BD9
330
1E
100
AcDbEntity
  8
7
100
AcDbLine
 10
14.66367381396531
 20
-7.447760548803259
 30
0.0
 11
14.66367381396532
 21
-6.802091257464674
 31
0.0
  0
LINE
  5
2BDA
330
1E
100
AcDbEntity
  8
7
100
AcDbLine
 10
14.66367381396531
 20
-7.447760548803259
 30
0.0
 11
14.084933656485
 21
-7.447760548803259
 31
0.0
  0
LINE
  5
2BDB
330
1E
100
AcDbEntity
  8
7
100
AcDbLine
 10
14.084933656485
 20
-7.447760548803259
 30
0.0
 11
14.084933656485
 21
-6.802091257464674
 31
0.0
  0
LINE
  5
2BDC
330
1E
100
AcDbEntity
  8
7
100
AcDbLine
 10
15.31328011317792
 20
-6.802091257464674
 30
0.0
 11
14.7345399556976
 21
-6.802091257464674
 31
0.0
  0
LINE
  5
2BDD
330
1E
100
AcDbEntity
  8
7
100
AcDbLine
 10
14.7345399556976
 20
-7.447760548803259
 30
0.0
 11
14.7345399556976
 21
-6.802091257464674
 31
0.0
  0
LINE
  5
2BDE
330
1E
100
AcDbEntity
  8
7
100
AcDbLine
 10
15.31328011317791
 20
-7.447760548803259
 30
0.0
 11
14.7345399556976
 21
-7.447760548803259
 31
0.0
  0
LINE
  5
2BDF
330
1E
100
AcDbEntity
  8
7
100
AcDbLine
 10
15.31328011317791
 20
-7.447760548803259
 30
0.0
 11
15.31328011317792
 21
-6.802091257464674
 31
0.0
  0
LINE
  5
2BE0
330
1E
100
AcDbEntity
  8
7
100
AcDbLine
 10
15.96682342026452
 20
-6.802091257464674
 30
0.0
 11
15.3841462549102
 21
-6.802091257464674
 31
0.0
  0
LINE
  5
2BE1
330
1E
100
AcDbEntity
  8
7
100
AcDbLine
 10
15.3841462549102
 20
-7.447760548803259
 30
0.0
 11
15.3841462549102
 21
-6.802091257464674
 31
0.0
  0
LINE
  5
2BE2
330
1E
100
AcDbEntity
  8
7
100
AcDbLine
 10
15.96682342026452
 20
-7.447760548803259
 30
0.0
 11
15.3841462549102
 21
-7.447760548803259
 31
0.0
  0
LINE
  5
2BE3
330
1E
100
AcDbEntity
  8
7
100
AcDbLine
 10
15.20304389270547
 20
-8.050122753527666
 30
0.0
 11
15.19910688483145
 21
-8.038311729905622
 31
0.0
  0
LINE
  5
2BE4
330
1E
100
AcDbEntity
  8
7
100
AcDbLine
 10
16.02981554624878
 20
-8.050122753527666
 30
0.0
 11
15.20304389270547
 21
-8.050122753527666
 31
0.0
  0
LINE
  5
2BE5
330
1E
100
AcDbEntity
  8
7
100
AcDbLine
 10
16.02981554624878
 20
-8.050122753527666
 30
0.0
 11
16.02194153050075
 21
-8.038311729905622
 31
0.0
  0
LINE
  5
2BE6
330
1E
100
AcDbEntity
  8
7
100
AcDbLine
 10
16.02194153050075
 20
-8.038311729905622
 30
0.0
 11
15.19910688483145
 21
-8.038311729905622
 31
0.0
  0
LINE
  5
2BE7
330
1E
100
AcDbEntity
  8
7
100
AcDbLine
 10
14.19910688483145
 20
-8.038311729905622
 30
0.0
 11
14.19910688483145
 21
-8.034374722031607
 31
0.0
  0
LINE
  5
2BE8
330
1E
100
AcDbEntity
  8
7
100
AcDbLine
 10
15.19910688483145
 20
-8.034374722031607
 30
0.0
 11
15.19910688483145
 21
-8.038311729905622
 31
0.0
  0
LINE
  5
2BEE
330
1E
100
AcDbEntity
  8
7
100
AcDbLine
 10
16.02194153050075
 20
-7.920201493685148
 30
0.0
 11
13.38020924703618
 21
-7.920201493685148
 31
0.0
  0
LINE
  5
2BF4
330
1E
100
AcDbEntity
  8
7
100
AcDbLine
 10
13.25816200294169
 20
-7.920201493685148
 30
0.0
 11
13.25028798719366
 21
-7.928075509433181
 31
0.0
  0
LINE
  5
2C06
330
1E
100
AcDbEntity
  8
7
100
AcDbLine
 10
16.14005176672122
 20
-7.920201493685148
 30
0.0
 11
16.14792578246925
 21
-7.928075509433181
 31
0.0
  0
LINE
  5
2C18
330
1E
100
AcDbEntity
  8
7
100
AcDbLine
 10
13.38020924703618
 20
-6.353272359826881
 30
0.0
 11
16.02194153050075
 21
-6.353272359826881
 31
0.0
  0
LINE
  5
2C19
330
1E
100
AcDbEntity
  8
7
100
AcDbLine
 10
16.02194153050075
 20
-6.353272359826881
 30
0.0
 11
16.02981554624878
 21
-6.345398344078851
 31
0.0
  0
LINE
  5
2C1A
330
1E
100
AcDbEntity
  8
7
100
AcDbLine
 10
16.02981554624878
 20
-6.345398344078851
 30
0.0
 11
13.36839822341413
 21
-6.345398344078851
 31
0.0
  0
LINE
  5
2C1B
330
1E
100
AcDbEntity
  8
7
100
AcDbLine
 10
13.38020924703618
 20
-6.353272359826881
 30
0.0
 11
13.36839822341413
 21
-6.345398344078851
 31
0.0
  0
LINE
  5
2C1C
330
1E
100
AcDbEntity
  8
7
100
AcDbLine
 10
16.02194153050075
 20
-6.471382596047355
 30
0.0
 11
13.38020924703618
 21
-6.471382596047355
 31
0.0
  0
LINE
  5
2C2D
330
1E
100
AcDbEntity
  8
7
100
AcDbLine
 10
13.25028798719366
 20
-6.463508580299322
 30
0.0
 11
13.25816200294169
 21
-6.471382596047355
 31
0.0
  0
LINE
  5
2C3F
330
1E
100
AcDbEntity
  8
7
100
AcDbLine
 10
16.14792578246925
 20
-6.463508580299322
 30
0.0
 11
16.14005176672122
 21
-6.471382596047355
 31
0.0
  0
LINE
  5
2C4B
330
1E
100
AcDbEntity
  8
7
100
AcDbLine
 10
16.02194153050075
 20
-6.471382596047355
 30
0.0
 11
16.02194153050075
 21
-7.920201493685148
 31
0.0
  0
LINE
  5
2C4C
330
1E
100
AcDbEntity
  8
7
100
AcDbLine
 10
16.14005176672122
 20
-7.920201493685148
 30
0.0
 11
16.14005176672122
 21
-6.471382596047355
 31
0.0
  0
LINE
  5
2C4D
330
1E
100
AcDbEntity
  8
7
100
AcDbLine
 10
16.14792578246925
 20
-6.463508580299322
 30
0.0
 11
16.14792578246925
 21
-7.928075509433181
 31
0.0
  0
LINE
  5
2C4E
330
1E
100
AcDbEntity
  8
7
100
AcDbLine
 10
13.25816200294169
 20
-7.920201493685148
 30
0.0
 11
13.25816200294169
 21
-6.471382596047355
 31
0.0
  0
LINE
  5
2C4F
330
1E
100
AcDbEntity
  8
7
100
AcDbLine
 10
13.38020924703618
 20
-6.471382596047355
 30
0.0
 11
13.38020924703618
 21
-7.920201493685148
 31
0.0
  0
LINE
  5
2C50
330
1E
100
AcDbEntity
  8
7
100
AcDbLine
 10
13.25028798719366
 20
-6.463508580299322
 30
0.0
 11
13.25028798719366
 21
-7.928075509433181
 31
0.0
  0
LINE
  5
2C51
330
1E
100
AcDbEntity
  8
7
100
AcDbLine
 10
14.88414625491019
 20
-8.144610942504044
 30
0.0
 11
14.51406751475271
 21
-8.144610942504044
 31
0.0
  0
LINE
  5
2C52
330
1E
100
AcDbEntity
  8
7
100
AcDbLine
 10
14.89595727853224
 20
-8.034374722031607
 30
0.0
 11
14.88414625491019
 21
-8.144610942504044
 31
0.0
  0
LINE
  5
2C53
330
1E
100
AcDbEntity
  8
7
100
AcDbLine
 10
14.50225649113067
 20
-8.034374722031607
 30
0.0
 11
14.51406751475271
 21
-8.144610942504044
 31
0.0
  0
LINE
  5
2C54
330
1E
100
AcDbEntity
  8
7
100
AcDbLine
 10
-0.3756962647748416
 20
-8.03831172990562
 30
0.0
 11
-0.3756962647748416
 21
-8.050122753527665
 31
0.0
  0
LINE
  5
2C55
330
1E
100
AcDbEntity
  8
7
100
AcDbLine
 10
-0.3756962647748416
 20
-8.03831172990562
 30
0.0
 11
-1.194593902570115
 21
-8.038311729905618
 31
0.0
  0
LINE
  5
2C56
330
1E
100
AcDbEntity
  8
7
100
AcDbLine
 10
-1.206404926192163
 20
-8.050122753527663
 30
0.0
 11
-1.194593902570115
 21
-8.038311729905618
 31
0.0
  0
LINE
  5
2C57
330
1E
100
AcDbEntity
  8
7
100
AcDbLine
 10
-0.3756962647748416
 20
-8.050122753527665
 30
0.0
 11
-1.206404926192163
 21
-8.050122753527663
 31
0.0
  0
LINE
  5
2C58
330
1E
100
AcDbEntity
  8
7
100
AcDbLine
 10
1.388083262784217
 20
-7.447760548803257
 30
0.0
 11
1.388083262784217
 21
-6.802091257464672
 31
0.0
  0
LINE
  5
2C59
330
1E
100
AcDbEntity
  8
7
100
AcDbLine
 10
-1.139475792333893
 20
-7.447760548803255
 30
0.0
 11
-1.139475792333893
 21
-6.80209125746467
 31
0.0
  0
LINE
  5
2C5A
330
1E
100
AcDbEntity
  8
7
100
AcDbLine
 10
-0.3756962647748416
 20
-8.034374722031605
 30
0.0
 11
0.6243037352251584
 21
-8.034374722031605
 31
0.0
  0
LINE
  5
2C5B
330
1E
100
AcDbEntity
  8
7
100
AcDbLine
 10
-0.5607356348535788
 20
-6.80209125746467
 30
0.0
 11
-1.139475792333893
 21
-6.80209125746467
 31
0.0
  0
LINE
  5
2C5C
330
1E
100
AcDbEntity
  8
7
100
AcDbLine
 10
0.0888706643590176
 20
-6.802091257464672
 30
0.0
 11
-0.4898694931212973
 21
-6.80209125746467
 31
0.0
  0
LINE
  5
2C5D
330
1E
100
AcDbEntity
  8
7
100
AcDbLine
 10
-0.5607356348535788
 20
-7.447760548803255
 30
0.0
 11
-0.5607356348535788
 21
-6.80209125746467
 31
0.0
  0
LINE
  5
2C5E
330
1E
100
AcDbEntity
  8
7
100
AcDbLine
 10
-0.5607356348535788
 20
-7.447760548803255
 30
0.0
 11
-1.139475792333893
 21
-7.447760548803255
 31
0.0
  0
LINE
  5
2C5F
330
1E
100
AcDbEntity
  8
7
100
AcDbLine
 10
0.0888706643590176
 20
-7.447760548803257
 30
0.0
 11
0.0888706643590176
 21
-6.802091257464672
 31
0.0
  0
LINE
  5
2C60
330
1E
100
AcDbEntity
  8
7
100
AcDbLine
 10
0.0888706643590176
 20
-7.447760548803257
 30
0.0
 11
-0.4898694931212973
 21
-7.447760548803255
 31
0.0
  0
LINE
  5
2C61
330
1E
100
AcDbEntity
  8
7
100
AcDbLine
 10
-0.4898694931212973
 20
-7.447760548803255
 30
0.0
 11
-0.4898694931212973
 21
-6.80209125746467
 31
0.0
  0
LINE
  5
2C62
330
1E
100
AcDbEntity
  8
7
100
AcDbLine
 10
0.7384769635716176
 20
-6.802091257464672
 30
0.0
 11
0.1597368060913027
 21
-6.802091257464672
 31
0.0
  0
LINE
  5
2C63
330
1E
100
AcDbEntity
  8
7
100
AcDbLine
 10
0.1597368060913027
 20
-7.447760548803257
 30
0.0
 11
0.1597368060913027
 21
-6.802091257464672
 31
0.0
  0
LINE
  5
2C64
330
1E
100
AcDbEntity
  8
7
100
AcDbLine
 10
0.7384769635716176
 20
-7.447760548803257
 30
0.0
 11
0.1597368060913027
 21
-7.447760548803257
 31
0.0
  0
LINE
  5
2C65
330
1E
100
AcDbEntity
  8
7
100
AcDbLine
 10
0.7384769635716176
 20
-7.447760548803257
 30
0.0
 11
0.7384769635716176
 21
-6.802091257464672
 31
0.0
  0
LINE
  5
2C66
330
1E
100
AcDbEntity
  8
7
100
AcDbLine
 10
1.388083262784217
 20
-6.802091257464672
 30
0.0
 11
0.809343105303899
 21
-6.802091257464672
 31
0.0
  0
LINE
  5
2C67
330
1E
100
AcDbEntity
  8
7
100
AcDbLine
 10
0.809343105303899
 20
-7.447760548803257
 30
0.0
 11
0.809343105303899
 21
-6.802091257464672
 31
0.0
  0
LINE
  5
2C68
330
1E
100
AcDbEntity
  8
7
100
AcDbLine
 10
1.388083262784217
 20
-7.447760548803257
 30
0.0
 11
0.809343105303899
 21
-7.447760548803257
 31
0.0
  0
LINE
  5
2C69
330
1E
100
AcDbEntity
  8
7
100
AcDbLine
 10
0.6243037352251584
 20
-8.050122753527665
 30
0.0
 11
0.6243037352251584
 21
-8.03831172990562
 31
0.0
  0
LINE
  5
2C6A
330
1E
100
AcDbEntity
  8
7
100
AcDbLine
 10
1.455012396642484
 20
-8.050122753527665
 30
0.0
 11
0.6243037352251584
 21
-8.050122753527665
 31
0.0
  0
LINE
  5
2C6B
330
1E
100
AcDbEntity
  8
7
100
AcDbLine
 10
1.455012396642484
 20
-8.050122753527665
 30
0.0
 11
1.443201373020436
 21
-8.03831172990562
 31
0.0
  0
LINE
  5
2C6C
330
1E
100
AcDbEntity
  8
7
100
AcDbLine
 10
1.443201373020436
 20
-8.03831172990562
 30
0.0
 11
0.6243037352251584
 21
-8.03831172990562
 31
0.0
  0
LINE
  5
2C6D
330
1E
100
AcDbEntity
  8
7
100
AcDbLine
 10
-0.3756962647748416
 20
-8.03831172990562
 30
0.0
 11
-0.3756962647748416
 21
-8.034374722031605
 31
0.0
  0
LINE
  5
2C6E
330
1E
100
AcDbEntity
  8
7
100
AcDbLine
 10
0.6243037352251584
 20
-8.034374722031605
 30
0.0
 11
0.6243037352251584
 21
-8.03831172990562
 31
0.0
  0
LINE
  5
2C74
330
1E
100
AcDbEntity
  8
7
100
AcDbLine
 10
1.443201373020436
 20
-7.920201493685146
 30
0.0
 11
-1.194593902570115
 21
-7.920201493685144
 31
0.0
  0
LINE
  5
2C7A
330
1E
100
AcDbEntity
  8
7
100
AcDbLine
 10
-1.316641146664604
 20
-7.920201493685144
 30
0.0
 11
-1.324515162412634
 21
-7.928075509433178
 31
0.0
  0
LINE
  5
2C8C
330
1E
100
AcDbEntity
  8
7
100
AcDbLine
 10
1.565248617114921
 20
-7.920201493685146
 30
0.0
 11
1.573122632862954
 21
-7.928075509433179
 31
0.0
  0
LINE
  5
2C9E
330
1E
100
AcDbEntity
  8
7
100
AcDbLine
 10
-1.194593902570115
 20
-6.353272359826878
 30
0.0
 11
1.443201373020436
 21
-6.353272359826879
 31
0.0
  0
LINE
  5
2C9F
330
1E
100
AcDbEntity
  8
7
100
AcDbLine
 10
1.443201373020436
 20
-6.353272359826879
 30
0.0
 11
1.455012396642484
 21
-6.34539834407885
 31
0.0
  0
LINE
  5
2CA0
330
1E
100
AcDbEntity
  8
7
100
AcDbLine
 10
1.455012396642484
 20
-6.34539834407885
 30
0.0
 11
-1.206404926192163
 21
-6.345398344078848
 31
0.0
  0
LINE
  5
2CA1
330
1E
100
AcDbEntity
  8
7
100
AcDbLine
 10
-1.194593902570115
 20
-6.353272359826878
 30
0.0
 11
-1.206404926192163
 21
-6.345398344078848
 31
0.0
  0
LINE
  5
2CA2
330
1E
100
AcDbEntity
  8
7
100
AcDbLine
 10
1.443201373020436
 20
-6.471382596047353
 30
0.0
 11
-1.194593902570115
 21
-6.471382596047352
 31
0.0
  0
LINE
  5
2CB3
330
1E
100
AcDbEntity
  8
7
100
AcDbLine
 10
-1.324515162412634
 20
-6.463508580299318
 30
0.0
 11
-1.316641146664604
 21
-6.471382596047352
 31
0.0
  0
LINE
  5
2CC5
330
1E
100
AcDbEntity
  8
7
100
AcDbLine
 10
1.573122632862954
 20
-6.46350858029932
 30
0.0
 11
1.565248617114921
 21
-6.471382596047353
 31
0.0
  0
LINE
  5
2CD1
330
1E
100
AcDbEntity
  8
7
100
AcDbLine
 10
1.443201373020436
 20
-6.471382596047353
 30
0.0
 11
1.443201373020436
 21
-7.920201493685146
 31
0.0
  0
LINE
  5
2CD2
330
1E
100
AcDbEntity
  8
7
100
AcDbLine
 10
1.565248617114921
 20
-7.920201493685146
 30
0.0
 11
1.565248617114921
 21
-6.471382596047353
 31
0.0
  0
LINE
  5
2CD3
330
1E
100
AcDbEntity
  8
7
100
AcDbLine
 10
1.573122632862954
 20
-6.46350858029932
 30
0.0
 11
1.573122632862954
 21
-7.928075509433179
 31
0.0
  0
LINE
  5
2CD4
330
1E
100
AcDbEntity
  8
7
100
AcDbLine
 10
-1.316641146664604
 20
-7.920201493685144
 30
0.0
 11
-1.316641146664604
 21
-6.471382596047352
 31
0.0
  0
LINE
  5
2CD5
330
1E
100
AcDbEntity
  8
7
100
AcDbLine
 10
-1.194593902570115
 20
-6.471382596047352
 30
0.0
 11
-1.194593902570115
 21
-7.920201493685144
 31
0.0
  0
LINE
  5
2CD6
330
1E
100
AcDbEntity
  8
7
100
AcDbLine
 10
-1.324515162412634
 20
-6.463508580299318
 30
0.0
 11
-1.324515162412634
 21
-7.928075509433178
 31
0.0
  0
LINE
  5
2CD7
330
1E
100
AcDbEntity
  8
7
100
AcDbLine
 10
0.3093431053038991
 20
-8.144610942504042
 30
0.0
 11
-0.0607356348535788
 21
-8.144610942504042
 31
0.0
  0
LINE
  5
2CD8
330
1E
100
AcDbEntity
  8
7
100
AcDbLine
 10
0.3211541289259472
 20
-8.034374722031605
 30
0.0
 11
0.3093431053038991
 21
-8.144610942504042
 31
0.0
  0
LINE
  5
2CD9
330
1E
100
AcDbEntity
  8
7
100
AcDbLine
 10
-0.0725466584756269
 20
-8.034374722031605
 30
0.0
 11
-0.0607356348535788
 21
-8.144610942504042
 31
0.0
  0
LINE
  5
2CDA
330
1E
100
AcDbEntity
  8
7
100
AcDbLine
 10
2.537689561996813
 20
-8.03831172990562
 30
0.0
 11
2.537689561996813
 21
-8.050122753527665
 31
0.0
  0
LINE
  5
2CDB
330
1E
100
AcDbEntity
  8
7
100
AcDbLine
 10
2.537689561996813
 20
-8.03831172990562
 30
0.0
 11
1.718791924201536
 21
-8.03831172990562
 31
0.0
  0
LINE
  5
2CDC
330
1E
100
AcDbEntity
  8
7
100
AcDbLine
 10
1.710917908453506
 20
-8.050122753527665
 30
0.0
 11
1.718791924201536
 21
-8.03831172990562
 31
0.0
  0
LINE
  5
2CDD
330
1E
100
AcDbEntity
  8
7
100
AcDbLine
 10
2.537689561996813
 20
-8.050122753527665
 30
0.0
 11
1.710917908453506
 21
-8.050122753527665
 31
0.0
  0
LINE
  5
2CDE
330
1E
100
AcDbEntity
  8
7
100
AcDbLine
 10
4.305406097429884
 20
-7.447760548803257
 30
0.0
 11
4.305406097429884
 21
-6.802091257464672
 31
0.0
  0
LINE
  5
2CDF
330
1E
100
AcDbEntity
  8
7
100
AcDbLine
 10
1.773910034437758
 20
-7.447760548803257
 30
0.0
 11
1.773910034437758
 21
-6.802091257464672
 31
0.0
  0
LINE
  5
2CE0
330
1E
100
AcDbEntity
  8
7
100
AcDbLine
 10
2.541626569870828
 20
-8.034374722031605
 30
0.0
 11
3.541626569870828
 21
-8.034374722031605
 31
0.0
  0
LINE
  5
2CE1
330
1E
100
AcDbEntity
  8
7
100
AcDbLine
 10
2.356587199792091
 20
-6.802091257464672
 30
0.0
 11
1.773910034437758
 21
-6.802091257464672
 31
0.0
  0
LINE
  5
2CE2
330
1E
100
AcDbEntity
  8
7
100
AcDbLine
 10
3.006193499004687
 20
-6.802091257464672
 30
0.0
 11
2.423516333650358
 21
-6.802091257464672
 31
0.0
  0
LINE
  5
2CE3
330
1E
100
AcDbEntity
  8
7
100
AcDbLine
 10
2.356587199792091
 20
-7.447760548803257
 30
0.0
 11
2.356587199792091
 21
-6.802091257464672
 31
0.0
  0
LINE
  5
2CE4
330
1E
100
AcDbEntity
  8
7
100
AcDbLine
 10
2.356587199792091
 20
-7.447760548803257
 30
0.0
 11
1.773910034437758
 21
-7.447760548803257
 31
0.0
  0
LINE
  5
2CE5
330
1E
100
AcDbEntity
  8
7
100
AcDbLine
 10
3.006193499004687
 20
-7.447760548803257
 30
0.0
 11
3.006193499004687
 21
-6.802091257464672
 31
0.0
  0
LINE
  5
2CE6
330
1E
100
AcDbEntity
  8
7
100
AcDbLine
 10
3.006193499004687
 20
-7.447760548803257
 30
0.0
 11
2.423516333650358
 21
-7.447760548803257
 31
0.0
  0
LINE
  5
2CE7
330
1E
100
AcDbEntity
  8
7
100
AcDbLine
 10
2.423516333650358
 20
-7.447760548803257
 30
0.0
 11
2.423516333650358
 21
-6.802091257464672
 31
0.0
  0
LINE
  5
2CE8
330
1E
100
AcDbEntity
  8
7
100
AcDbLine
 10
3.655799798217284
 20
-6.802091257464672
 30
0.0
 11
3.073122632862954
 21
-6.802091257464672
 31
0.0
  0
LINE
  5
2CE9
330
1E
100
AcDbEntity
  8
7
100
AcDbLine
 10
3.073122632862954
 20
-7.447760548803257
 30
0.0
 11
3.073122632862954
 21
-6.802091257464672
 31
0.0
  0
LINE
  5
2CEA
330
1E
100
AcDbEntity
  8
7
100
AcDbLine
 10
3.655799798217284
 20
-7.447760548803257
 30
0.0
 11
3.073122632862954
 21
-7.447760548803257
 31
0.0
  0
LINE
  5
2CEB
330
1E
100
AcDbEntity
  8
7
100
AcDbLine
 10
3.655799798217284
 20
-7.447760548803257
 30
0.0
 11
3.655799798217284
 21
-6.802091257464672
 31
0.0
  0
LINE
  5
2CEC
330
1E
100
AcDbEntity
  8
7
100
AcDbLine
 10
4.305406097429884
 20
-6.802091257464672
 30
0.0
 11
3.726665939949569
 21
-6.802091257464672
 31
0.0
  0
LINE
  5
2CED
330
1E
100
AcDbEntity
  8
7
100
AcDbLine
 10
3.726665939949569
 20
-7.447760548803257
 30
0.0
 11
3.726665939949569
 21
-6.802091257464672
 31
0.0
  0
LINE
  5
2CEE
330
1E
100
AcDbEntity
  8
7
100
AcDbLine
 10
4.305406097429884
 20
-7.447760548803257
 30
0.0
 11
3.726665939949569
 21
-7.447760548803257
 31
0.0
  0
LINE
  5
2CEF
330
1E
100
AcDbEntity
  8
7
100
AcDbLine
 10
3.541626569870828
 20
-8.050122753527665
 30
0.0
 11
3.541626569870828
 21
-8.03831172990562
 31
0.0
  0
LINE
  5
2CF0
330
1E
100
AcDbEntity
  8
7
100
AcDbLine
 10
4.368398223414136
 20
-8.050122753527665
 30
0.0
 11
3.541626569870828
 21
-8.050122753527665
 31
0.0
  0
LINE
  5
2CF1
330
1E
100
AcDbEntity
  8
7
100
AcDbLine
 10
4.368398223414136
 20
-8.050122753527665
 30
0.0
 11
4.360524207666106
 21
-8.03831172990562
 31
0.0
  0
LINE
  5
2CF2
330
1E
100
AcDbEntity
  8
7
100
AcDbLine
 10
4.360524207666106
 20
-8.03831172990562
 30
0.0
 11
3.541626569870828
 21
-8.03831172990562
 31
0.0
  0
LINE
  5
2CF3
330
1E
100
AcDbEntity
  8
7
100
AcDbLine
 10
2.537689561996813
 20
-8.03831172990562
 30
0.0
 11
2.541626569870828
 21
-8.034374722031605
 31
0.0
  0
LINE
  5
2CF4
330
1E
100
AcDbEntity
  8
7
100
AcDbLine
 10
3.541626569870828
 20
-8.034374722031605
 30
0.0
 11
3.541626569870828
 21
-8.03831172990562
 31
0.0
  0
LINE
  5
2CFA
330
1E
100
AcDbEntity
  8
7
100
AcDbLine
 10
4.360524207666106
 20
-7.920201493685146
 30
0.0
 11
1.718791924201536
 21
-7.920201493685146
 31
0.0
  0
LINE
  5
2D00
330
1E
100
AcDbEntity
  8
7
100
AcDbLine
 10
1.600681687981065
 20
-7.920201493685146
 30
0.0
 11
1.588870664359017
 21
-7.928075509433179
 31
0.0
  0
LINE
  5
2D12
330
1E
100
AcDbEntity
  8
7
100
AcDbLine
 10
4.478634443886576
 20
-7.920201493685146
 30
0.0
 11
4.490445467508624
 21
-7.928075509433179
 31
0.0
  0
LINE
  5
2D24
330
1E
100
AcDbEntity
  8
7
100
AcDbLine
 10
1.718791924201536
 20
-6.353272359826879
 30
0.0
 11
4.360524207666106
 21
-6.353272359826879
 31
0.0
  0
LINE
  5
2D25
330
1E
100
AcDbEntity
  8
7
100
AcDbLine
 10
4.360524207666106
 20
-6.353272359826879
 30
0.0
 11
4.368398223414136
 21
-6.34539834407885
 31
0.0
  0
LINE
  5
2D26
330
1E
100
AcDbEntity
  8
7
100
AcDbLine
 10
4.368398223414136
 20
-6.34539834407885
 30
0.0
 11
1.710917908453506
 21
-6.34539834407885
 31
0.0
  0
LINE
  5
2D27
330
1E
100
AcDbEntity
  8
7
100
AcDbLine
 10
1.718791924201536
 20
-6.353272359826879
 30
0.0
 11
1.710917908453506
 21
-6.34539834407885
 31
0.0
  0
LINE
  5
2D28
330
1E
100
AcDbEntity
  8
7
100
AcDbLine
 10
4.360524207666106
 20
-6.471382596047353
 30
0.0
 11
1.718791924201536
 21
-6.471382596047353
 31
0.0
  0
LINE
  5
2D39
330
1E
100
AcDbEntity
  8
7
100
AcDbLine
 10
1.588870664359017
 20
-6.46350858029932
 30
0.0
 11
1.600681687981065
 21
-6.471382596047353
 31
0.0
  0
LINE
  5
2D4B
330
1E
100
AcDbEntity
  8
7
100
AcDbLine
 10
4.490445467508624
 20
-6.46350858029932
 30
0.0
 11
4.478634443886576
 21
-6.471382596047353
 31
0.0
  0
LINE
  5
2D57
330
1E
100
AcDbEntity
  8
7
100
AcDbLine
 10
4.360524207666106
 20
-6.471382596047353
 30
0.0
 11
4.360524207666106
 21
-7.920201493685146
 31
0.0
  0
LINE
  5
2D58
330
1E
100
AcDbEntity
  8
7
100
AcDbLine
 10
4.478634443886576
 20
-7.920201493685146
 30
0.0
 11
4.478634443886576
 21
-6.471382596047353
 31
0.0
  0
LINE
  5
2D59
330
1E
100
AcDbEntity
  8
7
100
AcDbLine
 10
4.490445467508624
 20
-6.46350858029932
 30
0.0
 11
4.490445467508624
 21
-7.928075509433179
 31
0.0
  0
LINE
  5
2D5A
330
1E
100
AcDbEntity
  8
7
100
AcDbLine
 10
1.600681687981065
 20
-7.920201493685146
 30
0.0
 11
1.600681687981065
 21
-6.471382596047353
 31
0.0
  0
LINE
  5
2D5B
330
1E
100
AcDbEntity
  8
7
100
AcDbLine
 10
1.718791924201536
 20
-6.471382596047353
 30
0.0
 11
1.718791924201536
 21
-7.920201493685146
 31
0.0
  0
LINE
  5
2D5C
330
1E
100
AcDbEntity
  8
7
100
AcDbLine
 10
1.588870664359017
 20
-6.46350858029932
 30
0.0
 11
1.588870664359017
 21
-7.928075509433179
 31
0.0
  0
LINE
  5
2D5D
330
1E
100
AcDbEntity
  8
7
100
AcDbLine
 10
3.226665939949569
 20
-8.144610942504042
 30
0.0
 11
2.852650191918073
 21
-8.144610942504042
 31
0.0
  0
LINE
  5
2D5E
330
1E
100
AcDbEntity
  8
7
100
AcDbLine
 10
3.238476963571617
 20
-8.034374722031605
 30
0.0
 11
3.226665939949569
 21
-8.144610942504042
 31
0.0
  0
LINE
  5
2D5F
330
1E
100
AcDbEntity
  8
7
100
AcDbLine
 10
2.840839168296025
 20
-8.034374722031605
 30
0.0
 11
2.852650191918073
 21
-8.144610942504042
 31
0.0
  0
LINE
  5
2D60
330
1E
100
AcDbEntity
  8
7
100
AcDbLine
 10
5.455012396642484
 20
-8.03831172990562
 30
0.0
 11
5.455012396642484
 21
-8.050122753527665
 31
0.0
  0
LINE
  5
2D61
330
1E
100
AcDbEntity
  8
7
100
AcDbLine
 10
5.455012396642484
 20
-8.03831172990562
 30
0.0
 11
4.63611475884721
 21
-8.03831172990562
 31
0.0
  0
LINE
  5
2D62
330
1E
100
AcDbEntity
  8
7
100
AcDbLine
 10
4.624303735225158
 20
-8.050122753527665
 30
0.0
 11
4.63611475884721
 21
-8.03831172990562
 31
0.0
  0
LINE
  5
2D63
330
1E
100
AcDbEntity
  8
7
100
AcDbLine
 10
5.455012396642484
 20
-8.050122753527665
 30
0.0
 11
4.624303735225158
 21
-8.050122753527665
 31
0.0
  0
LINE
  5
2D64
330
1E
100
AcDbEntity
  8
7
100
AcDbLine
 10
7.218791924201536
 20
-7.447760548803257
 30
0.0
 11
7.218791924201536
 21
-6.802091257464672
 31
0.0
  0
LINE
  5
2D65
330
1E
100
AcDbEntity
  8
7
100
AcDbLine
 10
4.691232869083428
 20
-7.447760548803257
 30
0.0
 11
4.691232869083428
 21
-6.802091257464672
 31
0.0
  0
LINE
  5
2D66
330
1E
100
AcDbEntity
  8
7
100
AcDbLine
 10
5.455012396642484
 20
-8.034374722031605
 30
0.0
 11
6.455012396642484
 21
-8.034374722031605
 31
0.0
  0
LINE
  5
2D67
330
1E
100
AcDbEntity
  8
7
100
AcDbLine
 10
5.269973026563743
 20
-6.802091257464672
 30
0.0
 11
4.691232869083428
 21
-6.802091257464672
 31
0.0
  0
LINE
  5
2D68
330
1E
100
AcDbEntity
  8
7
100
AcDbLine
 10
5.919579325776343
 20
-6.802091257464672
 30
0.0
 11
5.340839168296025
 21
-6.802091257464672
 31
0.0
  0
LINE
  5
2D69
330
1E
100
AcDbEntity
  8
7
100
AcDbLine
 10
5.269973026563743
 20
-7.447760548803257
 30
0.0
 11
5.269973026563743
 21
-6.802091257464672
 31
0.0
  0
LINE
  5
2D6A
330
1E
100
AcDbEntity
  8
7
100
AcDbLine
 10
5.269973026563743
 20
-7.447760548803257
 30
0.0
 11
4.691232869083428
 21
-7.447760548803257
 31
0.0
  0
LINE
  5
2D6B
330
1E
100
AcDbEntity
  8
7
100
AcDbLine
 10
5.919579325776343
 20
-7.447760548803257
 30
0.0
 11
5.919579325776343
 21
-6.802091257464672
 31
0.0
  0
LINE
  5
2D6C
330
1E
100
AcDbEntity
  8
7
100
AcDbLine
 10
5.919579325776343
 20
-7.447760548803257
 30
0.0
 11
5.340839168296025
 21
-7.447760548803257
 31
0.0
  0
LINE
  5
2D6D
330
1E
100
AcDbEntity
  8
7
100
AcDbLine
 10
5.340839168296025
 20
-7.447760548803257
 30
0.0
 11
5.340839168296025
 21
-6.802091257464672
 31
0.0
  0
LINE
  5
2D6E
330
1E
100
AcDbEntity
  8
7
100
AcDbLine
 10
6.569185624988939
 20
-6.802091257464672
 30
0.0
 11
5.990445467508624
 21
-6.802091257464672
 31
0.0
  0
LINE
  5
2D6F
330
1E
100
AcDbEntity
  8
7
100
AcDbLine
 10
5.990445467508624
 20
-7.447760548803257
 30
0.0
 11
5.990445467508624
 21
-6.802091257464672
 31
0.0
  0
LINE
  5
2D70
330
1E
100
AcDbEntity
  8
7
100
AcDbLine
 10
6.569185624988939
 20
-7.447760548803257
 30
0.0
 11
5.990445467508624
 21
-7.447760548803257
 31
0.0
  0
LINE
  5
2D71
330
1E
100
AcDbEntity
  8
7
100
AcDbLine
 10
6.569185624988939
 20
-7.447760548803257
 30
0.0
 11
6.569185624988939
 21
-6.802091257464672
 31
0.0
  0
LINE
  5
2D72
330
1E
100
AcDbEntity
  8
7
100
AcDbLine
 10
7.218791924201536
 20
-6.802091257464672
 30
0.0
 11
6.640051766721224
 21
-6.802091257464672
 31
0.0
  0
LINE
  5
2D73
330
1E
100
AcDbEntity
  8
7
100
AcDbLine
 10
6.640051766721224
 20
-7.447760548803257
 30
0.0
 11
6.640051766721224
 21
-6.802091257464672
 31
0.0
  0
LINE
  5
2D74
330
1E
100
AcDbEntity
  8
7
100
AcDbLine
 10
7.218791924201536
 20
-7.447760548803257
 30
0.0
 11
6.640051766721224
 21
-7.447760548803257
 31
0.0
  0
LINE
  5
2D75
330
1E
100
AcDbEntity
  8
7
100
AcDbLine
 10
6.455012396642484
 20
-8.050122753527665
 30
0.0
 11
6.455012396642484
 21
-8.03831172990562
 31
0.0
  0
LINE
  5
2D76
330
1E
100
AcDbEntity
  8
7
100
AcDbLine
 10
7.285721058059806
 20
-8.050122753527665
 30
0.0
 11
6.455012396642484
 21
-8.050122753527665
 31
0.0
  0
LINE
  5
2D77
330
1E
100
AcDbEntity
  8
7
100
AcDbLine
 10
7.285721058059806
 20
-8.050122753527665
 30
0.0
 11
7.273910034437758
 21
-8.03831172990562
 31
0.0
  0
LINE
  5
2D78
330
1E
100
AcDbEntity
  8
7
100
AcDbLine
 10
7.273910034437758
 20
-8.03831172990562
 30
0.0
 11
6.455012396642484
 21
-8.03831172990562
 31
0.0
  0
LINE
  5
2D79
330
1E
100
AcDbEntity
  8
7
100
AcDbLine
 10
5.455012396642484
 20
-8.03831172990562
 30
0.0
 11
5.455012396642484
 21
-8.034374722031605
 31
0.0
  0
LINE
  5
2D7A
330
1E
100
AcDbEntity
  8
7
100
AcDbLine
 10
6.455012396642484
 20
-8.034374722031605
 30
0.0
 11
6.455012396642484
 21
-8.03831172990562
 31
0.0
  0
LINE
  5
2D80
330
1E
100
AcDbEntity
  8
7
100
AcDbLine
 10
7.273910034437758
 20
-7.920201493685146
 30
0.0
 11
4.63611475884721
 21
-7.920201493685146
 31
0.0
  0
LINE
  5
2D86
330
1E
100
AcDbEntity
  8
7
100
AcDbLine
 10
4.514067514752721
 20
-7.920201493685146
 30
0.0
 11
4.506193499004687
 21
-7.928075509433179
 31
0.0
  0
LINE
  5
2D98
330
1E
100
AcDbEntity
  8
7
100
AcDbLine
 10
7.395957278532247
 20
-7.920201493685146
 30
0.0
 11
7.403831294280276
 21
-7.928075509433179
 31
0.0
  0
LINE
  5
2DAA
330
1E
100
AcDbEntity
  8
7
100
AcDbLine
 10
4.63611475884721
 20
-6.353272359826879
 30
0.0
 11
7.273910034437758
 21
-6.353272359826879
 31
0.0
  0
LINE
  5
2DAB
330
1E
100
AcDbEntity
  8
7
100
AcDbLine
 10
7.273910034437758
 20
-6.353272359826879
 30
0.0
 11
7.285721058059806
 21
-6.34539834407885
 31
0.0
  0
LINE
  5
2DAC
330
1E
100
AcDbEntity
  8
7
100
AcDbLine
 10
7.285721058059806
 20
-6.34539834407885
 30
0.0
 11
4.624303735225158
 21
-6.34539834407885
 31
0.0
  0
LINE
  5
2DAD
330
1E
100
AcDbEntity
  8
7
100
AcDbLine
 10
4.63611475884721
 20
-6.353272359826879
 30
0.0
 11
4.624303735225158
 21
-6.34539834407885
 31
0.0
  0
LINE
  5
2DAE
330
1E
100
AcDbEntity
  8
7
100
AcDbLine
 10
7.273910034437758
 20
-6.471382596047353
 30
0.0
 11
4.63611475884721
 21
-6.471382596047353
 31
0.0
  0
LINE
  5
2DBF
330
1E
100
AcDbEntity
  8
7
100
AcDbLine
 10
4.506193499004687
 20
-6.46350858029932
 30
0.0
 11
4.514067514752721
 21
-6.471382596047353
 31
0.0
  0
LINE
  5
2DD1
330
1E
100
AcDbEntity
  8
7
100
AcDbLine
 10
7.403831294280276
 20
-6.46350858029932
 30
0.0
 11
7.395957278532247
 21
-6.471382596047353
 31
0.0
  0
LINE
  5
2DDD
330
1E
100
AcDbEntity
  8
7
100
AcDbLine
 10
7.273910034437758
 20
-6.471382596047353
 30
0.0
 11
7.273910034437758
 21
-7.920201493685146
 31
0.0
  0
LINE
  5
2DDE
330
1E
100
AcDbEntity
  8
7
100
AcDbLine
 10
7.395957278532247
 20
-7.920201493685146
 30
0.0
 11
7.395957278532247
 21
-6.471382596047353
 31
0.0
  0
LINE
  5
2DDF
330
1E
100
AcDbEntity
  8
7
100
AcDbLine
 10
7.403831294280276
 20
-6.46350858029932
 30
0.0
 11
7.403831294280276
 21
-7.928075509433179
 31
0.0
  0
LINE
  5
2DE0
330
1E
100
AcDbEntity
  8
7
100
AcDbLine
 10
4.514067514752721
 20
-7.920201493685146
 30
0.0
 11
4.514067514752721
 21
-6.471382596047353
 31
0.0
  0
LINE
  5
2DE1
330
1E
100
AcDbEntity
  8
7
100
AcDbLine
 10
4.63611475884721
 20
-6.471382596047353
 30
0.0
 11
4.63611475884721
 21
-7.920201493685146
 31
0.0
  0
LINE
  5
2DE2
330
1E
100
AcDbEntity
  8
7
100
AcDbLine
 10
4.506193499004687
 20
-6.46350858029932
 30
0.0
 11
4.506193499004687
 21
-7.928075509433179
 31
0.0
  0
LINE
  5
2DE3
330
1E
100
AcDbEntity
  8
7
100
AcDbLine
 10
6.140051766721224
 20
-8.144610942504042
 30
0.0
 11
5.769973026563743
 21
-8.144610942504042
 31
0.0
  0
LINE
  5
2DE4
330
1E
100
AcDbEntity
  8
7
100
AcDbLine
 10
6.151862790343269
 20
-8.034374722031605
 30
0.0
 11
6.140051766721224
 21
-8.144610942504042
 31
0.0
  0
LINE
  5
2DE5
330
1E
100
AcDbEntity
  8
7
100
AcDbLine
 10
5.758162002941695
 20
-8.034374722031605
 30
0.0
 11
5.769973026563743
 21
-8.144610942504042
 31
0.0
  0
LINE
  5
2DEB
330
1E
100
AcDbEntity
  8
7
100
AcDbLine
 10
-2.029239571861452
 20
-6.349335351952863
 30
0.0
 11
-1.54892461123153
 21
-6.349335351952863
 31
0.0
  0
LINE
  5
2DF1
330
1E
100
AcDbEntity
  8
7
100
AcDbLine
 10
-2.088294689971689
 20
-7.069807792897744
 30
0.0
 11
-2.088294689971689
 21
-6.4083904700631
 31
0.0
  0
LINE
  5
2DF2
330
1E
100
AcDbEntity
  8
7
100
AcDbLine
 10
-2.088294689971689
 20
-7.069807792897744
 30
0.0
 11
-1.647349808081926
 21
-7.069807792897744
 31
0.0
  0
LINE
  5
2E05
330
1E
100
AcDbEntity
  8
7
100
AcDbLine
 10
-1.686719886822086
 20
-6.723351099984359
 30
0.0
 11
-1.808767130916571
 21
-6.723351099984359
 31
0.0
  0
LINE
  5
2E0F
330
1E
100
AcDbEntity
  8
7
100
AcDbLine
 10
-1.808767130916571
 20
-6.443823540929241
 30
0.0
 11
-1.686719886822086
 21
-6.443823540929241
 31
0.0
  0
LINE
  5
2E22
330
1E
100
AcDbEntity
  8
7
100
AcDbLine
 10
16.25422499506768
 20
-6.46744558817334
 30
0.0
 11
16.14792578246925
 21
-6.46744558817334
 31
0.0
  0
LINE
  5
2E23
330
1E
100
AcDbEntity
  8
7
100
AcDbLine
 10
13.25028798719366
 20
-6.46744558817334
 30
0.0
 11
13.2345399556976
 21
-6.46744558817334
 31
0.0
  0
LINE
  5
2E24
330
1E
100
AcDbEntity
  8
7
100
AcDbLine
 10
10.33296515254799
 20
-6.46744558817334
 30
0.0
 11
10.32115412892594
 21
-6.46744558817334
 31
0.0
  0
LINE
  5
2E25
330
1E
100
AcDbEntity
  8
7
100
AcDbLine
 10
7.419579325776343
 20
-6.467445588173339
 30
0.0
 11
7.403831294280276
 21
-6.467445588173339
 31
0.0
  0
LINE
  5
2E26
330
1E
100
AcDbEntity
  8
7
100
AcDbLine
 10
4.506193499004687
 20
-6.467445588173339
 30
0.0
 11
4.490445467508624
 21
-6.467445588173339
 31
0.0
  0
LINE
  5
2E27
330
1E
100
AcDbEntity
  8
7
100
AcDbLine
 10
1.588870664359017
 20
-6.467445588173339
 30
0.0
 11
1.573122632862954
 21
-6.467445588173339
 31
0.0
  0
LINE
  5
2E28
330
1E
100
AcDbEntity
  8
7
100
AcDbLine
 10
-1.324515162412634
 20
-6.467445588173337
 30
0.0
 11
-1.426877367137045
 21
-6.467445588173337
 31
0.0
  0
LINE
  5
2E36
330
1E
100
AcDbEntity
  8
7
100
AcDbLine
 10
-1.367822249026808
 20
-6.349335351952863
 30
0.0
 11
-1.237900989184289
 21
-6.349335351952863
 31
0.0
  0
LINE
  5
2E37
330
1E
100
AcDbEntity
  8
7
100
AcDbLine
 10
1.490445467508624
 20
-6.349335351952865
 30
0.0
 11
1.675484837587365
 21
-6.349335351952865
 31
0.0
  0
LINE
  5
2E38
330
1E
100
AcDbEntity
  8
7
100
AcDbLine
 10
4.403831294280276
 20
-6.349335351952865
 30
0.0
 11
4.588870664359017
 21
-6.349335351952865
 31
0.0
  0
LINE
  5
2E39
330
1E
100
AcDbEntity
  8
7
100
AcDbLine
 10
7.321154128925947
 20
-6.349335351952865
 30
0.0
 11
7.506193499004687
 21
-6.349335351952865
 31
0.0
  0
LINE
  5
2E3A
330
1E
100
AcDbEntity
  8
7
100
AcDbLine
 10
10.2345399556976
 20
-6.349335351952866
 30
0.0
 11
10.41957932577634
 21
-6.349335351952866
 31
0.0
  0
LINE
  5
2E3B
330
1E
100
AcDbEntity
  8
7
100
AcDbLine
 10
13.14792578246925
 20
-6.349335351952866
 30
0.0
 11
13.33690216042201
 21
-6.349335351952866
 31
0.0
  0
LINE
  5
2E3C
330
1E
100
AcDbEntity
  8
7
100
AcDbLine
 10
16.06524861711492
 20
-6.349335351952866
 30
0.0
 11
16.19123286908342
 21
-6.349335351952866
 31
0.0
  0
LINE
  5
2E3D
330
1E
100
AcDbEntity
  8
7
100
AcDbLine
 10
16.51406751475271
 20
-7.691855036992237
 30
0.0
 11
16.63217775097319
 21
-7.691855036992237
 31
0.0
  0
LINE
  5
2E47
330
1E
100
AcDbEntity
  8
7
100
AcDbLine
 10
16.63217775097319
 20
-7.97531960392137
 30
0.0
 11
16.51406751475271
 21
-7.97531960392137
 31
0.0
  0
LINE
  5
2E51
330
1E
100
AcDbEntity
  8
7
100
AcDbLine
 10
-1.808767130916571
 20
-7.691855036992233
 30
0.0
 11
-1.686719886822086
 21
-7.691855036992233
 31
0.0
  0
LINE
  5
2E5B
330
1E
100
AcDbEntity
  8
7
100
AcDbLine
 10
-1.686719886822086
 20
-7.975319603921366
 30
0.0
 11
-1.808767130916571
 21
-7.975319603921366
 31
0.0
  0
LINE
  5
2E65
330
1E
100
AcDbEntity
  8
7
100
AcDbLine
 10
16.63217775097319
 20
-6.723351099984363
 30
0.0
 11
16.51406751475271
 21
-6.723351099984363
 31
0.0
  0
LINE
  5
2E6F
330
1E
100
AcDbEntity
  8
7
100
AcDbLine
 10
16.51406751475271
 20
-6.443823540929244
 30
0.0
 11
16.63217775097319
 21
-6.443823540929244
 31
0.0
  0
LINE
  5
2E79
330
1E
100
AcDbEntity
  8
7
100
AcDbLine
 10
16.91170531002831
 20
-7.47531960392137
 30
0.0
 11
16.91170531002831
 21
-8.006815666913496
 31
0.0
  0
LINE
  5
2E7A
330
1E
100
AcDbEntity
  8
7
100
AcDbLine
 10
16.91170531002831
 20
-7.47531960392137
 30
0.0
 11
16.7857210580598
 21
-7.349335351952866
 31
0.0
  0
LINE
  5
2E7B
330
1E
100
AcDbEntity
  8
7
100
AcDbLine
 10
16.7857210580598
 20
-7.349335351952866
 30
0.0
 11
16.47076042813854
 21
-7.349335351952866
 31
0.0
  0
LINE
  5
2E85
330
1E
100
AcDbEntity
  8
7
100
AcDbLine
 10
16.47076042813854
 20
-7.069807792897748
 30
0.0
 11
16.91170531002831
 21
-7.069807792897748
 31
0.0
  0
LINE
  5
2E86
330
1E
100
AcDbEntity
  8
7
100
AcDbLine
 10
16.91170531002831
 20
-6.408390470063103
 30
0.0
 11
16.91170531002831
 21
-7.069807792897748
 31
0.0
  0
LINE
  5
2E8C
330
1E
100
AcDbEntity
  8
7
100
AcDbLine
 10
16.37233523128815
 20
-6.349335351952866
 30
0.0
 11
16.85265019191807
 21
-6.349335351952866
 31
0.0
  0
LINE
  5
2E97
330
1E
100
AcDbEntity
  8
7
100
AcDbLine
 10
-1.647349808081926
 20
-7.349335351952863
 30
0.0
 11
-2.088294689971689
 21
-7.349335351952863
 31
0.0
  0
LINE
  5
2E98
330
1E
100
AcDbEntity
  8
7
100
AcDbLine
 10
-2.088294689971689
 20
-8.006815666913492
 30
0.0
 11
-2.088294689971689
 21
-7.349335351952863
 31
0.0
  0
LINE
  5
2E9E
330
1E
100
AcDbEntity
  8
7
100
AcDbLine
 10
-1.54892461123153
 20
-8.069807792897744
 30
0.0
 11
-2.029239571861452
 21
-8.069807792897744
 31
0.0
  0
LINE
  5
2EA9
330
1E
100
AcDbEntity
  8
7
100
AcDbLine
 10
-1.426877367137045
 20
-7.947760548803255
 30
0.0
 11
-1.324515162412634
 21
-7.947760548803255
 31
0.0
  0
LINE
  5
2EAA
330
1E
100
AcDbEntity
  8
7
100
AcDbLine
 10
1.573122632862954
 20
-7.947760548803257
 30
0.0
 11
1.592807672233032
 21
-7.947760548803257
 31
0.0
  0
LINE
  5
2EAB
330
1E
100
AcDbEntity
  8
7
100
AcDbLine
 10
4.48650845963461
 20
-7.947760548803257
 30
0.0
 11
4.506193499004687
 21
-7.947760548803257
 31
0.0
  0
LINE
  5
2EAC
330
1E
100
AcDbEntity
  8
7
100
AcDbLine
 10
7.403831294280276
 20
-7.947760548803257
 30
0.0
 11
7.419579325776343
 21
-7.947760548803257
 31
0.0
  0
LINE
  5
2EAD
330
1E
100
AcDbEntity
  8
7
100
AcDbLine
 10
10.31721712105193
 20
-7.947760548803259
 30
0.0
 11
10.33690216042201
 21
-7.947760548803259
 31
0.0
  0
LINE
  5
2EAE
330
1E
100
AcDbEntity
  8
7
100
AcDbLine
 10
13.2345399556976
 20
-7.947760548803259
 30
0.0
 11
13.25028798719366
 21
-7.947760548803259
 31
0.0
  0
LINE
  5
2EAF
330
1E
100
AcDbEntity
  8
7
100
AcDbLine
 10
16.14792578246925
 20
-7.947760548803259
 30
0.0
 11
16.25422499506768
 21
-7.947760548803259
 31
0.0
  0
LINE
  5
2EBA
330
1E
100
AcDbEntity
  8
7
100
AcDbLine
 10
16.85265019191807
 20
-8.069807792897748
 30
0.0
 11
16.37233523128815
 21
-8.069807792897748
 31
0.0
  0
LINE
  5
2EC5
330
1E
100
AcDbEntity
  8
7
100
AcDbLine
 10
16.19123286908342
 20
-8.069807792897748
 30
0.0
 11
14.89202027065823
 21
-8.069807792897748
 31
0.0
  0
LINE
  5
2EC6
330
1E
100
AcDbEntity
  8
7
100
AcDbLine
 10
14.50619349900468
 20
-8.069807792897748
 30
0.0
 11
11.97863444388657
 21
-8.069807792897748
 31
0.0
  0
LINE
  5
2EC7
330
1E
100
AcDbEntity
  8
7
100
AcDbLine
 10
11.58887066435901
 20
-8.069807792897748
 30
0.0
 11
9.065248617114921
 21
-8.069807792897746
 31
0.0
  0
LINE
  5
2EC8
330
1E
100
AcDbEntity
  8
7
100
AcDbLine
 10
8.675484837587365
 20
-8.069807792897746
 30
0.0
 11
6.147925782469254
 21
-8.069807792897746
 31
0.0
  0
LINE
  5
2EC9
330
1E
100
AcDbEntity
  8
7
100
AcDbLine
 10
5.762099010815713
 20
-8.069807792897746
 30
0.0
 11
3.234539955697602
 21
-8.069807792897746
 31
0.0
  0
LINE
  5
2ECA
330
1E
100
AcDbEntity
  8
7
100
AcDbLine
 10
2.844776176170039
 20
-8.069807792897746
 30
0.0
 11
0.3211541289259472
 21
-8.069807792897746
 31
0.0
  0
LINE
  5
2ECB
330
1E
100
AcDbEntity
  8
7
100
AcDbLine
 10
-0.0686096506016121
 20
-8.069807792897746
 30
0.0
 11
-1.367822249026808
 21
-8.069807792897744
 31
0.0
  0
LINE
  5
2EE1
330
1E
100
AcDbEntity
  8
7
100
AcDbLine
 10
-0.9268773671370453
 20
-12.35720936770089
 30
0.0
 11
15.75028798719366
 21
-12.35720936770089
 31
0.0
  0
LINE
  5
2EE2
330
1E
100
AcDbEntity
  8
7
100
AcDbLine
 10
15.75028798719366
 20
-12.11311487951192
 30
0.0
 11
-0.9268773671370453
 21
-12.11311487951191
 31
0.0
  0
LINE
  5
2EFC
330
1E
100
AcDbEntity
  8
7
100
AcDbLine
 10
15.75028798719366
 20
-12.29421724171664
 30
0.0
 11
15.71879192420154
 21
-12.29421724171664
 31
0.0
  0
LINE
  5
2F03
330
1E
100
AcDbEntity
  8
7
100
AcDbLine
 10
15.71879192420154
 20
-12.17610700549617
 30
0.0
 11
15.75028798719366
 21
-12.17610700549617
 31
0.0
  0
LINE
  5
2F0E
330
1E
100
AcDbEntity
  8
7
100
AcDbLine
 10
-0.8953813041449194
 20
-12.17610700549617
 30
0.0
 11
-0.9268773671370453
 21
-12.17610700549617
 31
0.0
  0
LINE
  5
2F15
330
1E
100
AcDbEntity
  8
7
100
AcDbLine
 10
-0.9268773671370453
 20
-12.29421724171664
 30
0.0
 11
-0.8953813041449194
 21
-12.29421724171664
 31
0.0
  0
LINE
  5
2F36
330
1E
100
AcDbEntity
  8
7
100
AcDbLine
 10
15.82509113679996
 20
-12.19185503699224
 30
0.0
 11
15.82509113679996
 21
-12.2824062180946
 31
0.0
  0
LINE
  5
2F3C
330
1E
100
AcDbEntity
  8
7
100
AcDbLine
 10
15.82509113679996
 20
-12.19185503699224
 30
0.0
 11
16.83296515254799
 21
-12.19185503699224
 31
0.0
  0
LINE
  5
2F47
330
1E
100
AcDbEntity
  8
7
100
AcDbLine
 10
16.83296515254799
 20
-12.2824062180946
 30
0.0
 11
15.82509113679996
 21
-12.2824062180946
 31
0.0
  0
LINE
  5
2F4D
330
1E
100
AcDbEntity
  8
7
100
AcDbLine
 10
16.83296515254799
 20
-12.2824062180946
 30
0.0
 11
16.83296515254799
 21
-12.19185503699224
 31
0.0
  0
LINE
  5
2F72
330
1E
100
AcDbEntity
  8
7
100
AcDbLine
 10
16.91170531002831
 20
-12.19185503699224
 30
0.0
 11
16.91170531002831
 21
-12.2824062180946
 31
0.0
  0
LINE
  5
2F93
330
1E
100
AcDbEntity
  8
7
100
AcDbLine
 10
-1.001680516743345
 20
-12.19185503699223
 30
0.0
 11
-1.001680516743345
 21
-12.28240621809459
 31
0.0
  0
LINE
  5
2F99
330
1E
100
AcDbEntity
  8
7
100
AcDbLine
 10
-1.001680516743345
 20
-12.19185503699223
 30
0.0
 11
-2.009554532491375
 21
-12.19185503699223
 31
0.0
  0
LINE
  5
2F9A
330
1E
100
AcDbEntity
  8
7
100
AcDbLine
 10
-2.009554532491375
 20
-12.28240621809459
 30
0.0
 11
-1.001680516743345
 21
-12.28240621809459
 31
0.0
  0
LINE
  5
2FA5
330
1E
100
AcDbEntity
  8
7
100
AcDbLine
 10
-2.009554532491375
 20
-12.28240621809459
 30
0.0
 11
-2.009554532491375
 21
-12.19185503699223
 31
0.0
  0
LINE
  5
2FCA
330
1E
100
AcDbEntity
  8
7
100
AcDbLine
 10
-2.088294689971689
 20
-12.19185503699223
 30
0.0
 11
-2.088294689971689
 21
-12.28240621809459
 31
0.0
  0
LINE
  5
2FCB
330
1E
100
AcDbEntity
  8
7
100
AcDbLine
 10
-0.8993183120189343
 20
-15.09736684801585
 30
0.0
 11
15.72272893207555
 21
-15.09736684801586
 31
0.0
  0
LINE
  5
2FCC
330
1E
100
AcDbEntity
  8
7
100
AcDbLine
 10
15.72272893207555
 20
-14.85327235982688
 30
0.0
 11
-0.8993183120189343
 21
-14.85327235982688
 31
0.0
  0
LINE
  5
2FE1
330
1E
100
AcDbEntity
  8
7
100
AcDbLine
 10
15.72272893207555
 20
-15.09342984014184
 30
0.0
 11
15.71879192420154
 21
-15.08161881651979
 31
0.0
  0
LINE
  5
2FE2
330
1E
100
AcDbEntity
  8
7
100
AcDbLine
 10
15.71879192420154
 20
-15.08161881651979
 30
0.0
 11
15.75028798719366
 21
-15.08161881651979
 31
0.0
  0
LINE
  5
2FEA
330
1E
100
AcDbEntity
  8
7
100
AcDbLine
 10
15.75028798719366
 20
-14.86902039132294
 30
0.0
 11
15.71879192420154
 21
-14.86902039132294
 31
0.0
  0
LINE
  5
2FEB
330
1E
100
AcDbEntity
  8
7
100
AcDbLine
 10
15.71879192420154
 20
-14.86902039132294
 30
0.0
 11
15.72272893207555
 21
-14.85327235982688
 31
0.0
  0
LINE
  5
2FEC
330
1E
100
AcDbEntity
  8
7
100
AcDbLine
 10
-0.8953813041449194
 20
-14.86902039132294
 30
0.0
 11
-0.8993183120189343
 21
-14.85327235982688
 31
0.0
  0
LINE
  5
2FED
330
1E
100
AcDbEntity
  8
7
100
AcDbLine
 10
-0.9268773671370453
 20
-14.86902039132294
 30
0.0
 11
-0.8953813041449194
 21
-14.86902039132294
 31
0.0
  0
LINE
  5
2FF5
330
1E
100
AcDbEntity
  8
7
100
AcDbLine
 10
-0.8953813041449194
 20
-15.08161881651979
 30
0.0
 11
-0.9268773671370453
 21
-15.08161881651979
 31
0.0
  0
LINE
  5
2FF6
330
1E
100
AcDbEntity
  8
7
100
AcDbLine
 10
-0.8993183120189343
 20
-15.09342984014184
 30
0.0
 11
-0.8953813041449194
 21
-15.08161881651979
 31
0.0
  0
LINE
  5
2FF7
330
1E
100
AcDbEntity
  8
7
100
AcDbLine
 10
15.75028798719366
 20
-15.10524086376389
 30
0.0
 11
15.75028798719366
 21
-15.11311487951192
 31
0.0
  0
LINE
  5
2FFE
330
1E
100
AcDbEntity
  8
7
100
AcDbLine
 10
15.75028798719366
 20
-14.8335873204568
 30
0.0
 11
15.75028798719366
 21
-14.84146133620483
 31
0.0
  0
LINE
  5
300F
330
1E
100
AcDbEntity
  8
7
100
AcDbLine
 10
16.66367381396531
 20
-14.84933535195287
 30
0.0
 11
16.51406751475271
 21
-14.84933535195287
 31
0.0
  0
LINE
  5
3019
330
1E
100
AcDbEntity
  8
7
100
AcDbLine
 10
16.51406751475271
 20
-15.10130385588987
 30
0.0
 11
16.66367381396531
 21
-15.10130385588987
 31
0.0
  0
LINE
  5
3023
330
1E
100
AcDbEntity
  8
7
100
AcDbLine
 10
15.82509113679996
 20
-15.17610700549617
 30
0.0
 11
16.83296515254799
 21
-15.17610700549617
 31
0.0
  0
LINE
  5
3029
330
1E
100
AcDbEntity
  8
7
100
AcDbLine
 10
16.91170531002831
 20
-15.09342984014184
 30
0.0
 11
16.91170531002831
 21
-14.85327235982688
 31
0.0
  0
LINE
  5
302F
330
1E
100
AcDbEntity
  8
7
100
AcDbLine
 10
16.83296515254799
 20
-14.77453220234656
 30
0.0
 11
15.82509113679996
 21
-14.77453220234656
 31
0.0
  0
LINE
  5
3030
330
1E
100
AcDbEntity
  8
7
100
AcDbLine
 10
15.75028798719366
 20
-14.84146133620483
 30
0.0
 11
15.75028798719366
 21
-14.84146133620483
 31
0.0
  0
LINE
  5
3039
330
1E
100
AcDbEntity
  8
7
100
AcDbLine
 10
15.80934310530389
 20
-14.92020149368515
 30
0.0
 11
15.80934310530389
 21
-15.02650070628358
 31
0.0
  0
LINE
  5
3042
330
1E
100
AcDbEntity
  8
7
100
AcDbLine
 10
15.75028798719366
 20
-15.10524086376389
 30
0.0
 11
15.75028798719366
 21
-15.10524086376389
 31
0.0
  0
LINE
  5
3072
330
1E
100
AcDbEntity
  8
7
100
AcDbLine
 10
-0.9229403592630269
 20
-15.10524086376388
 30
0.0
 11
-0.9268773671370453
 21
-15.11311487951191
 31
0.0
  0
LINE
  5
3073
330
1E
100
AcDbEntity
  8
7
100
AcDbLine
 10
-0.9268773671370453
 20
-14.8335873204568
 30
0.0
 11
-0.9229403592630269
 21
-14.84146133620483
 31
0.0
  0
LINE
  5
3084
330
1E
100
AcDbEntity
  8
7
100
AcDbLine
 10
-1.836326186034682
 20
-14.84933535195286
 30
0.0
 11
-1.686719886822086
 21
-14.84933535195286
 31
0.0
  0
LINE
  5
308E
330
1E
100
AcDbEntity
  8
7
100
AcDbLine
 10
-1.686719886822086
 20
-15.10130385588987
 30
0.0
 11
-1.836326186034682
 21
-15.10130385588987
 31
0.0
  0
LINE
  5
3098
330
1E
100
AcDbEntity
  8
7
100
AcDbLine
 10
-1.001680516743345
 20
-15.17610700549616
 30
0.0
 11
-2.009554532491375
 21
-15.17610700549616
 31
0.0
  0
LINE
  5
3099
330
1E
100
AcDbEntity
  8
7
100
AcDbLine
 10
-0.9268773671370453
 20
-15.10524086376388
 30
0.0
 11
-0.9229403592630269
 21
-15.10524086376388
 31
0.0
  0
LINE
  5
30A2
330
1E
100
AcDbEntity
  8
7
100
AcDbLine
 10
-0.9859324852472788
 20
-14.92020149368514
 30
0.0
 11
-0.9859324852472788
 21
-15.02650070628357
 31
0.0
  0
LINE
  5
30AB
330
1E
100
AcDbEntity
  8
7
100
AcDbLine
 10
-0.9229403592630269
 20
-14.84146133620483
 30
0.0
 11
-0.9268773671370453
 21
-14.84146133620483
 31
0.0
  0
LINE
  5
30AC
330
1E
100
AcDbEntity
  8
7
100
AcDbLine
 10
-2.009554532491375
 20
-14.77453220234656
 30
0.0
 11
-1.001680516743345
 21
-14.77453220234656
 31
0.0
  0
LINE
  5
30B2
330
1E
100
AcDbEntity
  8
7
100
AcDbLine
 10
-2.088294689971689
 20
-15.09342984014184
 30
0.0
 11
-2.088294689971689
 21
-14.85327235982688
 31
0.0
  0
LINE
  5
30E4
330
1E
100
AcDbEntity
  8
7
100
AcDbLine
 10
-0.9268773671370453
 20
-14.86902039132294
 30
0.0
 11
-0.9268773671370453
 21
-14.85720936770089
 31
0.0
  0
LINE
  5
30E5
330
1E
100
AcDbEntity
  8
7
100
AcDbLine
 10
-0.9268773671370453
 20
-14.85720936770089
 30
0.0
 11
-0.9268773671370453
 21
-14.84146133620483
 31
0.0
  0
LINE
  5
30E6
330
1E
100
AcDbEntity
  8
7
100
AcDbLine
 10
-0.9268773671370453
 20
-14.86902039132294
 30
0.0
 11
-0.934751382885075
 21
-14.86902039132294
 31
0.0
  0
LINE
  5
30E7
330
1E
100
AcDbEntity
  8
7
100
AcDbLine
 10
-0.934751382885075
 20
-14.86902039132294
 30
0.0
 11
-0.9386883907590934
 21
-14.87295739919696
 31
0.0
  0
LINE
  5
30E8
330
1E
100
AcDbEntity
  8
7
100
AcDbLine
 10
-0.9386883907590934
 20
-14.87295739919696
 30
0.0
 11
-0.9465624065071231
 21
-14.88083141494499
 31
0.0
  0
LINE
  5
30E9
330
1E
100
AcDbEntity
  8
7
100
AcDbLine
 10
-0.9465624065071231
 20
-14.88083141494499
 30
0.0
 11
-0.950499414381138
 21
-14.89264243856703
 31
0.0
  0
LINE
  5
30EA
330
1E
100
AcDbEntity
  8
7
100
AcDbLine
 10
-0.950499414381138
 20
-14.89264243856703
 30
0.0
 11
-0.9544364222551529
 21
-14.92020149368514
 31
0.0
  0
LINE
  5
30EB
330
1E
100
AcDbEntity
  8
7
100
AcDbLine
 10
-0.9544364222551529
 20
-14.92020149368514
 30
0.0
 11
-0.9623104380031861
 21
-14.92020149368514
 31
0.0
  0
LINE
  5
30EC
330
1E
100
AcDbEntity
  8
7
100
AcDbLine
 10
-0.9623104380031861
 20
-14.92020149368514
 30
0.0
 11
-0.9859324852472788
 21
-14.92020149368514
 31
0.0
  0
LINE
  5
30ED
330
1E
100
AcDbEntity
  8
7
100
AcDbLine
 10
-0.9544364222551529
 20
-15.02650070628357
 30
0.0
 11
-0.9623104380031861
 21
-15.02650070628357
 31
0.0
  0
LINE
  5
30EE
330
1E
100
AcDbEntity
  8
7
100
AcDbLine
 10
-0.9623104380031861
 20
-15.02650070628357
 30
0.0
 11
-0.9859324852472788
 21
-15.02650070628357
 31
0.0
  0
LINE
  5
30EF
330
1E
100
AcDbEntity
  8
7
100
AcDbLine
 10
-0.9268773671370453
 20
-15.08161881651979
 30
0.0
 11
-0.934751382885075
 21
-15.07768180864577
 31
0.0
  0
LINE
  5
30F0
330
1E
100
AcDbEntity
  8
7
100
AcDbLine
 10
-0.934751382885075
 20
-15.07768180864577
 30
0.0
 11
-0.9426253986331083
 21
-15.07374480077176
 31
0.0
  0
LINE
  5
30F1
330
1E
100
AcDbEntity
  8
7
100
AcDbLine
 10
-0.9426253986331083
 20
-15.07374480077176
 30
0.0
 11
-0.9465624065071231
 21
-15.06587078502373
 31
0.0
  0
LINE
  5
30F2
330
1E
100
AcDbEntity
  8
7
100
AcDbLine
 10
-0.9465624065071231
 20
-15.06587078502373
 30
0.0
 11
-0.950499414381138
 21
-15.05405976140168
 31
0.0
  0
LINE
  5
30F3
330
1E
100
AcDbEntity
  8
7
100
AcDbLine
 10
-0.950499414381138
 20
-15.05405976140168
 30
0.0
 11
-0.9544364222551529
 21
-15.02650070628357
 31
0.0
  0
LINE
  5
30F4
330
1E
100
AcDbEntity
  8
7
100
AcDbLine
 10
-0.9268773671370453
 20
-15.08161881651979
 30
0.0
 11
-0.9268773671370453
 21
-15.08949283226782
 31
0.0
  0
LINE
  5
30F5
330
1E
100
AcDbEntity
  8
7
100
AcDbLine
 10
-0.9268773671370453
 20
-15.08949283226782
 30
0.0
 11
-0.9268773671370453
 21
-15.10524086376388
 31
0.0
  0
LINE
  5
30F6
330
1E
100
AcDbEntity
  8
7
100
AcDbLine
 10
-0.9544364222551529
 20
-14.92020149368514
 30
0.0
 11
-0.9544364222551529
 21
-14.97531960392136
 31
0.0
  0
LINE
  5
30F7
330
1E
100
AcDbEntity
  8
7
100
AcDbLine
 10
-0.9544364222551529
 20
-14.97531960392136
 30
0.0
 11
-0.9544364222551529
 21
-15.02650070628357
 31
0.0
  0
LINE
  5
30F8
330
1E
100
AcDbEntity
  8
7
100
AcDbLine
 10
-2.009554532491375
 20
-15.17610700549616
 30
0.0
 11
-2.064672642727597
 21
-15.15248495825208
 31
0.0
  0
LINE
  5
30F9
330
1E
100
AcDbEntity
  8
7
100
AcDbLine
 10
-2.064672642727597
 20
-15.15248495825208
 30
0.0
 11
-2.088294689971689
 21
-15.09342984014184
 31
0.0
  0
LINE
  5
30FA
330
1E
100
AcDbEntity
  8
7
100
AcDbLine
 10
-2.088294689971689
 20
-14.85327235982688
 30
0.0
 11
-2.064672642727597
 21
-14.79815424959065
 31
0.0
  0
LINE
  5
30FB
330
1E
100
AcDbEntity
  8
7
100
AcDbLine
 10
-2.064672642727597
 20
-14.79815424959065
 30
0.0
 11
-2.009554532491375
 21
-14.77453220234656
 31
0.0
  0
LINE
  5
30FC
330
1E
100
AcDbEntity
  8
7
100
AcDbLine
 10
-0.9859324852472788
 20
-14.92020149368514
 30
0.0
 11
-0.9780584694992491
 21
-14.88083141494499
 31
0.0
  0
LINE
  5
30FD
330
1E
100
AcDbEntity
  8
7
100
AcDbLine
 10
-0.9780584694992491
 20
-14.88083141494499
 30
0.0
 11
-0.966247445877201
 21
-14.86508338344892
 31
0.0
  0
LINE
  5
30FE
330
1E
100
AcDbEntity
  8
7
100
AcDbLine
 10
-0.966247445877201
 20
-14.86508338344892
 30
0.0
 11
-0.950499414381138
 21
-14.84933535195286
 31
0.0
  0
LINE
  5
30FF
330
1E
100
AcDbEntity
  8
7
100
AcDbLine
 10
-0.950499414381138
 20
-14.84933535195286
 30
0.0
 11
-0.9308143750110602
 21
-14.84146133620483
 31
0.0
  0
LINE
  5
3100
330
1E
100
AcDbEntity
  8
7
100
AcDbLine
 10
-0.9308143750110602
 20
-14.84146133620483
 30
0.0
 11
-0.9268773671370453
 21
-14.84146133620483
 31
0.0
  0
LINE
  5
3101
330
1E
100
AcDbEntity
  8
7
100
AcDbLine
 10
-0.9268773671370453
 20
-15.10524086376388
 30
0.0
 11
-0.9426253986331083
 21
-15.10130385588987
 31
0.0
  0
LINE
  5
3102
330
1E
100
AcDbEntity
  8
7
100
AcDbLine
 10
-0.9426253986331083
 20
-15.10130385588987
 30
0.0
 11
-0.9583734301291713
 21
-15.09342984014184
 31
0.0
  0
LINE
  5
3103
330
1E
100
AcDbEntity
  8
7
100
AcDbLine
 10
-0.9583734301291713
 20
-15.09342984014184
 30
0.0
 11
-0.9701844537512194
 21
-15.08161881651979
 31
0.0
  0
LINE
  5
3104
330
1E
100
AcDbEntity
  8
7
100
AcDbLine
 10
-0.9701844537512194
 20
-15.08161881651979
 30
0.0
 11
-0.9819954773732639
 21
-15.06193377714971
 31
0.0
  0
LINE
  5
3105
330
1E
100
AcDbEntity
  8
7
100
AcDbLine
 10
-0.9819954773732639
 20
-15.06193377714971
 30
0.0
 11
-0.9859324852472788
 21
-15.02650070628357
 31
0.0
  0
LINE
  5
3106
330
1E
100
AcDbEntity
  8
7
100
AcDbLine
 10
-1.836326186034682
 20
-15.10130385588987
 30
0.0
 11
-1.899318312018934
 21
-15.08161881651979
 31
0.0
  0
LINE
  5
3107
330
1E
100
AcDbEntity
  8
7
100
AcDbLine
 10
-1.899318312018934
 20
-15.08161881651979
 30
0.0
 11
-1.946562406507123
 21
-15.03831172990562
 31
0.0
  0
LINE
  5
3108
330
1E
100
AcDbEntity
  8
7
100
AcDbLine
 10
-1.946562406507123
 20
-15.03831172990562
 30
0.0
 11
-1.962310438003186
 21
-14.97531960392136
 31
0.0
  0
LINE
  5
3109
330
1E
100
AcDbEntity
  8
7
100
AcDbLine
 10
-1.962310438003186
 20
-14.97531960392136
 30
0.0
 11
-1.946562406507123
 21
-14.91232747793711
 31
0.0
  0
LINE
  5
310A
330
1E
100
AcDbEntity
  8
7
100
AcDbLine
 10
-1.946562406507123
 20
-14.91232747793711
 30
0.0
 11
-1.899318312018934
 21
-14.86508338344892
 31
0.0
  0
LINE
  5
310B
330
1E
100
AcDbEntity
  8
7
100
AcDbLine
 10
-1.899318312018934
 20
-14.86508338344892
 30
0.0
 11
-1.836326186034682
 21
-14.84933535195286
 31
0.0
  0
LINE
  5
310C
330
1E
100
AcDbEntity
  8
7
100
AcDbLine
 10
-1.686719886822086
 20
-14.84933535195286
 30
0.0
 11
-1.62372776083783
 21
-14.86508338344892
 31
0.0
  0
LINE
  5
310D
330
1E
100
AcDbEntity
  8
7
100
AcDbLine
 10
-1.62372776083783
 20
-14.86508338344892
 30
0.0
 11
-1.580420674223656
 21
-14.91232747793711
 31
0.0
  0
LINE
  5
310E
330
1E
100
AcDbEntity
  8
7
100
AcDbLine
 10
-1.580420674223656
 20
-14.91232747793711
 30
0.0
 11
-1.560735634853578
 21
-14.97531960392136
 31
0.0
  0
LINE
  5
310F
330
1E
100
AcDbEntity
  8
7
100
AcDbLine
 10
-1.560735634853578
 20
-14.97531960392136
 30
0.0
 11
-1.580420674223656
 21
-15.03831172990562
 31
0.0
  0
LINE
  5
3110
330
1E
100
AcDbEntity
  8
7
100
AcDbLine
 10
-1.580420674223656
 20
-15.03831172990562
 30
0.0
 11
-1.62372776083783
 21
-15.08161881651979
 31
0.0
  0
LINE
  5
3111
330
1E
100
AcDbEntity
  8
7
100
AcDbLine
 10
-1.62372776083783
 20
-15.08161881651979
 30
0.0
 11
-1.686719886822086
 21
-15.10130385588987
 31
0.0
  0
LINE
  5
3112
330
1E
100
AcDbEntity
  8
7
100
AcDbLine
 10
-0.9268773671370453
 20
-15.11311487951191
 30
0.0
 11
-0.950499414381138
 21
-15.15642196612609
 31
0.0
  0
LINE
  5
3113
330
1E
100
AcDbEntity
  8
7
100
AcDbLine
 10
-0.950499414381138
 20
-15.15642196612609
 30
0.0
 11
-1.001680516743345
 21
-15.17610700549616
 31
0.0
  0
LINE
  5
3114
330
1E
100
AcDbEntity
  8
7
100
AcDbLine
 10
-1.001680516743345
 20
-14.77453220234656
 30
0.0
 11
-0.950499414381138
 21
-14.79028023384262
 31
0.0
  0
LINE
  5
3115
330
1E
100
AcDbEntity
  8
7
100
AcDbLine
 10
-0.950499414381138
 20
-14.79028023384262
 30
0.0
 11
-0.9268773671370453
 21
-14.8335873204568
 31
0.0
  0
LINE
  5
3116
330
1E
100
AcDbEntity
  8
7
100
AcDbLine
 10
-0.8953813041449194
 20
-14.86902039132294
 30
0.0
 11
-0.9071923277669675
 21
-14.8611463755749
 31
0.0
  0
LINE
  5
3117
330
1E
100
AcDbEntity
  8
7
100
AcDbLine
 10
-0.9071923277669675
 20
-14.8611463755749
 30
0.0
 11
-0.9190033513890121
 21
-14.85327235982688
 31
0.0
  0
LINE
  5
3118
330
1E
100
AcDbEntity
  8
7
100
AcDbLine
 10
-0.9190033513890121
 20
-14.85327235982688
 30
0.0
 11
-0.9229403592630269
 21
-14.84146133620483
 31
0.0
  0
LINE
  5
3119
330
1E
100
AcDbEntity
  8
7
100
AcDbLine
 10
-0.9229403592630269
 20
-15.10524086376388
 30
0.0
 11
-0.9190033513890121
 21
-15.09736684801585
 31
0.0
  0
LINE
  5
311A
330
1E
100
AcDbEntity
  8
7
100
AcDbLine
 10
-0.9190033513890121
 20
-15.09736684801585
 30
0.0
 11
-0.9071923277669675
 21
-15.0855558243938
 31
0.0
  0
LINE
  5
311B
330
1E
100
AcDbEntity
  8
7
100
AcDbLine
 10
-0.9071923277669675
 20
-15.0855558243938
 30
0.0
 11
-0.8953813041449194
 21
-15.08161881651979
 31
0.0
  0
LINE
  5
311C
330
1E
100
AcDbEntity
  8
7
100
AcDbLine
 10
15.75028798719366
 20
-14.86902039132294
 30
0.0
 11
15.75028798719366
 21
-14.85720936770089
 31
0.0
  0
LINE
  5
311D
330
1E
100
AcDbEntity
  8
7
100
AcDbLine
 10
15.75028798719366
 20
-14.85720936770089
 30
0.0
 11
15.75028798719366
 21
-14.84146133620483
 31
0.0
  0
LINE
  5
311E
330
1E
100
AcDbEntity
  8
7
100
AcDbLine
 10
15.75028798719366
 20
-14.86902039132294
 30
0.0
 11
15.75816200294169
 21
-14.86902039132294
 31
0.0
  0
LINE
  5
311F
330
1E
100
AcDbEntity
  8
7
100
AcDbLine
 10
15.75816200294169
 20
-14.86902039132294
 30
0.0
 11
15.76603601868972
 21
-14.87295739919696
 31
0.0
  0
LINE
  5
3120
330
1E
100
AcDbEntity
  8
7
100
AcDbLine
 10
15.76603601868972
 20
-14.87295739919696
 30
0.0
 11
15.76997302656374
 21
-14.88083141494499
 31
0.0
  0
LINE
  5
3121
330
1E
100
AcDbEntity
  8
7
100
AcDbLine
 10
15.76997302656374
 20
-14.88083141494499
 30
0.0
 11
15.77784704231177
 21
-14.89264243856704
 31
0.0
  0
LINE
  5
3122
330
1E
100
AcDbEntity
  8
7
100
AcDbLine
 10
15.77784704231177
 20
-14.89264243856704
 30
0.0
 11
15.78178405018579
 21
-14.92020149368515
 31
0.0
  0
LINE
  5
3123
330
1E
100
AcDbEntity
  8
7
100
AcDbLine
 10
15.78178405018579
 20
-14.92020149368515
 30
0.0
 11
15.78965806593382
 21
-14.92020149368515
 31
0.0
  0
LINE
  5
3124
330
1E
100
AcDbEntity
  8
7
100
AcDbLine
 10
15.78965806593382
 20
-14.92020149368515
 30
0.0
 11
15.80934310530389
 21
-14.92020149368515
 31
0.0
  0
LINE
  5
3125
330
1E
100
AcDbEntity
  8
7
100
AcDbLine
 10
15.75028798719366
 20
-15.08161881651979
 30
0.0
 11
15.75816200294169
 21
-15.07768180864577
 31
0.0
  0
LINE
  5
3126
330
1E
100
AcDbEntity
  8
7
100
AcDbLine
 10
15.75816200294169
 20
-15.07768180864577
 30
0.0
 11
15.76603601868972
 21
-15.07374480077176
 31
0.0
  0
LINE
  5
3127
330
1E
100
AcDbEntity
  8
7
100
AcDbLine
 10
15.76603601868972
 20
-15.07374480077176
 30
0.0
 11
15.77391003443775
 21
-15.06587078502373
 31
0.0
  0
LINE
  5
3128
330
1E
100
AcDbEntity
  8
7
100
AcDbLine
 10
15.77391003443775
 20
-15.06587078502373
 30
0.0
 11
15.77784704231177
 21
-15.05405976140168
 31
0.0
  0
LINE
  5
3129
330
1E
100
AcDbEntity
  8
7
100
AcDbLine
 10
15.77784704231177
 20
-15.05405976140168
 30
0.0
 11
15.78178405018579
 21
-15.02650070628358
 31
0.0
  0
LINE
  5
312A
330
1E
100
AcDbEntity
  8
7
100
AcDbLine
 10
15.78178405018579
 20
-15.02650070628358
 30
0.0
 11
15.78965806593382
 21
-15.02650070628358
 31
0.0
  0
LINE
  5
312B
330
1E
100
AcDbEntity
  8
7
100
AcDbLine
 10
15.78965806593382
 20
-15.02650070628358
 30
0.0
 11
15.80934310530389
 21
-15.02650070628358
 31
0.0
  0
LINE
  5
312C
330
1E
100
AcDbEntity
  8
7
100
AcDbLine
 10
15.75028798719366
 20
-15.08161881651979
 30
0.0
 11
15.75028798719366
 21
-15.08949283226783
 31
0.0
  0
LINE
  5
312D
330
1E
100
AcDbEntity
  8
7
100
AcDbLine
 10
15.75028798719366
 20
-15.08949283226783
 30
0.0
 11
15.75028798719366
 21
-15.10524086376389
 31
0.0
  0
LINE
  5
312E
330
1E
100
AcDbEntity
  8
7
100
AcDbLine
 10
15.78178405018579
 20
-14.92020149368515
 30
0.0
 11
15.78178405018579
 21
-14.97531960392137
 31
0.0
  0
LINE
  5
312F
330
1E
100
AcDbEntity
  8
7
100
AcDbLine
 10
15.78178405018579
 20
-14.97531960392137
 30
0.0
 11
15.78178405018579
 21
-15.02650070628358
 31
0.0
  0
LINE
  5
3130
330
1E
100
AcDbEntity
  8
7
100
AcDbLine
 10
15.75028798719366
 20
-15.10524086376389
 30
0.0
 11
15.76603601868972
 21
-15.10130385588987
 31
0.0
  0
LINE
  5
3131
330
1E
100
AcDbEntity
  8
7
100
AcDbLine
 10
15.76603601868972
 20
-15.10130385588987
 30
0.0
 11
15.78178405018579
 21
-15.09342984014184
 31
0.0
  0
LINE
  5
3132
330
1E
100
AcDbEntity
  8
7
100
AcDbLine
 10
15.78178405018579
 20
-15.09342984014184
 30
0.0
 11
15.79753208168185
 21
-15.08161881651979
 31
0.0
  0
LINE
  5
3133
330
1E
100
AcDbEntity
  8
7
100
AcDbLine
 10
15.79753208168185
 20
-15.08161881651979
 30
0.0
 11
15.80540609742988
 21
-15.06193377714972
 31
0.0
  0
LINE
  5
3134
330
1E
100
AcDbEntity
  8
7
100
AcDbLine
 10
15.80540609742988
 20
-15.06193377714972
 30
0.0
 11
15.80934310530389
 21
-15.02650070628358
 31
0.0
  0
LINE
  5
3135
330
1E
100
AcDbEntity
  8
7
100
AcDbLine
 10
15.80934310530389
 20
-14.92020149368515
 30
0.0
 11
15.80540609742988
 21
-14.88083141494499
 31
0.0
  0
LINE
  5
3136
330
1E
100
AcDbEntity
  8
7
100
AcDbLine
 10
15.80540609742988
 20
-14.88083141494499
 30
0.0
 11
15.79359507380783
 21
-14.86508338344892
 31
0.0
  0
LINE
  5
3137
330
1E
100
AcDbEntity
  8
7
100
AcDbLine
 10
15.79359507380783
 20
-14.86508338344892
 30
0.0
 11
15.77391003443775
 21
-14.84933535195287
 31
0.0
  0
LINE
  5
3138
330
1E
100
AcDbEntity
  8
7
100
AcDbLine
 10
15.77391003443775
 20
-14.84933535195287
 30
0.0
 11
15.75816200294169
 21
-14.84146133620483
 31
0.0
  0
LINE
  5
3139
330
1E
100
AcDbEntity
  8
7
100
AcDbLine
 10
15.75816200294169
 20
-14.84146133620483
 30
0.0
 11
15.75028798719366
 21
-14.84146133620483
 31
0.0
  0
LINE
  5
313A
330
1E
100
AcDbEntity
  8
7
100
AcDbLine
 10
16.91170531002831
 20
-14.85327235982688
 30
0.0
 11
16.88808326278421
 21
-14.79815424959066
 31
0.0
  0
LINE
  5
313B
330
1E
100
AcDbEntity
  8
7
100
AcDbLine
 10
16.88808326278421
 20
-14.79815424959066
 30
0.0
 11
16.83296515254799
 21
-14.77453220234656
 31
0.0
  0
LINE
  5
313C
330
1E
100
AcDbEntity
  8
7
100
AcDbLine
 10
16.83296515254799
 20
-15.17610700549617
 30
0.0
 11
16.88808326278421
 21
-15.15248495825208
 31
0.0
  0
LINE
  5
313D
330
1E
100
AcDbEntity
  8
7
100
AcDbLine
 10
16.88808326278421
 20
-15.15248495825208
 30
0.0
 11
16.91170531002831
 21
-15.09342984014184
 31
0.0
  0
LINE
  5
313E
330
1E
100
AcDbEntity
  8
7
100
AcDbLine
 10
16.51406751475271
 20
-14.84933535195287
 30
0.0
 11
16.45107538876846
 21
-14.86508338344892
 31
0.0
  0
LINE
  5
313F
330
1E
100
AcDbEntity
  8
7
100
AcDbLine
 10
16.45107538876846
 20
-14.86508338344892
 30
0.0
 11
16.40383129428027
 21
-14.91232747793712
 31
0.0
  0
LINE
  5
3140
330
1E
100
AcDbEntity
  8
7
100
AcDbLine
 10
16.40383129428027
 20
-14.91232747793712
 30
0.0
 11
16.38808326278421
 21
-14.97531960392137
 31
0.0
  0
LINE
  5
3141
330
1E
100
AcDbEntity
  8
7
100
AcDbLine
 10
16.38808326278421
 20
-14.97531960392137
 30
0.0
 11
16.40383129428027
 21
-15.03831172990562
 31
0.0
  0
LINE
  5
3142
330
1E
100
AcDbEntity
  8
7
100
AcDbLine
 10
16.40383129428027
 20
-15.03831172990562
 30
0.0
 11
16.45107538876846
 21
-15.08161881651979
 31
0.0
  0
LINE
  5
3143
330
1E
100
AcDbEntity
  8
7
100
AcDbLine
 10
16.45107538876846
 20
-15.08161881651979
 30
0.0
 11
16.51406751475271
 21
-15.10130385588987
 31
0.0
  0
LINE
  5
3144
330
1E
100
AcDbEntity
  8
7
100
AcDbLine
 10
16.66367381396531
 20
-15.10130385588987
 30
0.0
 11
16.72666593994956
 21
-15.08161881651979
 31
0.0
  0
LINE
  5
3145
330
1E
100
AcDbEntity
  8
7
100
AcDbLine
 10
16.72666593994956
 20
-15.08161881651979
 30
0.0
 11
16.76997302656374
 21
-15.03831172990562
 31
0.0
  0
LINE
  5
3146
330
1E
100
AcDbEntity
  8
7
100
AcDbLine
 10
16.76997302656374
 20
-15.03831172990562
 30
0.0
 11
16.7857210580598
 21
-14.97531960392137
 31
0.0
  0
LINE
  5
3147
330
1E
100
AcDbEntity
  8
7
100
AcDbLine
 10
16.7857210580598
 20
-14.97531960392137
 30
0.0
 11
16.76997302656374
 21
-14.91232747793712
 31
0.0
  0
LINE
  5
3148
330
1E
100
AcDbEntity
  8
7
100
AcDbLine
 10
16.76997302656374
 20
-14.91232747793712
 30
0.0
 11
16.72666593994956
 21
-14.86508338344892
 31
0.0
  0
LINE
  5
3149
330
1E
100
AcDbEntity
  8
7
100
AcDbLine
 10
16.72666593994956
 20
-14.86508338344892
 30
0.0
 11
16.66367381396531
 21
-14.84933535195287
 31
0.0
  0
LINE
  5
314A
330
1E
100
AcDbEntity
  8
7
100
AcDbLine
 10
15.75028798719366
 20
-15.11311487951192
 30
0.0
 11
15.77784704231177
 21
-15.15642196612609
 31
0.0
  0
LINE
  5
314B
330
1E
100
AcDbEntity
  8
7
100
AcDbLine
 10
15.77784704231177
 20
-15.15642196612609
 30
0.0
 11
15.82509113679996
 21
-15.17610700549617
 31
0.0
  0
LINE
  5
314C
330
1E
100
AcDbEntity
  8
7
100
AcDbLine
 10
15.82509113679996
 20
-14.77453220234656
 30
0.0
 11
15.77784704231177
 21
-14.79028023384263
 31
0.0
  0
LINE
  5
314D
330
1E
100
AcDbEntity
  8
7
100
AcDbLine
 10
15.77784704231177
 20
-14.79028023384263
 30
0.0
 11
15.75028798719366
 21
-14.8335873204568
 31
0.0
  0
LINE
  5
314E
330
1E
100
AcDbEntity
  8
7
100
AcDbLine
 10
15.71879192420154
 20
-14.86902039132294
 30
0.0
 11
15.73060294782358
 21
-14.86114637557491
 31
0.0
  0
LINE
  5
314F
330
1E
100
AcDbEntity
  8
7
100
AcDbLine
 10
15.73060294782358
 20
-14.86114637557491
 30
0.0
 11
15.74241397144563
 21
-14.85327235982688
 31
0.0
  0
LINE
  5
3150
330
1E
100
AcDbEntity
  8
7
100
AcDbLine
 10
15.74241397144563
 20
-14.85327235982688
 30
0.0
 11
15.75028798719366
 21
-14.84146133620483
 31
0.0
  0
LINE
  5
3151
330
1E
100
AcDbEntity
  8
7
100
AcDbLine
 10
15.75028798719366
 20
-15.10524086376389
 30
0.0
 11
15.74241397144563
 21
-15.09736684801586
 31
0.0
  0
LINE
  5
3152
330
1E
100
AcDbEntity
  8
7
100
AcDbLine
 10
15.74241397144563
 20
-15.09736684801586
 30
0.0
 11
15.73060294782358
 21
-15.08555582439381
 31
0.0
  0
LINE
  5
3153
330
1E
100
AcDbEntity
  8
7
100
AcDbLine
 10
15.73060294782358
 20
-15.08555582439381
 30
0.0
 11
15.71879192420154
 21
-15.08161881651979
 31
0.0
  0
LINE
  5
3154
330
1E
100
AcDbEntity
  8
7
100
AcDbLine
 10
-0.9268773671370453
 20
-15.08161881651979
 30
0.0
 11
-0.9268773671370453
 21
-15.0343747220316
 31
0.0
  0
LINE
  5
3155
330
1E
100
AcDbEntity
  8
7
100
AcDbLine
 10
-0.9268773671370453
 20
-15.0343747220316
 30
0.0
 11
-0.9268773671370453
 21
-14.97531960392136
 31
0.0
  0
LINE
  5
3156
330
1E
100
AcDbEntity
  8
7
100
AcDbLine
 10
-0.9268773671370453
 20
-14.97531960392136
 30
0.0
 11
-0.9268773671370453
 21
-14.91232747793711
 31
0.0
  0
LINE
  5
3157
330
1E
100
AcDbEntity
  8
7
100
AcDbLine
 10
-0.9268773671370453
 20
-14.91232747793711
 30
0.0
 11
-0.9268773671370453
 21
-14.86902039132294
 31
0.0
  0
LINE
  5
3158
330
1E
100
AcDbEntity
  8
7
100
AcDbLine
 10
15.75028798719366
 20
-15.08161881651979
 30
0.0
 11
15.75028798719366
 21
-15.0343747220316
 31
0.0
  0
LINE
  5
3159
330
1E
100
AcDbEntity
  8
7
100
AcDbLine
 10
15.75028798719366
 20
-15.0343747220316
 30
0.0
 11
15.75028798719366
 21
-14.97531960392137
 31
0.0
  0
LINE
  5
315A
330
1E
100
AcDbEntity
  8
7
100
AcDbLine
 10
15.75028798719366
 20
-14.97531960392137
 30
0.0
 11
15.75028798719366
 21
-14.91232747793712
 31
0.0
  0
LINE
  5
315B
330
1E
100
AcDbEntity
  8
7
100
AcDbLine
 10
15.75028798719366
 20
-14.91232747793712
 30
0.0
 11
15.75028798719366
 21
-14.86902039132294
 31
0.0
  0
LINE
  5
315C
330
1E
100
AcDbEntity
  8
7
100
AcDbLine
 10
-0.8993183120189343
 20
-15.09736684801585
 30
0.0
 11
-0.9150663435149972
 21
-15.10130385588987
 31
0.0
  0
LINE
  5
315D
330
1E
100
AcDbEntity
  8
7
100
AcDbLine
 10
-0.9150663435149972
 20
-15.10130385588987
 30
0.0
 11
-0.9268773671370453
 21
-15.11705188738593
 31
0.0
  0
LINE
  5
315E
330
1E
100
AcDbEntity
  8
7
100
AcDbLine
 10
15.72272893207555
 20
-14.85327235982688
 30
0.0
 11
15.74241397144563
 21
-14.84539834407885
 31
0.0
  0
LINE
  5
315F
330
1E
100
AcDbEntity
  8
7
100
AcDbLine
 10
15.74241397144563
 20
-14.84539834407885
 30
0.0
 11
15.75028798719366
 21
-14.8335873204568
 31
0.0
  0
LINE
  5
3160
330
1E
100
AcDbEntity
  8
7
100
AcDbLine
 10
15.75028798719366
 20
-15.11705188738593
 30
0.0
 11
15.74241397144563
 21
-15.10130385588987
 31
0.0
  0
LINE
  5
3161
330
1E
100
AcDbEntity
  8
7
100
AcDbLine
 10
15.74241397144563
 20
-15.10130385588987
 30
0.0
 11
15.72272893207555
 21
-15.09736684801586
 31
0.0
  0
LINE
  5
3162
330
1E
100
AcDbEntity
  8
7
100
AcDbLine
 10
-0.9268773671370453
 20
-14.8335873204568
 30
0.0
 11
-0.9150663435149972
 21
-14.84539834407885
 31
0.0
  0
LINE
  5
3163
330
1E
100
AcDbEntity
  8
7
100
AcDbLine
 10
-0.9150663435149972
 20
-14.84539834407885
 30
0.0
 11
-0.8993183120189343
 21
-14.85327235982688
 31
0.0
  0
LINE
  5
3164
330
1E
100
AcDbEntity
  8
7
100
AcDbLine
 10
-0.9268773671370453
 20
-12.29421724171664
 30
0.0
 11
-0.9268773671370453
 21
-12.28634322596861
 31
0.0
  0
LINE
  5
3165
330
1E
100
AcDbEntity
  8
7
100
AcDbLine
 10
-0.9268773671370453
 20
-12.28634322596861
 30
0.0
 11
-0.9268773671370453
 21
-12.28240621809459
 31
0.0
  0
LINE
  5
3166
330
1E
100
AcDbEntity
  8
7
100
AcDbLine
 10
-0.9268773671370453
 20
-12.29421724171664
 30
0.0
 11
-0.934751382885075
 21
-12.29421724171664
 31
0.0
  0
LINE
  5
3167
330
1E
100
AcDbEntity
  8
7
100
AcDbLine
 10
-0.934751382885075
 20
-12.29421724171664
 30
0.0
 11
-0.9386883907590934
 21
-12.29815424959065
 31
0.0
  0
LINE
  5
3168
330
1E
100
AcDbEntity
  8
7
100
AcDbLine
 10
-0.9386883907590934
 20
-12.29815424959065
 30
0.0
 11
-0.9465624065071231
 21
-12.29815424959065
 31
0.0
  0
LINE
  5
3169
330
1E
100
AcDbEntity
  8
7
100
AcDbLine
 10
-0.9465624065071231
 20
-12.29815424959065
 30
0.0
 11
-0.950499414381138
 21
-12.30209125746467
 31
0.0
  0
LINE
  5
316A
330
1E
100
AcDbEntity
  8
7
100
AcDbLine
 10
-0.950499414381138
 20
-12.30209125746467
 30
0.0
 11
-0.9544364222551529
 21
-12.30996527321271
 31
0.0
  0
LINE
  5
316B
330
1E
100
AcDbEntity
  8
7
100
AcDbLine
 10
-0.9544364222551529
 20
-12.30996527321271
 30
0.0
 11
-0.9623104380031861
 21
-12.29028023384262
 31
0.0
  0
LINE
  5
316C
330
1E
100
AcDbEntity
  8
7
100
AcDbLine
 10
-0.9623104380031861
 20
-12.29028023384262
 30
0.0
 11
-0.9859324852472788
 21
-12.28240621809459
 31
0.0
  0
LINE
  5
316D
330
1E
100
AcDbEntity
  8
7
100
AcDbLine
 10
-0.9544364222551529
 20
-12.1603589740001
 30
0.0
 11
-0.9623104380031861
 21
-12.18004401337018
 31
0.0
  0
LINE
  5
316E
330
1E
100
AcDbEntity
  8
7
100
AcDbLine
 10
-0.9623104380031861
 20
-12.18004401337018
 30
0.0
 11
-0.9859324852472788
 21
-12.19185503699223
 31
0.0
  0
LINE
  5
316F
330
1E
100
AcDbEntity
  8
7
100
AcDbLine
 10
-0.9268773671370453
 20
-12.17610700549617
 30
0.0
 11
-0.934751382885075
 21
-12.17610700549617
 31
0.0
  0
LINE
  5
3170
330
1E
100
AcDbEntity
  8
7
100
AcDbLine
 10
-0.934751382885075
 20
-12.17610700549617
 30
0.0
 11
-0.9426253986331083
 21
-12.17216999762215
 31
0.0
  0
LINE
  5
3171
330
1E
100
AcDbEntity
  8
7
100
AcDbLine
 10
-0.9426253986331083
 20
-12.17216999762215
 30
0.0
 11
-0.9465624065071231
 21
-12.17216999762215
 31
0.0
  0
LINE
  5
3172
330
1E
100
AcDbEntity
  8
7
100
AcDbLine
 10
-0.9465624065071231
 20
-12.17216999762215
 30
0.0
 11
-0.950499414381138
 21
-12.16823298974814
 31
0.0
  0
LINE
  5
3173
330
1E
100
AcDbEntity
  8
7
100
AcDbLine
 10
-0.950499414381138
 20
-12.16823298974814
 30
0.0
 11
-0.9544364222551529
 21
-12.1603589740001
 31
0.0
  0
LINE
  5
3174
330
1E
100
AcDbEntity
  8
7
100
AcDbLine
 10
-0.9268773671370453
 20
-12.17610700549617
 30
0.0
 11
-0.9268773671370453
 21
-12.18791802911822
 31
0.0
  0
LINE
  5
3175
330
1E
100
AcDbEntity
  8
7
100
AcDbLine
 10
-0.9268773671370453
 20
-12.18791802911822
 30
0.0
 11
-0.9268773671370453
 21
-12.19185503699223
 31
0.0
  0
LINE
  5
3176
330
1E
100
AcDbEntity
  8
7
100
AcDbLine
 10
-0.9544364222551529
 20
-12.30996527321271
 30
0.0
 11
-0.9544364222551529
 21
-12.32177629683475
 31
0.0
  0
LINE
  5
3177
330
1E
100
AcDbEntity
  8
7
100
AcDbLine
 10
-0.9544364222551529
 20
-12.32177629683475
 30
0.0
 11
-0.9544364222551529
 21
-12.32571330470876
 31
0.0
  0
LINE
  5
3178
330
1E
100
AcDbEntity
  8
7
100
AcDbLine
 10
-2.088294689971689
 20
-12.28240621809459
 30
0.0
 11
-2.064672642727597
 21
-12.28240621809459
 31
0.0
  0
LINE
  5
3179
330
1E
100
AcDbEntity
  8
7
100
AcDbLine
 10
-2.064672642727597
 20
-12.28240621809459
 30
0.0
 11
-2.009554532491375
 21
-12.28240621809459
 31
0.0
  0
LINE
  5
317A
330
1E
100
AcDbEntity
  8
7
100
AcDbLine
 10
-2.009554532491375
 20
-12.19185503699223
 30
0.0
 11
-2.064672642727597
 21
-12.19185503699223
 31
0.0
  0
LINE
  5
317B
330
1E
100
AcDbEntity
  8
7
100
AcDbLine
 10
-2.064672642727597
 20
-12.19185503699223
 30
0.0
 11
-2.088294689971689
 21
-12.19185503699223
 31
0.0
  0
LINE
  5
317C
330
1E
100
AcDbEntity
  8
7
100
AcDbLine
 10
-0.9268773671370453
 20
-12.19185503699223
 30
0.0
 11
-0.950499414381138
 21
-12.19185503699223
 31
0.0
  0
LINE
  5
317D
330
1E
100
AcDbEntity
  8
7
100
AcDbLine
 10
-0.950499414381138
 20
-12.19185503699223
 30
0.0
 11
-1.001680516743345
 21
-12.19185503699223
 31
0.0
  0
LINE
  5
317E
330
1E
100
AcDbEntity
  8
7
100
AcDbLine
 10
-1.001680516743345
 20
-12.28240621809459
 30
0.0
 11
-0.950499414381138
 21
-12.28240621809459
 31
0.0
  0
LINE
  5
317F
330
1E
100
AcDbEntity
  8
7
100
AcDbLine
 10
-0.950499414381138
 20
-12.28240621809459
 30
0.0
 11
-0.9268773671370453
 21
-12.28240621809459
 31
0.0
  0
LINE
  5
3180
330
1E
100
AcDbEntity
  8
7
100
AcDbLine
 10
-0.9268773671370453
 20
-12.19185503699223
 30
0.0
 11
-0.9268773671370453
 21
-12.23909913148042
 31
0.0
  0
LINE
  5
3181
330
1E
100
AcDbEntity
  8
7
100
AcDbLine
 10
-0.9268773671370453
 20
-12.23909913148042
 30
0.0
 11
-0.9268773671370453
 21
-12.28240621809459
 31
0.0
  0
LINE
  5
3182
330
1E
100
AcDbEntity
  8
7
100
AcDbLine
 10
-0.9229403592630269
 20
-12.19185503699223
 30
0.0
 11
-0.9190033513890121
 21
-12.18791802911822
 31
0.0
  0
LINE
  5
3183
330
1E
100
AcDbEntity
  8
7
100
AcDbLine
 10
-0.9190033513890121
 20
-12.18791802911822
 30
0.0
 11
-0.9071923277669675
 21
-12.1839810212442
 31
0.0
  0
LINE
  5
3184
330
1E
100
AcDbEntity
  8
7
100
AcDbLine
 10
-0.9071923277669675
 20
-12.1839810212442
 30
0.0
 11
-0.8953813041449194
 21
-12.17610700549617
 31
0.0
  0
LINE
  5
3185
330
1E
100
AcDbEntity
  8
7
100
AcDbLine
 10
-0.8953813041449194
 20
-12.29421724171664
 30
0.0
 11
-0.9071923277669675
 21
-12.28634322596861
 31
0.0
  0
LINE
  5
3186
330
1E
100
AcDbEntity
  8
7
100
AcDbLine
 10
-0.9071923277669675
 20
-12.28634322596861
 30
0.0
 11
-0.9190033513890121
 21
-12.28240621809459
 31
0.0
  0
LINE
  5
3187
330
1E
100
AcDbEntity
  8
7
100
AcDbLine
 10
-0.9190033513890121
 20
-12.28240621809459
 30
0.0
 11
-0.9229403592630269
 21
-12.28240621809459
 31
0.0
  0
LINE
  5
3188
330
1E
100
AcDbEntity
  8
7
100
AcDbLine
 10
-0.9544364222551529
 20
-12.14461094250404
 30
0.0
 11
-0.9544364222551529
 21
-12.14854795037805
 31
0.0
  0
LINE
  5
3189
330
1E
100
AcDbEntity
  8
7
100
AcDbLine
 10
-0.9544364222551529
 20
-12.14854795037805
 30
0.0
 11
-0.9544364222551529
 21
-12.1603589740001
 31
0.0
  0
LINE
  5
318A
330
1E
100
AcDbEntity
  8
7
100
AcDbLine
 10
15.75028798719366
 20
-12.29421724171664
 30
0.0
 11
15.75028798719366
 21
-12.28634322596861
 31
0.0
  0
LINE
  5
318B
330
1E
100
AcDbEntity
  8
7
100
AcDbLine
 10
15.75028798719366
 20
-12.28634322596861
 30
0.0
 11
15.75028798719366
 21
-12.2824062180946
 31
0.0
  0
LINE
  5
318C
330
1E
100
AcDbEntity
  8
7
100
AcDbLine
 10
15.75028798719366
 20
-12.29421724171664
 30
0.0
 11
15.75816200294169
 21
-12.29421724171664
 31
0.0
  0
LINE
  5
318D
330
1E
100
AcDbEntity
  8
7
100
AcDbLine
 10
15.75816200294169
 20
-12.29421724171664
 30
0.0
 11
15.76603601868972
 21
-12.29815424959066
 31
0.0
  0
LINE
  5
318E
330
1E
100
AcDbEntity
  8
7
100
AcDbLine
 10
15.76603601868972
 20
-12.29815424959066
 30
0.0
 11
15.76997302656374
 21
-12.29815424959066
 31
0.0
  0
LINE
  5
318F
330
1E
100
AcDbEntity
  8
7
100
AcDbLine
 10
15.76997302656374
 20
-12.29815424959066
 30
0.0
 11
15.77784704231177
 21
-12.30209125746467
 31
0.0
  0
LINE
  5
3190
330
1E
100
AcDbEntity
  8
7
100
AcDbLine
 10
15.77784704231177
 20
-12.30209125746467
 30
0.0
 11
15.78178405018579
 21
-12.30996527321271
 31
0.0
  0
LINE
  5
3191
330
1E
100
AcDbEntity
  8
7
100
AcDbLine
 10
15.78178405018579
 20
-12.30996527321271
 30
0.0
 11
15.78965806593382
 21
-12.29028023384263
 31
0.0
  0
LINE
  5
3192
330
1E
100
AcDbEntity
  8
7
100
AcDbLine
 10
15.78965806593382
 20
-12.29028023384263
 30
0.0
 11
15.80934310530389
 21
-12.2824062180946
 31
0.0
  0
LINE
  5
3193
330
1E
100
AcDbEntity
  8
7
100
AcDbLine
 10
15.75028798719366
 20
-12.17610700549617
 30
0.0
 11
15.75816200294169
 21
-12.17610700549617
 31
0.0
  0
LINE
  5
3194
330
1E
100
AcDbEntity
  8
7
100
AcDbLine
 10
15.75816200294169
 20
-12.17610700549617
 30
0.0
 11
15.76603601868972
 21
-12.17216999762215
 31
0.0
  0
LINE
  5
3195
330
1E
100
AcDbEntity
  8
7
100
AcDbLine
 10
15.76603601868972
 20
-12.17216999762215
 30
0.0
 11
15.77391003443775
 21
-12.17216999762215
 31
0.0
  0
LINE
  5
3196
330
1E
100
AcDbEntity
  8
7
100
AcDbLine
 10
15.77391003443775
 20
-12.17216999762215
 30
0.0
 11
15.77784704231177
 21
-12.16823298974814
 31
0.0
  0
LINE
  5
3197
330
1E
100
AcDbEntity
  8
7
100
AcDbLine
 10
15.77784704231177
 20
-12.16823298974814
 30
0.0
 11
15.78178405018579
 21
-12.16035897400011
 31
0.0
  0
LINE
  5
3198
330
1E
100
AcDbEntity
  8
7
100
AcDbLine
 10
15.78178405018579
 20
-12.16035897400011
 30
0.0
 11
15.78965806593382
 21
-12.18004401337018
 31
0.0
  0
LINE
  5
3199
330
1E
100
AcDbEntity
  8
7
100
AcDbLine
 10
15.78965806593382
 20
-12.18004401337018
 30
0.0
 11
15.80934310530389
 21
-12.19185503699224
 31
0.0
  0
LINE
  5
319A
330
1E
100
AcDbEntity
  8
7
100
AcDbLine
 10
15.75028798719366
 20
-12.17610700549617
 30
0.0
 11
15.75028798719366
 21
-12.18791802911822
 31
0.0
  0
LINE
  5
319B
330
1E
100
AcDbEntity
  8
7
100
AcDbLine
 10
15.75028798719366
 20
-12.18791802911822
 30
0.0
 11
15.75028798719366
 21
-12.19185503699224
 31
0.0
  0
LINE
  5
319C
330
1E
100
AcDbEntity
  8
7
100
AcDbLine
 10
15.78178405018579
 20
-12.30996527321271
 30
0.0
 11
15.78178405018579
 21
-12.32177629683475
 31
0.0
  0
LINE
  5
319D
330
1E
100
AcDbEntity
  8
7
100
AcDbLine
 10
15.78178405018579
 20
-12.32177629683475
 30
0.0
 11
15.78178405018579
 21
-12.32571330470877
 31
0.0
  0
LINE
  5
319E
330
1E
100
AcDbEntity
  8
7
100
AcDbLine
 10
16.91170531002831
 20
-12.2824062180946
 30
0.0
 11
16.88808326278421
 21
-12.2824062180946
 31
0.0
  0
LINE
  5
319F
330
1E
100
AcDbEntity
  8
7
100
AcDbLine
 10
16.88808326278421
 20
-12.2824062180946
 30
0.0
 11
16.83296515254799
 21
-12.2824062180946
 31
0.0
  0
LINE
  5
31A0
330
1E
100
AcDbEntity
  8
7
100
AcDbLine
 10
16.83296515254799
 20
-12.19185503699224
 30
0.0
 11
16.88808326278421
 21
-12.19185503699224
 31
0.0
  0
LINE
  5
31A1
330
1E
100
AcDbEntity
  8
7
100
AcDbLine
 10
16.88808326278421
 20
-12.19185503699224
 30
0.0
 11
16.91170531002831
 21
-12.19185503699224
 31
0.0
  0
LINE
  5
31A2
330
1E
100
AcDbEntity
  8
7
100
AcDbLine
 10
15.75028798719366
 20
-12.19185503699224
 30
0.0
 11
15.77784704231177
 21
-12.19185503699224
 31
0.0
  0
LINE
  5
31A3
330
1E
100
AcDbEntity
  8
7
100
AcDbLine
 10
15.77784704231177
 20
-12.19185503699224
 30
0.0
 11
15.82509113679996
 21
-12.19185503699224
 31
0.0
  0
LINE
  5
31A4
330
1E
100
AcDbEntity
  8
7
100
AcDbLine
 10
15.82509113679996
 20
-12.2824062180946
 30
0.0
 11
15.77784704231177
 21
-12.2824062180946
 31
0.0
  0
LINE
  5
31A5
330
1E
100
AcDbEntity
  8
7
100
AcDbLine
 10
15.77784704231177
 20
-12.2824062180946
 30
0.0
 11
15.75028798719366
 21
-12.2824062180946
 31
0.0
  0
LINE
  5
31A6
330
1E
100
AcDbEntity
  8
7
100
AcDbLine
 10
15.71879192420154
 20
-12.29421724171664
 30
0.0
 11
15.73060294782358
 21
-12.28634322596861
 31
0.0
  0
LINE
  5
31A7
330
1E
100
AcDbEntity
  8
7
100
AcDbLine
 10
15.73060294782358
 20
-12.28634322596861
 30
0.0
 11
15.74241397144563
 21
-12.2824062180946
 31
0.0
  0
LINE
  5
31A8
330
1E
100
AcDbEntity
  8
7
100
AcDbLine
 10
15.74241397144563
 20
-12.2824062180946
 30
0.0
 11
15.75028798719366
 21
-12.2824062180946
 31
0.0
  0
LINE
  5
31A9
330
1E
100
AcDbEntity
  8
7
100
AcDbLine
 10
15.75028798719366
 20
-12.19185503699224
 30
0.0
 11
15.74241397144563
 21
-12.18791802911822
 31
0.0
  0
LINE
  5
31AA
330
1E
100
AcDbEntity
  8
7
100
AcDbLine
 10
15.74241397144563
 20
-12.18791802911822
 30
0.0
 11
15.73060294782358
 21
-12.18398102124421
 31
0.0
  0
LINE
  5
31AB
330
1E
100
AcDbEntity
  8
7
100
AcDbLine
 10
15.73060294782358
 20
-12.18398102124421
 30
0.0
 11
15.71879192420154
 21
-12.17610700549617
 31
0.0
  0
LINE
  5
31AC
330
1E
100
AcDbEntity
  8
7
100
AcDbLine
 10
15.75028798719366
 20
-12.19185503699224
 30
0.0
 11
15.75422499506768
 21
-12.23909913148042
 31
0.0
  0
LINE
  5
31AD
330
1E
100
AcDbEntity
  8
7
100
AcDbLine
 10
15.75422499506768
 20
-12.23909913148042
 30
0.0
 11
15.75028798719366
 21
-12.2824062180946
 31
0.0
  0
LINE
  5
31AE
330
1E
100
AcDbEntity
  8
7
100
AcDbLine
 10
15.78178405018579
 20
-12.14461094250404
 30
0.0
 11
15.78178405018579
 21
-12.14854795037806
 31
0.0
  0
LINE
  5
31AF
330
1E
100
AcDbEntity
  8
7
100
AcDbLine
 10
15.78178405018579
 20
-12.14854795037806
 30
0.0
 11
15.78178405018579
 21
-12.16035897400011
 31
0.0
  0
LINE
  5
31B0
330
1E
100
AcDbEntity
  8
7
100
AcDbLine
 10
-0.9268773671370453
 20
-12.35720936770089
 30
0.0
 11
-0.9268773671370453
 21
-12.34146133620483
 31
0.0
  0
LINE
  5
31B1
330
1E
100
AcDbEntity
  8
7
100
AcDbLine
 10
-0.9268773671370453
 20
-12.34146133620483
 30
0.0
 11
-0.9268773671370453
 21
-12.29421724171664
 31
0.0
  0
LINE
  5
31B2
330
1E
100
AcDbEntity
  8
7
100
AcDbLine
 10
-0.8953813041449194
 20
-12.29421724171664
 30
0.0
 11
-0.8993183120189343
 21
-12.25484716297648
 31
0.0
  0
LINE
  5
31B3
330
1E
100
AcDbEntity
  8
7
100
AcDbLine
 10
-0.8993183120189343
 20
-12.25484716297648
 30
0.0
 11
-0.8993183120189343
 21
-12.21547708423633
 31
0.0
  0
LINE
  5
31B4
330
1E
100
AcDbEntity
  8
7
100
AcDbLine
 10
-0.8993183120189343
 20
-12.21547708423633
 30
0.0
 11
-0.8953813041449194
 21
-12.17610700549617
 31
0.0
  0
LINE
  5
31B5
330
1E
100
AcDbEntity
  8
7
100
AcDbLine
 10
-0.9268773671370453
 20
-12.17610700549617
 30
0.0
 11
-0.9268773671370453
 21
-12.12886291100798
 31
0.0
  0
LINE
  5
31B6
330
1E
100
AcDbEntity
  8
7
100
AcDbLine
 10
-0.9268773671370453
 20
-12.12886291100798
 30
0.0
 11
-0.9268773671370453
 21
-12.11311487951191
 31
0.0
  0
LINE
  5
31B7
330
1E
100
AcDbEntity
  8
7
100
AcDbLine
 10
15.75028798719366
 20
-12.17610700549617
 30
0.0
 11
15.75028798719366
 21
-12.12886291100798
 31
0.0
  0
LINE
  5
31B8
330
1E
100
AcDbEntity
  8
7
100
AcDbLine
 10
15.75028798719366
 20
-12.12886291100798
 30
0.0
 11
15.75028798719366
 21
-12.11311487951192
 31
0.0
  0
LINE
  5
31B9
330
1E
100
AcDbEntity
  8
7
100
AcDbLine
 10
15.71879192420154
 20
-12.29421724171664
 30
0.0
 11
15.72272893207555
 21
-12.25484716297649
 31
0.0
  0
LINE
  5
31BA
330
1E
100
AcDbEntity
  8
7
100
AcDbLine
 10
15.72272893207555
 20
-12.25484716297649
 30
0.0
 11
15.72272893207555
 21
-12.21547708423633
 31
0.0
  0
LINE
  5
31BB
330
1E
100
AcDbEntity
  8
7
100
AcDbLine
 10
15.72272893207555
 20
-12.21547708423633
 30
0.0
 11
15.71879192420154
 21
-12.17610700549617
 31
0.0
  0
LINE
  5
31BC
330
1E
100
AcDbEntity
  8
7
100
AcDbLine
 10
15.75028798719366
 20
-12.35720936770089
 30
0.0
 11
15.75028798719366
 21
-12.34146133620483
 31
0.0
  0
LINE
  5
31BD
330
1E
100
AcDbEntity
  8
7
100
AcDbLine
 10
15.75028798719366
 20
-12.34146133620483
 30
0.0
 11
15.75028798719366
 21
-12.29421724171664
 31
0.0
  0
LINE
  5
31BE
330
1E
100
AcDbEntity
  8
7
100
AcDbLine
 10
-0.9268773671370453
 20
-12.11311487951191
 30
0.0
 11
-0.9465624065071231
 21
-12.12492590313396
 31
0.0
  0
LINE
  5
31BF
330
1E
100
AcDbEntity
  8
7
100
AcDbLine
 10
-0.9465624065071231
 20
-12.12492590313396
 30
0.0
 11
-0.9544364222551529
 21
-12.14461094250404
 31
0.0
  0
LINE
  5
31C0
330
1E
100
AcDbEntity
  8
7
100
AcDbLine
 10
15.78178405018579
 20
-12.14461094250404
 30
0.0
 11
15.76997302656374
 21
-12.12492590313397
 31
0.0
  0
LINE
  5
31C1
330
1E
100
AcDbEntity
  8
7
100
AcDbLine
 10
15.76997302656374
 20
-12.12492590313397
 30
0.0
 11
15.75028798719366
 21
-12.11311487951192
 31
0.0
  0
LINE
  5
31C2
330
1E
100
AcDbEntity
  8
7
100
AcDbLine
 10
15.75028798719366
 20
-12.35720936770089
 30
0.0
 11
15.76997302656374
 21
-12.34933535195287
 31
0.0
  0
LINE
  5
31C3
330
1E
100
AcDbEntity
  8
7
100
AcDbLine
 10
15.76997302656374
 20
-12.34933535195287
 30
0.0
 11
15.78178405018579
 21
-12.32571330470877
 31
0.0
  0
LINE
  5
31C4
330
1E
100
AcDbEntity
  8
7
100
AcDbLine
 10
-0.9544364222551529
 20
-12.32571330470876
 30
0.0
 11
-0.9465624065071231
 21
-12.34933535195286
 31
0.0
  0
LINE
  5
31C5
330
1E
100
AcDbEntity
  8
7
100
AcDbLine
 10
-0.9465624065071231
 20
-12.34933535195286
 30
0.0
 11
-0.9268773671370453
 21
-12.35720936770089
 31
0.0
  0
LINE
  5
31C6
330
1E
100
AcDbEntity
  8
7
100
AcDbLine
 10
-1.367822249026808
 20
-8.006815666913492
 30
0.0
 11
-1.371759256900823
 21
-7.991067635417429
 31
0.0
  0
LINE
  5
31C7
330
1E
100
AcDbEntity
  8
7
100
AcDbLine
 10
-1.371759256900823
 20
-7.991067635417429
 30
0.0
 11
-1.379633272648856
 21
-7.971382596047352
 31
0.0
  0
LINE
  5
31C8
330
1E
100
AcDbEntity
  8
7
100
AcDbLine
 10
-1.379633272648856
 20
-7.971382596047352
 30
0.0
 11
-1.391444296270901
 21
-7.959571572425303
 31
0.0
  0
LINE
  5
31C9
330
1E
100
AcDbEntity
  8
7
100
AcDbLine
 10
-1.391444296270901
 20
-7.959571572425303
 30
0.0
 11
-1.411129335640982
 21
-7.95169755667727
 31
0.0
  0
LINE
  5
31CA
330
1E
100
AcDbEntity
  8
7
100
AcDbLine
 10
-1.411129335640982
 20
-7.95169755667727
 30
0.0
 11
-1.426877367137045
 21
-7.947760548803255
 31
0.0
  0
LINE
  5
31CB
330
1E
100
AcDbEntity
  8
7
100
AcDbLine
 10
16.25422499506768
 20
-7.947760548803259
 30
0.0
 11
16.23060294782358
 21
-7.951697556677274
 31
0.0
  0
LINE
  5
31CC
330
1E
100
AcDbEntity
  8
7
100
AcDbLine
 10
16.23060294782358
 20
-7.951697556677274
 30
0.0
 11
16.21485491632752
 21
-7.959571572425307
 31
0.0
  0
LINE
  5
31CD
330
1E
100
AcDbEntity
  8
7
100
AcDbLine
 10
16.21485491632752
 20
-7.959571572425307
 30
0.0
 11
16.20304389270547
 21
-7.97531960392137
 31
0.0
  0
LINE
  5
31CE
330
1E
100
AcDbEntity
  8
7
100
AcDbLine
 10
16.20304389270547
 20
-7.97531960392137
 30
0.0
 11
16.19516987695744
 21
-7.991067635417433
 31
0.0
  0
LINE
  5
31CF
330
1E
100
AcDbEntity
  8
7
100
AcDbLine
 10
16.19516987695744
 20
-7.991067635417433
 30
0.0
 11
16.19123286908342
 21
-8.006815666913496
 31
0.0
  0
LINE
  5
31D0
330
1E
100
AcDbEntity
  8
7
100
AcDbLine
 10
-1.367822249026808
 20
-8.069807792897744
 30
0.0
 11
-1.367822249026808
 21
-8.054059761401681
 31
0.0
  0
LINE
  5
31D1
330
1E
100
AcDbEntity
  8
7
100
AcDbLine
 10
-1.367822249026808
 20
-8.054059761401681
 30
0.0
 11
-1.367822249026808
 21
-8.006815666913492
 31
0.0
  0
LINE
  5
31D2
330
1E
100
AcDbEntity
  8
7
100
AcDbLine
 10
16.19123286908342
 20
-8.006815666913496
 30
0.0
 11
16.19123286908342
 21
-8.054059761401685
 31
0.0
  0
LINE
  5
31D3
330
1E
100
AcDbEntity
  8
7
100
AcDbLine
 10
16.19123286908342
 20
-8.054059761401685
 30
0.0
 11
16.19123286908342
 21
-8.069807792897748
 31
0.0
  0
LINE
  5
31D4
330
1E
100
AcDbEntity
  8
7
100
AcDbLine
 10
16.85265019191807
 20
-8.069807792897748
 30
0.0
 11
16.89595727853224
 21
-8.050122753527666
 31
0.0
  0
LINE
  5
31D5
330
1E
100
AcDbEntity
  8
7
100
AcDbLine
 10
16.89595727853224
 20
-8.050122753527666
 30
0.0
 11
16.91170531002831
 21
-8.006815666913496
 31
0.0
  0
LINE
  5
31D6
330
1E
100
AcDbEntity
  8
7
100
AcDbLine
 10
16.31328011317791
 20
-8.006815666913496
 30
0.0
 11
16.32902814467398
 21
-8.050122753527666
 31
0.0
  0
LINE
  5
31D7
330
1E
100
AcDbEntity
  8
7
100
AcDbLine
 10
16.32902814467398
 20
-8.050122753527666
 30
0.0
 11
16.37233523128815
 21
-8.069807792897748
 31
0.0
  0
LINE
  5
31D8
330
1E
100
AcDbEntity
  8
7
100
AcDbLine
 10
16.25422499506768
 20
-7.947760548803259
 30
0.0
 11
16.29359507380783
 21
-7.96744558817334
 31
0.0
  0
LINE
  5
31D9
330
1E
100
AcDbEntity
  8
7
100
AcDbLine
 10
16.29359507380783
 20
-7.96744558817334
 30
0.0
 11
16.31328011317791
 21
-8.006815666913496
 31
0.0
  0
LINE
  5
31DA
330
1E
100
AcDbEntity
  8
7
100
AcDbLine
 10
-1.485932485247278
 20
-8.006815666913492
 30
0.0
 11
-1.470184453751219
 21
-7.967445588173337
 31
0.0
  0
LINE
  5
31DB
330
1E
100
AcDbEntity
  8
7
100
AcDbLine
 10
-1.470184453751219
 20
-7.967445588173337
 30
0.0
 11
-1.426877367137045
 21
-7.947760548803255
 31
0.0
  0
LINE
  5
31DC
330
1E
100
AcDbEntity
  8
7
100
AcDbLine
 10
-1.54892461123153
 20
-8.069807792897744
 30
0.0
 11
-1.50561752461736
 21
-8.050122753527663
 31
0.0
  0
LINE
  5
31DD
330
1E
100
AcDbEntity
  8
7
100
AcDbLine
 10
-1.50561752461736
 20
-8.050122753527663
 30
0.0
 11
-1.485932485247278
 21
-8.006815666913492
 31
0.0
  0
LINE
  5
31DE
330
1E
100
AcDbEntity
  8
7
100
AcDbLine
 10
-2.088294689971689
 20
-8.006815666913492
 30
0.0
 11
-2.068609650601612
 21
-8.050122753527663
 31
0.0
  0
LINE
  5
31DF
330
1E
100
AcDbEntity
  8
7
100
AcDbLine
 10
-2.068609650601612
 20
-8.050122753527663
 30
0.0
 11
-2.029239571861452
 21
-8.069807792897744
 31
0.0
  0
LINE
  5
31E0
330
1E
100
AcDbEntity
  8
7
100
AcDbLine
 10
16.31328011317791
 20
-6.408390470063103
 30
0.0
 11
16.29359507380783
 21
-6.451697556677274
 31
0.0
  0
LINE
  5
31E1
330
1E
100
AcDbEntity
  8
7
100
AcDbLine
 10
16.29359507380783
 20
-6.451697556677274
 30
0.0
 11
16.25422499506768
 21
-6.46744558817334
 31
0.0
  0
LINE
  5
31E2
330
1E
100
AcDbEntity
  8
7
100
AcDbLine
 10
16.37233523128815
 20
-6.349335351952866
 30
0.0
 11
16.32902814467398
 21
-6.365083383448926
 31
0.0
  0
LINE
  5
31E3
330
1E
100
AcDbEntity
  8
7
100
AcDbLine
 10
16.32902814467398
 20
-6.365083383448926
 30
0.0
 11
16.31328011317791
 21
-6.408390470063103
 31
0.0
  0
LINE
  5
31E4
330
1E
100
AcDbEntity
  8
7
100
AcDbLine
 10
16.91170531002831
 20
-6.408390470063103
 30
0.0
 11
16.89595727853224
 21
-6.365083383448926
 31
0.0
  0
LINE
  5
31E5
330
1E
100
AcDbEntity
  8
7
100
AcDbLine
 10
16.89595727853224
 20
-6.365083383448926
 30
0.0
 11
16.85265019191807
 21
-6.349335351952866
 31
0.0
  0
LINE
  5
31E6
330
1E
100
AcDbEntity
  8
7
100
AcDbLine
 10
16.47076042813854
 20
-7.069807792897748
 30
0.0
 11
16.40383129428027
 21
-7.085555824393811
 31
0.0
  0
LINE
  5
31E7
330
1E
100
AcDbEntity
  8
7
100
AcDbLine
 10
16.40383129428027
 20
-7.085555824393811
 30
0.0
 11
16.35265019191807
 21
-7.136736926756015
 31
0.0
  0
LINE
  5
31E8
330
1E
100
AcDbEntity
  8
7
100
AcDbLine
 10
16.35265019191807
 20
-7.136736926756015
 30
0.0
 11
16.33296515254799
 21
-7.207603068488296
 31
0.0
  0
LINE
  5
31E9
330
1E
100
AcDbEntity
  8
7
100
AcDbLine
 10
16.33296515254799
 20
-7.207603068488296
 30
0.0
 11
16.35265019191807
 21
-7.278469210220581
 31
0.0
  0
LINE
  5
31EA
330
1E
100
AcDbEntity
  8
7
100
AcDbLine
 10
16.35265019191807
 20
-7.278469210220581
 30
0.0
 11
16.40383129428027
 21
-7.329650312582785
 31
0.0
  0
LINE
  5
31EB
330
1E
100
AcDbEntity
  8
7
100
AcDbLine
 10
16.40383129428027
 20
-7.329650312582785
 30
0.0
 11
16.47076042813854
 21
-7.349335351952866
 31
0.0
  0
LINE
  5
31EC
330
1E
100
AcDbEntity
  8
7
100
AcDbLine
 10
16.63217775097319
 20
-6.443823540929244
 30
0.0
 11
16.70304389270547
 21
-6.463508580299322
 31
0.0
  0
LINE
  5
31ED
330
1E
100
AcDbEntity
  8
7
100
AcDbLine
 10
16.70304389270547
 20
-6.463508580299322
 30
0.0
 11
16.75422499506768
 21
-6.514689682661526
 31
0.0
  0
LINE
  5
31EE
330
1E
100
AcDbEntity
  8
7
100
AcDbLine
 10
16.75422499506768
 20
-6.514689682661526
 30
0.0
 11
16.77391003443776
 21
-6.581618816519792
 31
0.0
  0
LINE
  5
31EF
330
1E
100
AcDbEntity
  8
7
100
AcDbLine
 10
16.77391003443776
 20
-6.581618816519792
 30
0.0
 11
16.75422499506768
 21
-6.652484958252077
 31
0.0
  0
LINE
  5
31F0
330
1E
100
AcDbEntity
  8
7
100
AcDbLine
 10
16.75422499506768
 20
-6.652484958252077
 30
0.0
 11
16.70304389270547
 21
-6.703666060614281
 31
0.0
  0
LINE
  5
31F1
330
1E
100
AcDbEntity
  8
7
100
AcDbLine
 10
16.70304389270547
 20
-6.703666060614281
 30
0.0
 11
16.63217775097319
 21
-6.723351099984363
 31
0.0
  0
LINE
  5
31F2
330
1E
100
AcDbEntity
  8
7
100
AcDbLine
 10
16.51406751475271
 20
-6.723351099984363
 30
0.0
 11
16.44320137302043
 21
-6.703666060614281
 31
0.0
  0
LINE
  5
31F3
330
1E
100
AcDbEntity
  8
7
100
AcDbLine
 10
16.44320137302043
 20
-6.703666060614281
 30
0.0
 11
16.39202027065823
 21
-6.652484958252077
 31
0.0
  0
LINE
  5
31F4
330
1E
100
AcDbEntity
  8
7
100
AcDbLine
 10
16.39202027065823
 20
-6.652484958252077
 30
0.0
 11
16.37233523128815
 21
-6.581618816519792
 31
0.0
  0
LINE
  5
31F5
330
1E
100
AcDbEntity
  8
7
100
AcDbLine
 10
16.37233523128815
 20
-6.581618816519792
 30
0.0
 11
16.39202027065823
 21
-6.514689682661526
 31
0.0
  0
LINE
  5
31F6
330
1E
100
AcDbEntity
  8
7
100
AcDbLine
 10
16.39202027065823
 20
-6.514689682661526
 30
0.0
 11
16.44320137302043
 21
-6.463508580299322
 31
0.0
  0
LINE
  5
31F7
330
1E
100
AcDbEntity
  8
7
100
AcDbLine
 10
16.44320137302043
 20
-6.463508580299322
 30
0.0
 11
16.51406751475271
 21
-6.443823540929244
 31
0.0
  0
LINE
  5
31F8
330
1E
100
AcDbEntity
  8
7
100
AcDbLine
 10
-1.808767130916571
 20
-7.975319603921366
 30
0.0
 11
-1.875696264774841
 21
-7.955634564551285
 31
0.0
  0
LINE
  5
31F9
330
1E
100
AcDbEntity
  8
7
100
AcDbLine
 10
-1.875696264774841
 20
-7.955634564551285
 30
0.0
 11
-1.93081437501106
 21
-7.904453462189081
 31
0.0
  0
LINE
  5
31FA
330
1E
100
AcDbEntity
  8
7
100
AcDbLine
 10
-1.93081437501106
 20
-7.904453462189081
 30
0.0
 11
-1.946562406507123
 21
-7.833587320456796
 31
0.0
  0
LINE
  5
31FB
330
1E
100
AcDbEntity
  8
7
100
AcDbLine
 10
-1.946562406507123
 20
-7.833587320456796
 30
0.0
 11
-1.93081437501106
 21
-7.762721178724515
 31
0.0
  0
LINE
  5
31FC
330
1E
100
AcDbEntity
  8
7
100
AcDbLine
 10
-1.93081437501106
 20
-7.762721178724515
 30
0.0
 11
-1.875696264774841
 21
-7.711540076362311
 31
0.0
  0
LINE
  5
31FD
330
1E
100
AcDbEntity
  8
7
100
AcDbLine
 10
-1.875696264774841
 20
-7.711540076362311
 30
0.0
 11
-1.808767130916571
 21
-7.691855036992233
 31
0.0
  0
LINE
  5
31FE
330
1E
100
AcDbEntity
  8
7
100
AcDbLine
 10
-1.686719886822086
 20
-7.691855036992233
 30
0.0
 11
-1.6158537450898
 21
-7.711540076362311
 31
0.0
  0
LINE
  5
31FF
330
1E
100
AcDbEntity
  8
7
100
AcDbLine
 10
-1.6158537450898
 20
-7.711540076362311
 30
0.0
 11
-1.564672642727597
 21
-7.762721178724515
 31
0.0
  0
LINE
  5
3200
330
1E
100
AcDbEntity
  8
7
100
AcDbLine
 10
-1.564672642727597
 20
-7.762721178724515
 30
0.0
 11
-1.54892461123153
 21
-7.833587320456796
 31
0.0
  0
LINE
  5
3201
330
1E
100
AcDbEntity
  8
7
100
AcDbLine
 10
-1.54892461123153
 20
-7.833587320456796
 30
0.0
 11
-1.564672642727597
 21
-7.904453462189081
 31
0.0
  0
LINE
  5
3202
330
1E
100
AcDbEntity
  8
7
100
AcDbLine
 10
-1.564672642727597
 20
-7.904453462189081
 30
0.0
 11
-1.6158537450898
 21
-7.955634564551285
 31
0.0
  0
LINE
  5
3203
330
1E
100
AcDbEntity
  8
7
100
AcDbLine
 10
-1.6158537450898
 20
-7.955634564551285
 30
0.0
 11
-1.686719886822086
 21
-7.975319603921366
 31
0.0
  0
LINE
  5
3204
330
1E
100
AcDbEntity
  8
7
100
AcDbLine
 10
16.51406751475271
 20
-7.97531960392137
 30
0.0
 11
16.44320137302043
 21
-7.955634564551289
 31
0.0
  0
LINE
  5
3205
330
1E
100
AcDbEntity
  8
7
100
AcDbLine
 10
16.44320137302043
 20
-7.955634564551289
 30
0.0
 11
16.39202027065823
 21
-7.904453462189085
 31
0.0
  0
LINE
  5
3206
330
1E
100
AcDbEntity
  8
7
100
AcDbLine
 10
16.39202027065823
 20
-7.904453462189085
 30
0.0
 11
16.37233523128815
 21
-7.8335873204568
 31
0.0
  0
LINE
  5
3207
330
1E
100
AcDbEntity
  8
7
100
AcDbLine
 10
16.37233523128815
 20
-7.8335873204568
 30
0.0
 11
16.39202027065823
 21
-7.762721178724518
 31
0.0
  0
LINE
  5
3208
330
1E
100
AcDbEntity
  8
7
100
AcDbLine
 10
16.39202027065823
 20
-7.762721178724518
 30
0.0
 11
16.44320137302043
 21
-7.711540076362314
 31
0.0
  0
LINE
  5
3209
330
1E
100
AcDbEntity
  8
7
100
AcDbLine
 10
16.44320137302043
 20
-7.711540076362314
 30
0.0
 11
16.51406751475271
 21
-7.691855036992237
 31
0.0
  0
LINE
  5
320A
330
1E
100
AcDbEntity
  8
7
100
AcDbLine
 10
16.63217775097319
 20
-7.691855036992237
 30
0.0
 11
16.70304389270547
 21
-7.711540076362314
 31
0.0
  0
LINE
  5
320B
330
1E
100
AcDbEntity
  8
7
100
AcDbLine
 10
16.70304389270547
 20
-7.711540076362314
 30
0.0
 11
16.75422499506768
 21
-7.762721178724518
 31
0.0
  0
LINE
  5
320C
330
1E
100
AcDbEntity
  8
7
100
AcDbLine
 10
16.75422499506768
 20
-7.762721178724518
 30
0.0
 11
16.77391003443776
 21
-7.8335873204568
 31
0.0
  0
LINE
  5
320D
330
1E
100
AcDbEntity
  8
7
100
AcDbLine
 10
16.77391003443776
 20
-7.8335873204568
 30
0.0
 11
16.75422499506768
 21
-7.904453462189085
 31
0.0
  0
LINE
  5
320E
330
1E
100
AcDbEntity
  8
7
100
AcDbLine
 10
16.75422499506768
 20
-7.904453462189085
 30
0.0
 11
16.70304389270547
 21
-7.955634564551289
 31
0.0
  0
LINE
  5
320F
330
1E
100
AcDbEntity
  8
7
100
AcDbLine
 10
16.70304389270547
 20
-7.955634564551289
 30
0.0
 11
16.63217775097319
 21
-7.97531960392137
 31
0.0
  0
LINE
  5
3210
330
1E
100
AcDbEntity
  8
7
100
AcDbLine
 10
16.19123286908342
 20
-6.349335351952866
 30
0.0
 11
16.19123286908342
 21
-6.365083383448926
 31
0.0
  0
LINE
  5
3211
330
1E
100
AcDbEntity
  8
7
100
AcDbLine
 10
16.19123286908342
 20
-6.365083383448926
 30
0.0
 11
16.19123286908342
 21
-6.408390470063103
 31
0.0
  0
LINE
  5
3212
330
1E
100
AcDbEntity
  8
7
100
AcDbLine
 10
16.19123286908342
 20
-6.408390470063103
 30
0.0
 11
16.19516987695744
 21
-6.428075509433181
 31
0.0
  0
LINE
  5
3213
330
1E
100
AcDbEntity
  8
7
100
AcDbLine
 10
16.19516987695744
 20
-6.428075509433181
 30
0.0
 11
16.20304389270547
 21
-6.443823540929244
 31
0.0
  0
LINE
  5
3214
330
1E
100
AcDbEntity
  8
7
100
AcDbLine
 10
16.20304389270547
 20
-6.443823540929244
 30
0.0
 11
16.21879192420154
 21
-6.455634564551289
 31
0.0
  0
LINE
  5
3215
330
1E
100
AcDbEntity
  8
7
100
AcDbLine
 10
16.21879192420154
 20
-6.455634564551289
 30
0.0
 11
16.2345399556976
 21
-6.46744558817334
 31
0.0
  0
LINE
  5
3216
330
1E
100
AcDbEntity
  8
7
100
AcDbLine
 10
16.2345399556976
 20
-6.46744558817334
 30
0.0
 11
16.25422499506768
 21
-6.46744558817334
 31
0.0
  0
LINE
  5
3217
330
1E
100
AcDbEntity
  8
7
100
AcDbLine
 10
-1.367822249026808
 20
-6.4083904700631
 30
0.0
 11
-1.367822249026808
 21
-6.365083383448922
 31
0.0
  0
LINE
  5
3218
330
1E
100
AcDbEntity
  8
7
100
AcDbLine
 10
-1.367822249026808
 20
-6.365083383448922
 30
0.0
 11
-1.367822249026808
 21
-6.349335351952863
 31
0.0
  0
LINE
  5
3219
330
1E
100
AcDbEntity
  8
7
100
AcDbLine
 10
-1.426877367137045
 20
-6.467445588173337
 30
0.0
 11
-1.407192327766967
 21
-6.463508580299318
 31
0.0
  0
LINE
  5
321A
330
1E
100
AcDbEntity
  8
7
100
AcDbLine
 10
-1.407192327766967
 20
-6.463508580299318
 30
0.0
 11
-1.391444296270901
 21
-6.455634564551285
 31
0.0
  0
LINE
  5
321B
330
1E
100
AcDbEntity
  8
7
100
AcDbLine
 10
-1.391444296270901
 20
-6.455634564551285
 30
0.0
 11
-1.375696264774841
 21
-6.439886533055226
 31
0.0
  0
LINE
  5
321C
330
1E
100
AcDbEntity
  8
7
100
AcDbLine
 10
-1.375696264774841
 20
-6.439886533055226
 30
0.0
 11
-1.367822249026808
 21
-6.424138501559159
 31
0.0
  0
LINE
  5
321D
330
1E
100
AcDbEntity
  8
7
100
AcDbLine
 10
-1.367822249026808
 20
-6.424138501559159
 30
0.0
 11
-1.367822249026808
 21
-6.4083904700631
 31
0.0
  0
LINE
  5
321E
330
1E
100
AcDbEntity
  8
7
100
AcDbLine
 10
-1.426877367137045
 20
-6.467445588173337
 30
0.0
 11
-1.470184453751219
 21
-6.45169755667727
 31
0.0
  0
LINE
  5
321F
330
1E
100
AcDbEntity
  8
7
100
AcDbLine
 10
-1.470184453751219
 20
-6.45169755667727
 30
0.0
 11
-1.485932485247278
 21
-6.4083904700631
 31
0.0
  0
LINE
  5
3220
330
1E
100
AcDbEntity
  8
7
100
AcDbLine
 10
-1.808767130916571
 20
-6.723351099984359
 30
0.0
 11
-1.875696264774841
 21
-6.703666060614278
 31
0.0
  0
LINE
  5
3221
330
1E
100
AcDbEntity
  8
7
100
AcDbLine
 10
-1.875696264774841
 20
-6.703666060614278
 30
0.0
 11
-1.93081437501106
 21
-6.652484958252074
 31
0.0
  0
LINE
  5
3222
330
1E
100
AcDbEntity
  8
7
100
AcDbLine
 10
-1.93081437501106
 20
-6.652484958252074
 30
0.0
 11
-1.946562406507123
 21
-6.581618816519789
 31
0.0
  0
LINE
  5
3223
330
1E
100
AcDbEntity
  8
7
100
AcDbLine
 10
-1.946562406507123
 20
-6.581618816519789
 30
0.0
 11
-1.93081437501106
 21
-6.514689682661522
 31
0.0
  0
LINE
  5
3224
330
1E
100
AcDbEntity
  8
7
100
AcDbLine
 10
-1.93081437501106
 20
-6.514689682661522
 30
0.0
 11
-1.875696264774841
 21
-6.463508580299318
 31
0.0
  0
LINE
  5
3225
330
1E
100
AcDbEntity
  8
7
100
AcDbLine
 10
-1.875696264774841
 20
-6.463508580299318
 30
0.0
 11
-1.808767130916571
 21
-6.443823540929241
 31
0.0
  0
LINE
  5
3226
330
1E
100
AcDbEntity
  8
7
100
AcDbLine
 10
-1.686719886822086
 20
-6.443823540929241
 30
0.0
 11
-1.6158537450898
 21
-6.463508580299318
 31
0.0
  0
LINE
  5
3227
330
1E
100
AcDbEntity
  8
7
100
AcDbLine
 10
-1.6158537450898
 20
-6.463508580299318
 30
0.0
 11
-1.564672642727597
 21
-6.514689682661522
 31
0.0
  0
LINE
  5
3228
330
1E
100
AcDbEntity
  8
7
100
AcDbLine
 10
-1.564672642727597
 20
-6.514689682661522
 30
0.0
 11
-1.54892461123153
 21
-6.581618816519789
 31
0.0
  0
LINE
  5
3229
330
1E
100
AcDbEntity
  8
7
100
AcDbLine
 10
-1.54892461123153
 20
-6.581618816519789
 30
0.0
 11
-1.564672642727597
 21
-6.652484958252074
 31
0.0
  0
LINE
  5
322A
330
1E
100
AcDbEntity
  8
7
100
AcDbLine
 10
-1.564672642727597
 20
-6.652484958252074
 30
0.0
 11
-1.6158537450898
 21
-6.703666060614278
 31
0.0
  0
LINE
  5
322B
330
1E
100
AcDbEntity
  8
7
100
AcDbLine
 10
-1.6158537450898
 20
-6.703666060614278
 30
0.0
 11
-1.686719886822086
 21
-6.723351099984359
 31
0.0
  0
LINE
  5
322C
330
1E
100
AcDbEntity
  8
7
100
AcDbLine
 10
-1.647349808081926
 20
-7.349335351952863
 30
0.0
 11
-1.576483666349641
 21
-7.329650312582781
 31
0.0
  0
LINE
  5
322D
330
1E
100
AcDbEntity
  8
7
100
AcDbLine
 10
-1.576483666349641
 20
-7.329650312582781
 30
0.0
 11
-1.525302563987438
 21
-7.278469210220578
 31
0.0
  0
LINE
  5
322E
330
1E
100
AcDbEntity
  8
7
100
AcDbLine
 10
-1.525302563987438
 20
-7.278469210220578
 30
0.0
 11
-1.509554532491375
 21
-7.207603068488293
 31
0.0
  0
LINE
  5
322F
330
1E
100
AcDbEntity
  8
7
100
AcDbLine
 10
-1.509554532491375
 20
-7.207603068488293
 30
0.0
 11
-1.525302563987438
 21
-7.136736926756011
 31
0.0
  0
LINE
  5
3230
330
1E
100
AcDbEntity
  8
7
100
AcDbLine
 10
-1.525302563987438
 20
-7.136736926756011
 30
0.0
 11
-1.576483666349641
 21
-7.085555824393807
 31
0.0
  0
LINE
  5
3231
330
1E
100
AcDbEntity
  8
7
100
AcDbLine
 10
-1.576483666349641
 20
-7.085555824393807
 30
0.0
 11
-1.647349808081926
 21
-7.069807792897744
 31
0.0
  0
LINE
  5
3232
330
1E
100
AcDbEntity
  8
7
100
AcDbLine
 10
-2.029239571861452
 20
-6.349335351952863
 30
0.0
 11
-2.068609650601612
 21
-6.365083383448922
 31
0.0
  0
LINE
  5
3233
330
1E
100
AcDbEntity
  8
7
100
AcDbLine
 10
-2.068609650601612
 20
-6.365083383448922
 30
0.0
 11
-2.088294689971689
 21
-6.4083904700631
 31
0.0
  0
LINE
  5
3234
330
1E
100
AcDbEntity
  8
7
100
AcDbLine
 10
-1.485932485247278
 20
-6.4083904700631
 30
0.0
 11
-1.50561752461736
 21
-6.365083383448922
 31
0.0
  0
LINE
  5
3235
330
1E
100
AcDbEntity
  8
7
100
AcDbLine
 10
-1.50561752461736
 20
-6.365083383448922
 30
0.0
 11
-1.54892461123153
 21
-6.349335351952863
 31
0.0
  0
LINE
  5
3236
330
1E
100
AcDbEntity
  8
7
100
AcDbLine
 10
7.395957278532247
 20
-6.471382596047353
 30
0.0
 11
7.356587199792091
 21
-6.471382596047353
 31
0.0
  0
LINE
  5
3237
330
1E
100
AcDbEntity
  8
7
100
AcDbLine
 10
7.356587199792091
 20
-6.471382596047353
 30
0.0
 11
7.273910034437758
 21
-6.471382596047353
 31
0.0
  0
LINE
  5
3238
330
1E
100
AcDbEntity
  8
7
100
AcDbLine
 10
7.285721058059806
 20
-6.34539834407885
 30
0.0
 11
7.344776176170039
 21
-6.361146375574909
 31
0.0
  0
LINE
  5
3239
330
1E
100
AcDbEntity
  8
7
100
AcDbLine
 10
7.344776176170039
 20
-6.361146375574909
 30
0.0
 11
7.388083262784217
 21
-6.404453462189087
 31
0.0
  0
LINE
  5
323A
330
1E
100
AcDbEntity
  8
7
100
AcDbLine
 10
7.388083262784217
 20
-6.404453462189087
 30
0.0
 11
7.403831294280276
 21
-6.46350858029932
 31
0.0
  0
LINE
  5
323B
330
1E
100
AcDbEntity
  8
7
100
AcDbLine
 10
7.395957278532247
 20
-6.471382596047353
 30
0.0
 11
7.380209247036184
 21
-6.412327477937116
 31
0.0
  0
LINE
  5
323C
330
1E
100
AcDbEntity
  8
7
100
AcDbLine
 10
7.380209247036184
 20
-6.412327477937116
 30
0.0
 11
7.33690216042201
 21
-6.369020391322942
 31
0.0
  0
LINE
  5
323D
330
1E
100
AcDbEntity
  8
7
100
AcDbLine
 10
7.33690216042201
 20
-6.369020391322942
 30
0.0
 11
7.273910034437758
 21
-6.353272359826879
 31
0.0
  0
LINE
  5
323E
330
1E
100
AcDbEntity
  8
7
100
AcDbLine
 10
4.514067514752721
 20
-6.471382596047353
 30
0.0
 11
4.549500585618861
 21
-6.471382596047353
 31
0.0
  0
LINE
  5
323F
330
1E
100
AcDbEntity
  8
7
100
AcDbLine
 10
4.549500585618861
 20
-6.471382596047353
 30
0.0
 11
4.63611475884721
 21
-6.471382596047353
 31
0.0
  0
LINE
  5
3240
330
1E
100
AcDbEntity
  8
7
100
AcDbLine
 10
4.514067514752721
 20
-6.471382596047353
 30
0.0
 11
4.52981554624878
 21
-6.412327477937116
 31
0.0
  0
LINE
  5
3241
330
1E
100
AcDbEntity
  8
7
100
AcDbLine
 10
4.52981554624878
 20
-6.412327477937116
 30
0.0
 11
4.573122632862954
 21
-6.369020391322942
 31
0.0
  0
LINE
  5
3242
330
1E
100
AcDbEntity
  8
7
100
AcDbLine
 10
4.573122632862954
 20
-6.369020391322942
 30
0.0
 11
4.63611475884721
 21
-6.353272359826879
 31
0.0
  0
LINE
  5
3243
330
1E
100
AcDbEntity
  8
7
100
AcDbLine
 10
4.624303735225158
 20
-6.34539834407885
 30
0.0
 11
4.565248617114921
 21
-6.361146375574909
 31
0.0
  0
LINE
  5
3244
330
1E
100
AcDbEntity
  8
7
100
AcDbLine
 10
4.565248617114921
 20
-6.361146375574909
 30
0.0
 11
4.52194153050075
 21
-6.404453462189087
 31
0.0
  0
LINE
  5
3245
330
1E
100
AcDbEntity
  8
7
100
AcDbLine
 10
4.52194153050075
 20
-6.404453462189087
 30
0.0
 11
4.506193499004687
 21
-6.46350858029932
 31
0.0
  0
LINE
  5
3246
330
1E
100
AcDbEntity
  8
7
100
AcDbLine
 10
4.63611475884721
 20
-6.353272359826879
 30
0.0
 11
4.63611475884721
 21
-6.38870543069302
 31
0.0
  0
LINE
  5
3247
330
1E
100
AcDbEntity
  8
7
100
AcDbLine
 10
4.63611475884721
 20
-6.38870543069302
 30
0.0
 11
4.63611475884721
 21
-6.471382596047353
 31
0.0
  0
LINE
  5
3248
330
1E
100
AcDbEntity
  8
7
100
AcDbLine
 10
7.273910034437758
 20
-6.353272359826879
 30
0.0
 11
7.273910034437758
 21
-6.38870543069302
 31
0.0
  0
LINE
  5
3249
330
1E
100
AcDbEntity
  8
7
100
AcDbLine
 10
7.273910034437758
 20
-6.38870543069302
 30
0.0
 11
7.273910034437758
 21
-6.471382596047353
 31
0.0
  0
LINE
  5
324A
330
1E
100
AcDbEntity
  8
7
100
AcDbLine
 10
7.395957278532247
 20
-7.920201493685146
 30
0.0
 11
7.356587199792091
 21
-7.920201493685146
 31
0.0
  0
LINE
  5
324B
330
1E
100
AcDbEntity
  8
7
100
AcDbLine
 10
7.356587199792091
 20
-7.920201493685146
 30
0.0
 11
7.273910034437758
 21
-7.920201493685146
 31
0.0
  0
LINE
  5
324C
330
1E
100
AcDbEntity
  8
7
100
AcDbLine
 10
7.403831294280276
 20
-7.928075509433179
 30
0.0
 11
7.388083262784217
 21
-7.987130627543413
 31
0.0
  0
LINE
  5
324D
330
1E
100
AcDbEntity
  8
7
100
AcDbLine
 10
7.388083262784217
 20
-7.987130627543413
 30
0.0
 11
7.344776176170039
 21
-8.03043771415759
 31
0.0
  0
LINE
  5
324E
330
1E
100
AcDbEntity
  8
7
100
AcDbLine
 10
7.344776176170039
 20
-8.03043771415759
 30
0.0
 11
7.285721058059806
 21
-8.050122753527665
 31
0.0
  0
LINE
  5
324F
330
1E
100
AcDbEntity
  8
7
100
AcDbLine
 10
7.395957278532247
 20
-7.920201493685146
 30
0.0
 11
7.380209247036184
 21
-7.979256611795383
 31
0.0
  0
LINE
  5
3250
330
1E
100
AcDbEntity
  8
7
100
AcDbLine
 10
7.380209247036184
 20
-7.979256611795383
 30
0.0
 11
7.33690216042201
 21
-8.022563698409557
 31
0.0
  0
LINE
  5
3251
330
1E
100
AcDbEntity
  8
7
100
AcDbLine
 10
7.33690216042201
 20
-8.022563698409557
 30
0.0
 11
7.273910034437758
 21
-8.03831172990562
 31
0.0
  0
LINE
  5
3252
330
1E
100
AcDbEntity
  8
7
100
AcDbLine
 10
4.514067514752721
 20
-7.920201493685146
 30
0.0
 11
4.549500585618861
 21
-7.920201493685146
 31
0.0
  0
LINE
  5
3253
330
1E
100
AcDbEntity
  8
7
100
AcDbLine
 10
4.549500585618861
 20
-7.920201493685146
 30
0.0
 11
4.63611475884721
 21
-7.920201493685146
 31
0.0
  0
LINE
  5
3254
330
1E
100
AcDbEntity
  8
7
100
AcDbLine
 10
4.514067514752721
 20
-7.920201493685146
 30
0.0
 11
4.52981554624878
 21
-7.979256611795383
 31
0.0
  0
LINE
  5
3255
330
1E
100
AcDbEntity
  8
7
100
AcDbLine
 10
4.52981554624878
 20
-7.979256611795383
 30
0.0
 11
4.573122632862954
 21
-8.022563698409557
 31
0.0
  0
LINE
  5
3256
330
1E
100
AcDbEntity
  8
7
100
AcDbLine
 10
4.573122632862954
 20
-8.022563698409557
 30
0.0
 11
4.63611475884721
 21
-8.03831172990562
 31
0.0
  0
LINE
  5
3257
330
1E
100
AcDbEntity
  8
7
100
AcDbLine
 10
4.506193499004687
 20
-7.928075509433179
 30
0.0
 11
4.52194153050075
 21
-7.987130627543413
 31
0.0
  0
LINE
  5
3258
330
1E
100
AcDbEntity
  8
7
100
AcDbLine
 10
4.52194153050075
 20
-7.987130627543413
 30
0.0
 11
4.565248617114921
 21
-8.03043771415759
 31
0.0
  0
LINE
  5
3259
330
1E
100
AcDbEntity
  8
7
100
AcDbLine
 10
4.565248617114921
 20
-8.03043771415759
 30
0.0
 11
4.624303735225158
 21
-8.050122753527665
 31
0.0
  0
LINE
  5
325A
330
1E
100
AcDbEntity
  8
7
100
AcDbLine
 10
4.63611475884721
 20
-7.920201493685146
 30
0.0
 11
4.63611475884721
 21
-8.002878659039479
 31
0.0
  0
LINE
  5
325B
330
1E
100
AcDbEntity
  8
7
100
AcDbLine
 10
4.63611475884721
 20
-8.002878659039479
 30
0.0
 11
4.63611475884721
 21
-8.03831172990562
 31
0.0
  0
LINE
  5
325C
330
1E
100
AcDbEntity
  8
7
100
AcDbLine
 10
7.273910034437758
 20
-7.920201493685146
 30
0.0
 11
7.273910034437758
 21
-8.002878659039479
 31
0.0
  0
LINE
  5
325D
330
1E
100
AcDbEntity
  8
7
100
AcDbLine
 10
7.273910034437758
 20
-8.002878659039479
 30
0.0
 11
7.273910034437758
 21
-8.03831172990562
 31
0.0
  0
LINE
  5
325E
330
1E
100
AcDbEntity
  8
7
100
AcDbLine
 10
4.478634443886576
 20
-6.471382596047353
 30
0.0
 11
4.443201373020436
 21
-6.471382596047353
 31
0.0
  0
LINE
  5
325F
330
1E
100
AcDbEntity
  8
7
100
AcDbLine
 10
4.443201373020436
 20
-6.471382596047353
 30
0.0
 11
4.360524207666106
 21
-6.471382596047353
 31
0.0
  0
LINE
  5
3260
330
1E
100
AcDbEntity
  8
7
100
AcDbLine
 10
4.368398223414136
 20
-6.34539834407885
 30
0.0
 11
4.431390349398387
 21
-6.361146375574909
 31
0.0
  0
LINE
  5
3261
330
1E
100
AcDbEntity
  8
7
100
AcDbLine
 10
4.431390349398387
 20
-6.361146375574909
 30
0.0
 11
4.474697436012561
 21
-6.404453462189087
 31
0.0
  0
LINE
  5
3262
330
1E
100
AcDbEntity
  8
7
100
AcDbLine
 10
4.474697436012561
 20
-6.404453462189087
 30
0.0
 11
4.490445467508624
 21
-6.46350858029932
 31
0.0
  0
LINE
  5
3263
330
1E
100
AcDbEntity
  8
7
100
AcDbLine
 10
4.478634443886576
 20
-6.471382596047353
 30
0.0
 11
4.462886412390513
 21
-6.412327477937116
 31
0.0
  0
LINE
  5
3264
330
1E
100
AcDbEntity
  8
7
100
AcDbLine
 10
4.462886412390513
 20
-6.412327477937116
 30
0.0
 11
4.419579325776343
 21
-6.369020391322942
 31
0.0
  0
LINE
  5
3265
330
1E
100
AcDbEntity
  8
7
100
AcDbLine
 10
4.419579325776343
 20
-6.369020391322942
 30
0.0
 11
4.360524207666106
 21
-6.353272359826879
 31
0.0
  0
LINE
  5
3266
330
1E
100
AcDbEntity
  8
7
100
AcDbLine
 10
1.600681687981065
 20
-6.471382596047353
 30
0.0
 11
1.63611475884721
 21
-6.471382596047353
 31
0.0
  0
LINE
  5
3267
330
1E
100
AcDbEntity
  8
7
100
AcDbLine
 10
1.63611475884721
 20
-6.471382596047353
 30
0.0
 11
1.718791924201536
 21
-6.471382596047353
 31
0.0
  0
LINE
  5
3268
330
1E
100
AcDbEntity
  8
7
100
AcDbLine
 10
1.600681687981065
 20
-6.471382596047353
 30
0.0
 11
1.616429719477128
 21
-6.412327477937116
 31
0.0
  0
LINE
  5
3269
330
1E
100
AcDbEntity
  8
7
100
AcDbLine
 10
1.616429719477128
 20
-6.412327477937116
 30
0.0
 11
1.659736806091302
 21
-6.369020391322942
 31
0.0
  0
LINE
  5
326A
330
1E
100
AcDbEntity
  8
7
100
AcDbLine
 10
1.659736806091302
 20
-6.369020391322942
 30
0.0
 11
1.718791924201536
 21
-6.353272359826879
 31
0.0
  0
LINE
  5
326B
330
1E
100
AcDbEntity
  8
7
100
AcDbLine
 10
1.710917908453506
 20
-6.34539834407885
 30
0.0
 11
1.647925782469254
 21
-6.361146375574909
 31
0.0
  0
LINE
  5
326C
330
1E
100
AcDbEntity
  8
7
100
AcDbLine
 10
1.647925782469254
 20
-6.361146375574909
 30
0.0
 11
1.604618695855084
 21
-6.404453462189087
 31
0.0
  0
LINE
  5
326D
330
1E
100
AcDbEntity
  8
7
100
AcDbLine
 10
1.604618695855084
 20
-6.404453462189087
 30
0.0
 11
1.588870664359017
 21
-6.46350858029932
 31
0.0
  0
LINE
  5
326E
330
1E
100
AcDbEntity
  8
7
100
AcDbLine
 10
1.718791924201536
 20
-6.353272359826879
 30
0.0
 11
1.718791924201536
 21
-6.38870543069302
 31
0.0
  0
LINE
  5
326F
330
1E
100
AcDbEntity
  8
7
100
AcDbLine
 10
1.718791924201536
 20
-6.38870543069302
 30
0.0
 11
1.718791924201536
 21
-6.471382596047353
 31
0.0
  0
LINE
  5
3270
330
1E
100
AcDbEntity
  8
7
100
AcDbLine
 10
4.360524207666106
 20
-6.353272359826879
 30
0.0
 11
4.360524207666106
 21
-6.38870543069302
 31
0.0
  0
LINE
  5
3271
330
1E
100
AcDbEntity
  8
7
100
AcDbLine
 10
4.360524207666106
 20
-6.38870543069302
 30
0.0
 11
4.360524207666106
 21
-6.471382596047353
 31
0.0
  0
LINE
  5
3272
330
1E
100
AcDbEntity
  8
7
100
AcDbLine
 10
4.478634443886576
 20
-7.920201493685146
 30
0.0
 11
4.443201373020436
 21
-7.920201493685146
 31
0.0
  0
LINE
  5
3273
330
1E
100
AcDbEntity
  8
7
100
AcDbLine
 10
4.443201373020436
 20
-7.920201493685146
 30
0.0
 11
4.360524207666106
 21
-7.920201493685146
 31
0.0
  0
LINE
  5
3274
330
1E
100
AcDbEntity
  8
7
100
AcDbLine
 10
4.490445467508624
 20
-7.928075509433179
 30
0.0
 11
4.474697436012561
 21
-7.987130627543413
 31
0.0
  0
LINE
  5
3275
330
1E
100
AcDbEntity
  8
7
100
AcDbLine
 10
4.474697436012561
 20
-7.987130627543413
 30
0.0
 11
4.431390349398387
 21
-8.03043771415759
 31
0.0
  0
LINE
  5
3276
330
1E
100
AcDbEntity
  8
7
100
AcDbLine
 10
4.431390349398387
 20
-8.03043771415759
 30
0.0
 11
4.368398223414136
 21
-8.050122753527665
 31
0.0
  0
LINE
  5
3277
330
1E
100
AcDbEntity
  8
7
100
AcDbLine
 10
4.478634443886576
 20
-7.920201493685146
 30
0.0
 11
4.462886412390513
 21
-7.979256611795383
 31
0.0
  0
LINE
  5
3278
330
1E
100
AcDbEntity
  8
7
100
AcDbLine
 10
4.462886412390513
 20
-7.979256611795383
 30
0.0
 11
4.419579325776343
 21
-8.022563698409557
 31
0.0
  0
LINE
  5
3279
330
1E
100
AcDbEntity
  8
7
100
AcDbLine
 10
4.419579325776343
 20
-8.022563698409557
 30
0.0
 11
4.360524207666106
 21
-8.03831172990562
 31
0.0
  0
LINE
  5
327A
330
1E
100
AcDbEntity
  8
7
100
AcDbLine
 10
1.600681687981065
 20
-7.920201493685146
 30
0.0
 11
1.63611475884721
 21
-7.920201493685146
 31
0.0
  0
LINE
  5
327B
330
1E
100
AcDbEntity
  8
7
100
AcDbLine
 10
1.63611475884721
 20
-7.920201493685146
 30
0.0
 11
1.718791924201536
 21
-7.920201493685146
 31
0.0
  0
LINE
  5
327C
330
1E
100
AcDbEntity
  8
7
100
AcDbLine
 10
1.600681687981065
 20
-7.920201493685146
 30
0.0
 11
1.616429719477128
 21
-7.979256611795383
 31
0.0
  0
LINE
  5
327D
330
1E
100
AcDbEntity
  8
7
100
AcDbLine
 10
1.616429719477128
 20
-7.979256611795383
 30
0.0
 11
1.659736806091302
 21
-8.022563698409557
 31
0.0
  0
LINE
  5
327E
330
1E
100
AcDbEntity
  8
7
100
AcDbLine
 10
1.659736806091302
 20
-8.022563698409557
 30
0.0
 11
1.718791924201536
 21
-8.03831172990562
 31
0.0
  0
LINE
  5
327F
330
1E
100
AcDbEntity
  8
7
100
AcDbLine
 10
1.588870664359017
 20
-7.928075509433179
 30
0.0
 11
1.604618695855084
 21
-7.987130627543413
 31
0.0
  0
LINE
  5
3280
330
1E
100
AcDbEntity
  8
7
100
AcDbLine
 10
1.604618695855084
 20
-7.987130627543413
 30
0.0
 11
1.647925782469254
 21
-8.03043771415759
 31
0.0
  0
LINE
  5
3281
330
1E
100
AcDbEntity
  8
7
100
AcDbLine
 10
1.647925782469254
 20
-8.03043771415759
 30
0.0
 11
1.710917908453506
 21
-8.050122753527665
 31
0.0
  0
LINE
  5
3282
330
1E
100
AcDbEntity
  8
7
100
AcDbLine
 10
1.718791924201536
 20
-7.920201493685146
 30
0.0
 11
1.718791924201536
 21
-8.002878659039479
 31
0.0
  0
LINE
  5
3283
330
1E
100
AcDbEntity
  8
7
100
AcDbLine
 10
1.718791924201536
 20
-8.002878659039479
 30
0.0
 11
1.718791924201536
 21
-8.03831172990562
 31
0.0
  0
LINE
  5
3284
330
1E
100
AcDbEntity
  8
7
100
AcDbLine
 10
4.360524207666106
 20
-7.920201493685146
 30
0.0
 11
4.360524207666106
 21
-8.002878659039479
 31
0.0
  0
LINE
  5
3285
330
1E
100
AcDbEntity
  8
7
100
AcDbLine
 10
4.360524207666106
 20
-8.002878659039479
 30
0.0
 11
4.360524207666106
 21
-8.03831172990562
 31
0.0
  0
LINE
  5
3286
330
1E
100
AcDbEntity
  8
7
100
AcDbLine
 10
1.565248617114921
 20
-6.471382596047353
 30
0.0
 11
1.52981554624878
 21
-6.471382596047353
 31
0.0
  0
LINE
  5
3287
330
1E
100
AcDbEntity
  8
7
100
AcDbLine
 10
1.52981554624878
 20
-6.471382596047353
 30
0.0
 11
1.443201373020436
 21
-6.471382596047353
 31
0.0
  0
LINE
  5
3288
330
1E
100
AcDbEntity
  8
7
100
AcDbLine
 10
1.455012396642484
 20
-6.34539834407885
 30
0.0
 11
1.514067514752721
 21
-6.361146375574909
 31
0.0
  0
LINE
  5
3289
330
1E
100
AcDbEntity
  8
7
100
AcDbLine
 10
1.514067514752721
 20
-6.361146375574909
 30
0.0
 11
1.557374601366891
 21
-6.404453462189087
 31
0.0
  0
LINE
  5
328A
330
1E
100
AcDbEntity
  8
7
100
AcDbLine
 10
1.557374601366891
 20
-6.404453462189087
 30
0.0
 11
1.573122632862954
 21
-6.46350858029932
 31
0.0
  0
LINE
  5
328B
330
1E
100
AcDbEntity
  8
7
100
AcDbLine
 10
1.565248617114921
 20
-6.471382596047353
 30
0.0
 11
1.549500585618861
 21
-6.412327477937116
 31
0.0
  0
LINE
  5
328C
330
1E
100
AcDbEntity
  8
7
100
AcDbLine
 10
1.549500585618861
 20
-6.412327477937116
 30
0.0
 11
1.506193499004687
 21
-6.369020391322942
 31
0.0
  0
LINE
  5
328D
330
1E
100
AcDbEntity
  8
7
100
AcDbLine
 10
1.506193499004687
 20
-6.369020391322942
 30
0.0
 11
1.443201373020436
 21
-6.353272359826879
 31
0.0
  0
LINE
  5
328E
330
1E
100
AcDbEntity
  8
7
100
AcDbLine
 10
-1.316641146664604
 20
-6.471382596047352
 30
0.0
 11
-1.277271067924445
 21
-6.471382596047352
 31
0.0
  0
LINE
  5
328F
330
1E
100
AcDbEntity
  8
7
100
AcDbLine
 10
-1.277271067924445
 20
-6.471382596047352
 30
0.0
 11
-1.194593902570115
 21
-6.471382596047352
 31
0.0
  0
LINE
  5
3290
330
1E
100
AcDbEntity
  8
7
100
AcDbLine
 10
-1.316641146664604
 20
-6.471382596047352
 30
0.0
 11
-1.300893115168541
 21
-6.412327477937115
 31
0.0
  0
LINE
  5
3291
330
1E
100
AcDbEntity
  8
7
100
AcDbLine
 10
-1.300893115168541
 20
-6.412327477937115
 30
0.0
 11
-1.253649020680352
 21
-6.369020391322941
 31
0.0
  0
LINE
  5
3292
330
1E
100
AcDbEntity
  8
7
100
AcDbLine
 10
-1.253649020680352
 20
-6.369020391322941
 30
0.0
 11
-1.194593902570115
 21
-6.353272359826878
 31
0.0
  0
LINE
  5
3293
330
1E
100
AcDbEntity
  8
7
100
AcDbLine
 10
-1.206404926192163
 20
-6.345398344078848
 30
0.0
 11
-1.265460044302397
 21
-6.361146375574907
 31
0.0
  0
LINE
  5
3294
330
1E
100
AcDbEntity
  8
7
100
AcDbLine
 10
-1.265460044302397
 20
-6.361146375574907
 30
0.0
 11
-1.308767130916571
 21
-6.404453462189085
 31
0.0
  0
LINE
  5
3295
330
1E
100
AcDbEntity
  8
7
100
AcDbLine
 10
-1.308767130916571
 20
-6.404453462189085
 30
0.0
 11
-1.324515162412634
 21
-6.463508580299318
 31
0.0
  0
LINE
  5
3296
330
1E
100
AcDbEntity
  8
7
100
AcDbLine
 10
-1.194593902570115
 20
-6.353272359826878
 30
0.0
 11
-1.194593902570115
 21
-6.388705430693018
 31
0.0
  0
LINE
  5
3297
330
1E
100
AcDbEntity
  8
7
100
AcDbLine
 10
-1.194593902570115
 20
-6.388705430693018
 30
0.0
 11
-1.194593902570115
 21
-6.471382596047352
 31
0.0
  0
LINE
  5
3298
330
1E
100
AcDbEntity
  8
7
100
AcDbLine
 10
1.443201373020436
 20
-6.353272359826879
 30
0.0
 11
1.443201373020436
 21
-6.38870543069302
 31
0.0
  0
LINE
  5
3299
330
1E
100
AcDbEntity
  8
7
100
AcDbLine
 10
1.443201373020436
 20
-6.38870543069302
 30
0.0
 11
1.443201373020436
 21
-6.471382596047353
 31
0.0
  0
LINE
  5
329A
330
1E
100
AcDbEntity
  8
7
100
AcDbLine
 10
1.565248617114921
 20
-7.920201493685146
 30
0.0
 11
1.52981554624878
 21
-7.920201493685146
 31
0.0
  0
LINE
  5
329B
330
1E
100
AcDbEntity
  8
7
100
AcDbLine
 10
1.52981554624878
 20
-7.920201493685146
 30
0.0
 11
1.443201373020436
 21
-7.920201493685146
 31
0.0
  0
LINE
  5
329C
330
1E
100
AcDbEntity
  8
7
100
AcDbLine
 10
1.573122632862954
 20
-7.928075509433179
 30
0.0
 11
1.557374601366891
 21
-7.987130627543413
 31
0.0
  0
LINE
  5
329D
330
1E
100
AcDbEntity
  8
7
100
AcDbLine
 10
1.557374601366891
 20
-7.987130627543413
 30
0.0
 11
1.514067514752721
 21
-8.03043771415759
 31
0.0
  0
LINE
  5
329E
330
1E
100
AcDbEntity
  8
7
100
AcDbLine
 10
1.514067514752721
 20
-8.03043771415759
 30
0.0
 11
1.455012396642484
 21
-8.050122753527665
 31
0.0
  0
LINE
  5
329F
330
1E
100
AcDbEntity
  8
7
100
AcDbLine
 10
1.565248617114921
 20
-7.920201493685146
 30
0.0
 11
1.549500585618861
 21
-7.979256611795383
 31
0.0
  0
LINE
  5
32A0
330
1E
100
AcDbEntity
  8
7
100
AcDbLine
 10
1.549500585618861
 20
-7.979256611795383
 30
0.0
 11
1.506193499004687
 21
-8.022563698409557
 31
0.0
  0
LINE
  5
32A1
330
1E
100
AcDbEntity
  8
7
100
AcDbLine
 10
1.506193499004687
 20
-8.022563698409557
 30
0.0
 11
1.443201373020436
 21
-8.03831172990562
 31
0.0
  0
LINE
  5
32A2
330
1E
100
AcDbEntity
  8
7
100
AcDbLine
 10
-1.316641146664604
 20
-7.920201493685144
 30
0.0
 11
-1.277271067924445
 21
-7.920201493685144
 31
0.0
  0
LINE
  5
32A3
330
1E
100
AcDbEntity
  8
7
100
AcDbLine
 10
-1.277271067924445
 20
-7.920201493685144
 30
0.0
 11
-1.194593902570115
 21
-7.920201493685144
 31
0.0
  0
LINE
  5
32A4
330
1E
100
AcDbEntity
  8
7
100
AcDbLine
 10
-1.316641146664604
 20
-7.920201493685144
 30
0.0
 11
-1.300893115168541
 21
-7.979256611795381
 31
0.0
  0
LINE
  5
32A5
330
1E
100
AcDbEntity
  8
7
100
AcDbLine
 10
-1.300893115168541
 20
-7.979256611795381
 30
0.0
 11
-1.253649020680352
 21
-8.022563698409555
 31
0.0
  0
LINE
  5
32A6
330
1E
100
AcDbEntity
  8
7
100
AcDbLine
 10
-1.253649020680352
 20
-8.022563698409555
 30
0.0
 11
-1.194593902570115
 21
-8.038311729905618
 31
0.0
  0
LINE
  5
32A7
330
1E
100
AcDbEntity
  8
7
100
AcDbLine
 10
-1.324515162412634
 20
-7.928075509433178
 30
0.0
 11
-1.308767130916571
 21
-7.987130627543411
 31
0.0
  0
LINE
  5
32A8
330
1E
100
AcDbEntity
  8
7
100
AcDbLine
 10
-1.308767130916571
 20
-7.987130627543411
 30
0.0
 11
-1.265460044302397
 21
-8.030437714157589
 31
0.0
  0
LINE
  5
32A9
330
1E
100
AcDbEntity
  8
7
100
AcDbLine
 10
-1.265460044302397
 20
-8.030437714157589
 30
0.0
 11
-1.206404926192163
 21
-8.050122753527663
 31
0.0
  0
LINE
  5
32AA
330
1E
100
AcDbEntity
  8
7
100
AcDbLine
 10
-1.194593902570115
 20
-7.920201493685144
 30
0.0
 11
-1.194593902570115
 21
-8.002878659039478
 31
0.0
  0
LINE
  5
32AB
330
1E
100
AcDbEntity
  8
7
100
AcDbLine
 10
-1.194593902570115
 20
-8.002878659039478
 30
0.0
 11
-1.194593902570115
 21
-8.038311729905618
 31
0.0
  0
LINE
  5
32AC
330
1E
100
AcDbEntity
  8
7
100
AcDbLine
 10
1.443201373020436
 20
-7.920201493685146
 30
0.0
 11
1.443201373020436
 21
-8.002878659039479
 31
0.0
  0
LINE
  5
32AD
330
1E
100
AcDbEntity
  8
7
100
AcDbLine
 10
1.443201373020436
 20
-8.002878659039479
 30
0.0
 11
1.443201373020436
 21
-8.03831172990562
 31
0.0
  0
LINE
  5
32AE
330
1E
100
AcDbEntity
  8
7
100
AcDbLine
 10
16.14005176672122
 20
-6.471382596047355
 30
0.0
 11
16.10461869585508
 21
-6.471382596047355
 31
0.0
  0
LINE
  5
32AF
330
1E
100
AcDbEntity
  8
7
100
AcDbLine
 10
16.10461869585508
 20
-6.471382596047355
 30
0.0
 11
16.02194153050075
 21
-6.471382596047355
 31
0.0
  0
LINE
  5
32B0
330
1E
100
AcDbEntity
  8
7
100
AcDbLine
 10
16.02981554624878
 20
-6.345398344078851
 30
0.0
 11
16.08887066435901
 21
-6.361146375574911
 31
0.0
  0
LINE
  5
32B1
330
1E
100
AcDbEntity
  8
7
100
AcDbLine
 10
16.08887066435901
 20
-6.361146375574911
 30
0.0
 11
16.13217775097319
 21
-6.404453462189088
 31
0.0
  0
LINE
  5
32B2
330
1E
100
AcDbEntity
  8
7
100
AcDbLine
 10
16.13217775097319
 20
-6.404453462189088
 30
0.0
 11
16.14792578246925
 21
-6.463508580299322
 31
0.0
  0
LINE
  5
32B3
330
1E
100
AcDbEntity
  8
7
100
AcDbLine
 10
16.14005176672122
 20
-6.471382596047355
 30
0.0
 11
16.12430373522515
 21
-6.412327477937118
 31
0.0
  0
LINE
  5
32B4
330
1E
100
AcDbEntity
  8
7
100
AcDbLine
 10
16.12430373522515
 20
-6.412327477937118
 30
0.0
 11
16.08099664861098
 21
-6.369020391322944
 31
0.0
  0
LINE
  5
32B5
330
1E
100
AcDbEntity
  8
7
100
AcDbLine
 10
16.08099664861098
 20
-6.369020391322944
 30
0.0
 11
16.02194153050075
 21
-6.353272359826881
 31
0.0
  0
LINE
  5
32B6
330
1E
100
AcDbEntity
  8
7
100
AcDbLine
 10
13.25816200294169
 20
-6.471382596047355
 30
0.0
 11
13.29753208168185
 21
-6.471382596047355
 31
0.0
  0
LINE
  5
32B7
330
1E
100
AcDbEntity
  8
7
100
AcDbLine
 10
13.29753208168185
 20
-6.471382596047355
 30
0.0
 11
13.38020924703618
 21
-6.471382596047355
 31
0.0
  0
LINE
  5
32B8
330
1E
100
AcDbEntity
  8
7
100
AcDbLine
 10
13.25816200294169
 20
-6.471382596047355
 30
0.0
 11
13.27784704231177
 21
-6.412327477937118
 31
0.0
  0
LINE
  5
32B9
330
1E
100
AcDbEntity
  8
7
100
AcDbLine
 10
13.27784704231177
 20
-6.412327477937118
 30
0.0
 11
13.32115412892594
 21
-6.369020391322944
 31
0.0
  0
LINE
  5
32BA
330
1E
100
AcDbEntity
  8
7
100
AcDbLine
 10
13.32115412892594
 20
-6.369020391322944
 30
0.0
 11
13.38020924703618
 21
-6.353272359826881
 31
0.0
  0
LINE
  5
32BB
330
1E
100
AcDbEntity
  8
7
100
AcDbLine
 10
13.36839822341413
 20
-6.345398344078851
 30
0.0
 11
13.3093431053039
 21
-6.361146375574911
 31
0.0
  0
LINE
  5
32BC
330
1E
100
AcDbEntity
  8
7
100
AcDbLine
 10
13.3093431053039
 20
-6.361146375574911
 30
0.0
 11
13.26603601868973
 21
-6.404453462189088
 31
0.0
  0
LINE
  5
32BD
330
1E
100
AcDbEntity
  8
7
100
AcDbLine
 10
13.26603601868973
 20
-6.404453462189088
 30
0.0
 11
13.25028798719366
 21
-6.463508580299322
 31
0.0
  0
LINE
  5
32BE
330
1E
100
AcDbEntity
  8
7
100
AcDbLine
 10
13.38020924703618
 20
-6.353272359826881
 30
0.0
 11
13.38020924703618
 21
-6.388705430693022
 31
0.0
  0
LINE
  5
32BF
330
1E
100
AcDbEntity
  8
7
100
AcDbLine
 10
13.38020924703618
 20
-6.388705430693022
 30
0.0
 11
13.38020924703618
 21
-6.471382596047355
 31
0.0
  0
LINE
  5
32C0
330
1E
100
AcDbEntity
  8
7
100
AcDbLine
 10
16.02194153050075
 20
-6.353272359826881
 30
0.0
 11
16.02194153050075
 21
-6.388705430693022
 31
0.0
  0
LINE
  5
32C1
330
1E
100
AcDbEntity
  8
7
100
AcDbLine
 10
16.02194153050075
 20
-6.388705430693022
 30
0.0
 11
16.02194153050075
 21
-6.471382596047355
 31
0.0
  0
LINE
  5
32C2
330
1E
100
AcDbEntity
  8
7
100
AcDbLine
 10
16.14005176672122
 20
-7.920201493685148
 30
0.0
 11
16.10461869585508
 21
-7.920201493685148
 31
0.0
  0
LINE
  5
32C3
330
1E
100
AcDbEntity
  8
7
100
AcDbLine
 10
16.10461869585508
 20
-7.920201493685148
 30
0.0
 11
16.02194153050075
 21
-7.920201493685148
 31
0.0
  0
LINE
  5
32C4
330
1E
100
AcDbEntity
  8
7
100
AcDbLine
 10
16.14792578246925
 20
-7.928075509433181
 30
0.0
 11
16.13217775097319
 21
-7.987130627543415
 31
0.0
  0
LINE
  5
32C5
330
1E
100
AcDbEntity
  8
7
100
AcDbLine
 10
16.13217775097319
 20
-7.987130627543415
 30
0.0
 11
16.08887066435901
 21
-8.030437714157592
 31
0.0
  0
LINE
  5
32C6
330
1E
100
AcDbEntity
  8
7
100
AcDbLine
 10
16.08887066435901
 20
-8.030437714157592
 30
0.0
 11
16.02981554624878
 21
-8.050122753527666
 31
0.0
  0
LINE
  5
32C7
330
1E
100
AcDbEntity
  8
7
100
AcDbLine
 10
16.14005176672122
 20
-7.920201493685148
 30
0.0
 11
16.12430373522515
 21
-7.979256611795385
 31
0.0
  0
LINE
  5
32C8
330
1E
100
AcDbEntity
  8
7
100
AcDbLine
 10
16.12430373522515
 20
-7.979256611795385
 30
0.0
 11
16.08099664861098
 21
-8.022563698409559
 31
0.0
  0
LINE
  5
32C9
330
1E
100
AcDbEntity
  8
7
100
AcDbLine
 10
16.08099664861098
 20
-8.022563698409559
 30
0.0
 11
16.02194153050075
 21
-8.038311729905622
 31
0.0
  0
LINE
  5
32CA
330
1E
100
AcDbEntity
  8
7
100
AcDbLine
 10
13.25816200294169
 20
-7.920201493685148
 30
0.0
 11
13.29753208168185
 21
-7.920201493685148
 31
0.0
  0
LINE
  5
32CB
330
1E
100
AcDbEntity
  8
7
100
AcDbLine
 10
13.29753208168185
 20
-7.920201493685148
 30
0.0
 11
13.38020924703618
 21
-7.920201493685148
 31
0.0
  0
LINE
  5
32CC
330
1E
100
AcDbEntity
  8
7
100
AcDbLine
 10
13.25816200294169
 20
-7.920201493685148
 30
0.0
 11
13.27784704231177
 21
-7.979256611795385
 31
0.0
  0
LINE
  5
32CD
330
1E
100
AcDbEntity
  8
7
100
AcDbLine
 10
13.27784704231177
 20
-7.979256611795385
 30
0.0
 11
13.32115412892594
 21
-8.022563698409559
 31
0.0
  0
LINE
  5
32CE
330
1E
100
AcDbEntity
  8
7
100
AcDbLine
 10
13.32115412892594
 20
-8.022563698409559
 30
0.0
 11
13.38020924703618
 21
-8.038311729905622
 31
0.0
  0
LINE
  5
32CF
330
1E
100
AcDbEntity
  8
7
100
AcDbLine
 10
13.25028798719366
 20
-7.928075509433181
 30
0.0
 11
13.26603601868972
 21
-7.987130627543415
 31
0.0
  0
LINE
  5
32D0
330
1E
100
AcDbEntity
  8
7
100
AcDbLine
 10
13.26603601868972
 20
-7.987130627543415
 30
0.0
 11
13.30934310530389
 21
-8.030437714157592
 31
0.0
  0
LINE
  5
32D1
330
1E
100
AcDbEntity
  8
7
100
AcDbLine
 10
13.30934310530389
 20
-8.030437714157592
 30
0.0
 11
13.36839822341413
 21
-8.050122753527666
 31
0.0
  0
LINE
  5
32D2
330
1E
100
AcDbEntity
  8
7
100
AcDbLine
 10
13.38020924703618
 20
-7.920201493685148
 30
0.0
 11
13.38020924703618
 21
-8.002878659039481
 31
0.0
  0
LINE
  5
32D3
330
1E
100
AcDbEntity
  8
7
100
AcDbLine
 10
13.38020924703618
 20
-8.002878659039481
 30
0.0
 11
13.38020924703618
 21
-8.038311729905622
 31
0.0
  0
LINE
  5
32D4
330
1E
100
AcDbEntity
  8
7
100
AcDbLine
 10
16.02194153050075
 20
-7.920201493685148
 30
0.0
 11
16.02194153050075
 21
-8.002878659039481
 31
0.0
  0
LINE
  5
32D5
330
1E
100
AcDbEntity
  8
7
100
AcDbLine
 10
16.02194153050075
 20
-8.002878659039481
 30
0.0
 11
16.02194153050075
 21
-8.038311729905622
 31
0.0
  0
LINE
  5
32D6
330
1E
100
AcDbEntity
  8
7
100
AcDbLine
 10
13.22666593994957
 20
-6.471382596047355
 30
0.0
 11
13.18729586120941
 21
-6.471382596047355
 31
0.0
  0
LINE
  5
32D7
330
1E
100
AcDbEntity
  8
7
100
AcDbLine
 10
13.18729586120941
 20
-6.471382596047355
 30
0.0
 11
13.10461869585508
 21
-6.471382596047355
 31
0.0
  0
LINE
  5
32D8
330
1E
100
AcDbEntity
  8
7
100
AcDbLine
 10
13.11642971947713
 20
-6.345398344078851
 30
0.0
 11
13.17548483758736
 21
-6.361146375574911
 31
0.0
  0
LINE
  5
32D9
330
1E
100
AcDbEntity
  8
7
100
AcDbLine
 10
13.17548483758736
 20
-6.361146375574911
 30
0.0
 11
13.21879192420154
 21
-6.404453462189088
 31
0.0
  0
LINE
  5
32DA
330
1E
100
AcDbEntity
  8
7
100
AcDbLine
 10
13.21879192420154
 20
-6.404453462189088
 30
0.0
 11
13.2345399556976
 21
-6.463508580299322
 31
0.0
  0
LINE
  5
32DB
330
1E
100
AcDbEntity
  8
7
100
AcDbLine
 10
13.22666593994957
 20
-6.471382596047355
 30
0.0
 11
13.20698090057949
 21
-6.412327477937118
 31
0.0
  0
LINE
  5
32DC
330
1E
100
AcDbEntity
  8
7
100
AcDbLine
 10
13.20698090057949
 20
-6.412327477937118
 30
0.0
 11
13.16367381396531
 21
-6.369020391322944
 31
0.0
  0
LINE
  5
32DD
330
1E
100
AcDbEntity
  8
7
100
AcDbLine
 10
13.16367381396531
 20
-6.369020391322944
 30
0.0
 11
13.10461869585508
 21
-6.353272359826881
 31
0.0
  0
LINE
  5
32DE
330
1E
100
AcDbEntity
  8
7
100
AcDbLine
 10
10.34477617617004
 20
-6.471382596047355
 30
0.0
 11
10.38020924703618
 21
-6.471382596047355
 31
0.0
  0
LINE
  5
32DF
330
1E
100
AcDbEntity
  8
7
100
AcDbLine
 10
10.38020924703618
 20
-6.471382596047355
 30
0.0
 11
10.46288641239051
 21
-6.471382596047355
 31
0.0
  0
LINE
  5
32E0
330
1E
100
AcDbEntity
  8
7
100
AcDbLine
 10
10.34477617617004
 20
-6.471382596047355
 30
0.0
 11
10.3605242076661
 21
-6.412327477937118
 31
0.0
  0
LINE
  5
32E1
330
1E
100
AcDbEntity
  8
7
100
AcDbLine
 10
10.3605242076661
 20
-6.412327477937118
 30
0.0
 11
10.40383129428027
 21
-6.369020391322944
 31
0.0
  0
LINE
  5
32E2
330
1E
100
AcDbEntity
  8
7
100
AcDbLine
 10
10.40383129428027
 20
-6.369020391322944
 30
0.0
 11
10.46288641239051
 21
-6.353272359826881
 31
0.0
  0
LINE
  5
32E3
330
1E
100
AcDbEntity
  8
7
100
AcDbLine
 10
10.45501239664248
 20
-6.345398344078851
 30
0.0
 11
10.39595727853224
 21
-6.361146375574911
 31
0.0
  0
LINE
  5
32E4
330
1E
100
AcDbEntity
  8
7
100
AcDbLine
 10
10.39595727853224
 20
-6.361146375574911
 30
0.0
 11
10.35265019191807
 21
-6.404453462189088
 31
0.0
  0
LINE
  5
32E5
330
1E
100
AcDbEntity
  8
7
100
AcDbLine
 10
10.35265019191807
 20
-6.404453462189088
 30
0.0
 11
10.33296515254799
 21
-6.463508580299322
 31
0.0
  0
LINE
  5
32E6
330
1E
100
AcDbEntity
  8
7
100
AcDbLine
 10
10.46288641239051
 20
-6.353272359826881
 30
0.0
 11
10.46288641239051
 21
-6.388705430693022
 31
0.0
  0
LINE
  5
32E7
330
1E
100
AcDbEntity
  8
7
100
AcDbLine
 10
10.46288641239051
 20
-6.388705430693022
 30
0.0
 11
10.46288641239051
 21
-6.471382596047355
 31
0.0
  0
LINE
  5
32E8
330
1E
100
AcDbEntity
  8
7
100
AcDbLine
 10
13.10461869585508
 20
-6.353272359826881
 30
0.0
 11
13.10461869585508
 21
-6.388705430693022
 31
0.0
  0
LINE
  5
32E9
330
1E
100
AcDbEntity
  8
7
100
AcDbLine
 10
13.10461869585508
 20
-6.388705430693022
 30
0.0
 11
13.10461869585508
 21
-6.471382596047355
 31
0.0
  0
LINE
  5
32EA
330
1E
100
AcDbEntity
  8
7
100
AcDbLine
 10
13.22666593994957
 20
-7.920201493685148
 30
0.0
 11
13.18729586120941
 21
-7.920201493685148
 31
0.0
  0
LINE
  5
32EB
330
1E
100
AcDbEntity
  8
7
100
AcDbLine
 10
13.18729586120941
 20
-7.920201493685148
 30
0.0
 11
13.10461869585508
 21
-7.920201493685148
 31
0.0
  0
LINE
  5
32EC
330
1E
100
AcDbEntity
  8
7
100
AcDbLine
 10
13.2345399556976
 20
-7.928075509433181
 30
0.0
 11
13.21879192420154
 21
-7.987130627543415
 31
0.0
  0
LINE
  5
32ED
330
1E
100
AcDbEntity
  8
7
100
AcDbLine
 10
13.21879192420154
 20
-7.987130627543415
 30
0.0
 11
13.17548483758736
 21
-8.030437714157592
 31
0.0
  0
LINE
  5
32EE
330
1E
100
AcDbEntity
  8
7
100
AcDbLine
 10
13.17548483758736
 20
-8.030437714157592
 30
0.0
 11
13.11642971947712
 21
-8.050122753527666
 31
0.0
  0
LINE
  5
32EF
330
1E
100
AcDbEntity
  8
7
100
AcDbLine
 10
13.22666593994957
 20
-7.920201493685148
 30
0.0
 11
13.20698090057949
 21
-7.979256611795385
 31
0.0
  0
LINE
  5
32F0
330
1E
100
AcDbEntity
  8
7
100
AcDbLine
 10
13.20698090057949
 20
-7.979256611795385
 30
0.0
 11
13.16367381396531
 21
-8.022563698409559
 31
0.0
  0
LINE
  5
32F1
330
1E
100
AcDbEntity
  8
7
100
AcDbLine
 10
13.16367381396531
 20
-8.022563698409559
 30
0.0
 11
13.10461869585508
 21
-8.038311729905622
 31
0.0
  0
LINE
  5
32F2
330
1E
100
AcDbEntity
  8
7
100
AcDbLine
 10
10.34477617617004
 20
-7.920201493685148
 30
0.0
 11
10.38020924703618
 21
-7.920201493685148
 31
0.0
  0
LINE
  5
32F3
330
1E
100
AcDbEntity
  8
7
100
AcDbLine
 10
10.38020924703618
 20
-7.920201493685148
 30
0.0
 11
10.46288641239051
 21
-7.920201493685148
 31
0.0
  0
LINE
  5
32F4
330
1E
100
AcDbEntity
  8
7
100
AcDbLine
 10
10.34477617617004
 20
-7.920201493685148
 30
0.0
 11
10.3605242076661
 21
-7.979256611795385
 31
0.0
  0
LINE
  5
32F5
330
1E
100
AcDbEntity
  8
7
100
AcDbLine
 10
10.3605242076661
 20
-7.979256611795385
 30
0.0
 11
10.40383129428027
 21
-8.022563698409559
 31
0.0
  0
LINE
  5
32F6
330
1E
100
AcDbEntity
  8
7
100
AcDbLine
 10
10.40383129428027
 20
-8.022563698409559
 30
0.0
 11
10.46288641239051
 21
-8.038311729905622
 31
0.0
  0
LINE
  5
32F7
330
1E
100
AcDbEntity
  8
7
100
AcDbLine
 10
10.33296515254799
 20
-7.928075509433181
 30
0.0
 11
10.35265019191807
 21
-7.987130627543415
 31
0.0
  0
LINE
  5
32F8
330
1E
100
AcDbEntity
  8
7
100
AcDbLine
 10
10.35265019191807
 20
-7.987130627543415
 30
0.0
 11
10.39595727853224
 21
-8.030437714157592
 31
0.0
  0
LINE
  5
32F9
330
1E
100
AcDbEntity
  8
7
100
AcDbLine
 10
10.39595727853224
 20
-8.030437714157592
 30
0.0
 11
10.45501239664248
 21
-8.050122753527666
 31
0.0
  0
LINE
  5
32FA
330
1E
100
AcDbEntity
  8
7
100
AcDbLine
 10
10.46288641239051
 20
-7.920201493685148
 30
0.0
 11
10.46288641239051
 21
-8.002878659039481
 31
0.0
  0
LINE
  5
32FB
330
1E
100
AcDbEntity
  8
7
100
AcDbLine
 10
10.46288641239051
 20
-8.002878659039481
 30
0.0
 11
10.46288641239051
 21
-8.038311729905622
 31
0.0
  0
LINE
  5
32FC
330
1E
100
AcDbEntity
  8
7
100
AcDbLine
 10
13.10461869585508
 20
-7.920201493685148
 30
0.0
 11
13.10461869585508
 21
-8.002878659039481
 31
0.0
  0
LINE
  5
32FD
330
1E
100
AcDbEntity
  8
7
100
AcDbLine
 10
13.10461869585508
 20
-8.002878659039481
 30
0.0
 11
13.10461869585508
 21
-8.038311729905622
 31
0.0
  0
LINE
  5
32FE
330
1E
100
AcDbEntity
  8
7
100
AcDbLine
 10
10.3093431053039
 20
-6.471382596047355
 30
0.0
 11
10.27391003443776
 21
-6.471382596047355
 31
0.0
  0
LINE
  5
32FF
330
1E
100
AcDbEntity
  8
7
100
AcDbLine
 10
10.27391003443776
 20
-6.471382596047355
 30
0.0
 11
10.19123286908343
 21
-6.471382596047355
 31
0.0
  0
LINE
  5
3300
330
1E
100
AcDbEntity
  8
7
100
AcDbLine
 10
10.19910688483146
 20
-6.345398344078851
 30
0.0
 11
10.25816200294169
 21
-6.361146375574911
 31
0.0
  0
LINE
  5
3301
330
1E
100
AcDbEntity
  8
7
100
AcDbLine
 10
10.25816200294169
 20
-6.361146375574911
 30
0.0
 11
10.30540609742988
 21
-6.404453462189088
 31
0.0
  0
LINE
  5
3302
330
1E
100
AcDbEntity
  8
7
100
AcDbLine
 10
10.30540609742988
 20
-6.404453462189088
 30
0.0
 11
10.32115412892594
 21
-6.463508580299322
 31
0.0
  0
LINE
  5
3303
330
1E
100
AcDbEntity
  8
7
100
AcDbLine
 10
10.3093431053039
 20
-6.471382596047355
 30
0.0
 11
10.29359507380783
 21
-6.412327477937118
 31
0.0
  0
LINE
  5
3304
330
1E
100
AcDbEntity
  8
7
100
AcDbLine
 10
10.29359507380783
 20
-6.412327477937118
 30
0.0
 11
10.25028798719366
 21
-6.369020391322944
 31
0.0
  0
LINE
  5
3305
330
1E
100
AcDbEntity
  8
7
100
AcDbLine
 10
10.25028798719366
 20
-6.369020391322944
 30
0.0
 11
10.19123286908343
 21
-6.353272359826881
 31
0.0
  0
LINE
  5
3306
330
1E
100
AcDbEntity
  8
7
100
AcDbLine
 10
7.431390349398387
 20
-6.471382596047353
 30
0.0
 11
7.466823420264528
 21
-6.471382596047353
 31
0.0
  0
LINE
  5
3307
330
1E
100
AcDbEntity
  8
7
100
AcDbLine
 10
7.466823420264528
 20
-6.471382596047353
 30
0.0
 11
7.549500585618861
 21
-6.471382596047353
 31
0.0
  0
LINE
  5
3308
330
1E
100
AcDbEntity
  8
7
100
AcDbLine
 10
7.431390349398387
 20
-6.471382596047353
 30
0.0
 11
7.44713838089445
 21
-6.412327477937116
 31
0.0
  0
LINE
  5
3309
330
1E
100
AcDbEntity
  8
7
100
AcDbLine
 10
7.44713838089445
 20
-6.412327477937116
 30
0.0
 11
7.490445467508624
 21
-6.369020391322942
 31
0.0
  0
LINE
  5
330A
330
1E
100
AcDbEntity
  8
7
100
AcDbLine
 10
7.490445467508624
 20
-6.369020391322942
 30
0.0
 11
7.549500585618861
 21
-6.353272359826879
 31
0.0
  0
LINE
  5
330B
330
1E
100
AcDbEntity
  8
7
100
AcDbLine
 10
7.541626569870828
 20
-6.34539834407885
 30
0.0
 11
7.478634443886576
 21
-6.361146375574909
 31
0.0
  0
LINE
  5
330C
330
1E
100
AcDbEntity
  8
7
100
AcDbLine
 10
7.478634443886576
 20
-6.361146375574909
 30
0.0
 11
7.435327357272402
 21
-6.404453462189087
 31
0.0
  0
LINE
  5
330D
330
1E
100
AcDbEntity
  8
7
100
AcDbLine
 10
7.435327357272402
 20
-6.404453462189087
 30
0.0
 11
7.419579325776343
 21
-6.46350858029932
 31
0.0
  0
LINE
  5
330E
330
1E
100
AcDbEntity
  8
7
100
AcDbLine
 10
7.549500585618861
 20
-6.353272359826879
 30
0.0
 11
7.549500585618861
 21
-6.38870543069302
 31
0.0
  0
LINE
  5
330F
330
1E
100
AcDbEntity
  8
7
100
AcDbLine
 10
7.549500585618861
 20
-6.38870543069302
 30
0.0
 11
7.549500585618861
 21
-6.471382596047353
 31
0.0
  0
LINE
  5
3310
330
1E
100
AcDbEntity
  8
7
100
AcDbLine
 10
10.19123286908343
 20
-6.353272359826881
 30
0.0
 11
10.19123286908343
 21
-6.388705430693022
 31
0.0
  0
LINE
  5
3311
330
1E
100
AcDbEntity
  8
7
100
AcDbLine
 10
10.19123286908343
 20
-6.388705430693022
 30
0.0
 11
10.19123286908343
 21
-6.471382596047355
 31
0.0
  0
LINE
  5
3312
330
1E
100
AcDbEntity
  8
7
100
AcDbLine
 10
10.30934310530389
 20
-7.920201493685148
 30
0.0
 11
10.27391003443775
 21
-7.920201493685148
 31
0.0
  0
LINE
  5
3313
330
1E
100
AcDbEntity
  8
7
100
AcDbLine
 10
10.27391003443775
 20
-7.920201493685148
 30
0.0
 11
10.19123286908342
 21
-7.920201493685148
 31
0.0
  0
LINE
  5
3314
330
1E
100
AcDbEntity
  8
7
100
AcDbLine
 10
10.32115412892594
 20
-7.928075509433181
 30
0.0
 11
10.30540609742988
 21
-7.987130627543415
 31
0.0
  0
LINE
  5
3315
330
1E
100
AcDbEntity
  8
7
100
AcDbLine
 10
10.30540609742988
 20
-7.987130627543415
 30
0.0
 11
10.25816200294169
 21
-8.030437714157592
 31
0.0
  0
LINE
  5
3316
330
1E
100
AcDbEntity
  8
7
100
AcDbLine
 10
10.25816200294169
 20
-8.030437714157592
 30
0.0
 11
10.19910688483145
 21
-8.050122753527666
 31
0.0
  0
LINE
  5
3317
330
1E
100
AcDbEntity
  8
7
100
AcDbLine
 10
10.30934310530389
 20
-7.920201493685148
 30
0.0
 11
10.29359507380783
 21
-7.979256611795385
 31
0.0
  0
LINE
  5
3318
330
1E
100
AcDbEntity
  8
7
100
AcDbLine
 10
10.29359507380783
 20
-7.979256611795385
 30
0.0
 11
10.25028798719366
 21
-8.022563698409559
 31
0.0
  0
LINE
  5
3319
330
1E
100
AcDbEntity
  8
7
100
AcDbLine
 10
10.25028798719366
 20
-8.022563698409559
 30
0.0
 11
10.19123286908342
 21
-8.038311729905622
 31
0.0
  0
LINE
  5
331A
330
1E
100
AcDbEntity
  8
7
100
AcDbLine
 10
7.431390349398387
 20
-7.920201493685146
 30
0.0
 11
7.466823420264528
 21
-7.920201493685146
 31
0.0
  0
LINE
  5
331B
330
1E
100
AcDbEntity
  8
7
100
AcDbLine
 10
7.466823420264528
 20
-7.920201493685146
 30
0.0
 11
7.549500585618861
 21
-7.920201493685146
 31
0.0
  0
LINE
  5
331C
330
1E
100
AcDbEntity
  8
7
100
AcDbLine
 10
7.431390349398387
 20
-7.920201493685146
 30
0.0
 11
7.44713838089445
 21
-7.979256611795383
 31
0.0
  0
LINE
  5
331D
330
1E
100
AcDbEntity
  8
7
100
AcDbLine
 10
7.44713838089445
 20
-7.979256611795383
 30
0.0
 11
7.490445467508624
 21
-8.022563698409557
 31
0.0
  0
LINE
  5
331E
330
1E
100
AcDbEntity
  8
7
100
AcDbLine
 10
7.490445467508624
 20
-8.022563698409557
 30
0.0
 11
7.549500585618861
 21
-8.03831172990562
 31
0.0
  0
LINE
  5
331F
330
1E
100
AcDbEntity
  8
7
100
AcDbLine
 10
7.419579325776343
 20
-7.928075509433179
 30
0.0
 11
7.435327357272402
 21
-7.987130627543413
 31
0.0
  0
LINE
  5
3320
330
1E
100
AcDbEntity
  8
7
100
AcDbLine
 10
7.435327357272402
 20
-7.987130627543413
 30
0.0
 11
7.478634443886576
 21
-8.03043771415759
 31
0.0
  0
LINE
  5
3321
330
1E
100
AcDbEntity
  8
7
100
AcDbLine
 10
7.478634443886576
 20
-8.03043771415759
 30
0.0
 11
7.541626569870828
 21
-8.050122753527665
 31
0.0
  0
LINE
  5
3322
330
1E
100
AcDbEntity
  8
7
100
AcDbLine
 10
7.549500585618861
 20
-7.920201493685146
 30
0.0
 11
7.549500585618861
 21
-8.002878659039479
 31
0.0
  0
LINE
  5
3323
330
1E
100
AcDbEntity
  8
7
100
AcDbLine
 10
7.549500585618861
 20
-8.002878659039479
 30
0.0
 11
7.549500585618861
 21
-8.03831172990562
 31
0.0
  0
LINE
  5
3324
330
1E
100
AcDbEntity
  8
7
100
AcDbLine
 10
10.19123286908342
 20
-7.920201493685148
 30
0.0
 11
10.19123286908342
 21
-8.002878659039481
 31
0.0
  0
LINE
  5
3325
330
1E
100
AcDbEntity
  8
7
100
AcDbLine
 10
10.19123286908342
 20
-8.002878659039481
 30
0.0
 11
10.19123286908342
 21
-8.038311729905622
 31
0.0
  0
LINE
  5
3326
330
1E
100
AcDbEntity
  8
7
100
AcDbLine
 10
16.64398877459523
 20
-6.951697556677274
 30
0.0
 11
16.65186279034327
 21
-6.963508580299322
 31
0.0
  0
LINE
  5
3327
330
1E
100
AcDbEntity
  8
7
100
AcDbLine
 10
16.65186279034327
 20
-6.963508580299322
 30
0.0
 11
16.66367381396531
 21
-6.971382596047355
 31
0.0
  0
LINE
  5
3328
330
1E
100
AcDbEntity
  8
7
100
AcDbLine
 10
16.70698090057949
 20
-6.971382596047355
 30
0.0
 11
16.71879192420154
 21
-6.963508580299322
 31
0.0
  0
LINE
  5
3329
330
1E
100
AcDbEntity
  8
7
100
AcDbLine
 10
16.71879192420154
 20
-6.963508580299322
 30
0.0
 11
16.72666593994956
 21
-6.951697556677274
 31
0.0
  0
LINE
  5
332A
330
1E
100
AcDbEntity
  8
7
100
AcDbLine
 10
16.31328011317791
 20
-6.90051645431507
 30
0.0
 11
16.32115412892594
 21
-6.896579446441052
 31
0.0
  0
LINE
  5
332B
330
1E
100
AcDbEntity
  8
7
100
AcDbLine
 10
16.32115412892594
 20
-6.896579446441052
 30
0.0
 11
16.32115412892594
 21
-6.892642438567037
 31
0.0
  0
LINE
  5
332C
330
1E
100
AcDbEntity
  8
7
100
AcDbLine
 10
16.63217775097319
 20
-6.876894407070977
 30
0.0
 11
16.62824074309917
 21
-6.861146375574911
 31
0.0
  0
LINE
  5
332D
330
1E
100
AcDbEntity
  8
7
100
AcDbLine
 10
16.62824074309917
 20
-6.861146375574911
 30
0.0
 11
16.61249271160311
 21
-6.857209367700896
 31
0.0
  0
LINE
  5
332E
330
1E
100
AcDbEntity
  8
7
100
AcDbLine
 10
16.69516987695744
 20
-6.943823540929244
 30
0.0
 11
16.69910688483145
 21
-6.943823540929244
 31
0.0
  0
LINE
  5
332F
330
1E
100
AcDbEntity
  8
7
100
AcDbLine
 10
16.69910688483145
 20
-6.943823540929244
 30
0.0
 11
16.70304389270547
 21
-6.939886533055229
 31
0.0
  0
LINE
  5
3330
330
1E
100
AcDbEntity
  8
7
100
AcDbLine
 10
16.68335885333539
 20
-6.939886533055229
 30
0.0
 11
16.68335885333539
 21
-6.943823540929244
 31
0.0
  0
LINE
  5
3331
330
1E
100
AcDbEntity
  8
7
100
AcDbLine
 10
16.68335885333539
 20
-6.943823540929244
 30
0.0
 11
16.68729586120941
 21
-6.943823540929244
 31
0.0
  0
LINE
  5
3332
330
1E
100
AcDbEntity
  8
7
100
AcDbLine
 10
16.32115412892594
 20
-6.853272359826881
 30
0.0
 11
16.32115412892594
 21
-6.849335351952866
 31
0.0
  0
LINE
  5
3333
330
1E
100
AcDbEntity
  8
7
100
AcDbLine
 10
16.32115412892594
 20
-6.849335351952866
 30
0.0
 11
16.31328011317791
 21
-6.845398344078851
 31
0.0
  0
LINE
  5
3334
330
1E
100
AcDbEntity
  8
7
100
AcDbLine
 10
16.61249271160311
 20
-6.971382596047355
 30
0.0
 11
16.62824074309917
 21
-6.963508580299322
 31
0.0
  0
LINE
  5
3335
330
1E
100
AcDbEntity
  8
7
100
AcDbLine
 10
16.62824074309917
 20
-6.963508580299322
 30
0.0
 11
16.63217775097319
 21
-6.951697556677274
 31
0.0
  0
LINE
  5
3336
330
1E
100
AcDbEntity
  8
7
100
AcDbLine
 10
16.59280767223303
 20
-6.943823540929244
 30
0.0
 11
16.59674468010705
 21
-6.943823540929244
 31
0.0
  0
LINE
  5
3337
330
1E
100
AcDbEntity
  8
7
100
AcDbLine
 10
16.59674468010705
 20
-6.943823540929244
 30
0.0
 11
16.60068168798106
 21
-6.939886533055229
 31
0.0
  0
LINE
  5
3338
330
1E
100
AcDbEntity
  8
7
100
AcDbLine
 10
16.33690216042201
 20
-6.924138501559163
 30
0.0
 11
16.34871318404405
 21
-6.924138501559163
 31
0.0
  0
LINE
  5
3339
330
1E
100
AcDbEntity
  8
7
100
AcDbLine
 10
16.34871318404405
 20
-6.924138501559163
 30
0.0
 11
16.3605242076661
 21
-6.920201493685148
 31
0.0
  0
LINE
  5
333A
330
1E
100
AcDbEntity
  8
7
100
AcDbLine
 10
16.38414625491019
 20
-6.857209367700896
 30
0.0
 11
16.36839822341413
 21
-6.829650312582785
 31
0.0
  0
LINE
  5
333B
330
1E
100
AcDbEntity
  8
7
100
AcDbLine
 10
16.36839822341413
 20
-6.829650312582785
 30
0.0
 11
16.33690216042201
 21
-6.821776296834755
 31
0.0
  0
LINE
  5
333C
330
1E
100
AcDbEntity
  8
7
100
AcDbLine
 10
16.60068168798106
 20
-6.884768422819007
 30
0.0
 11
16.59674468010705
 21
-6.880831414944992
 31
0.0
  0
LINE
  5
333D
330
1E
100
AcDbEntity
  8
7
100
AcDbLine
 10
16.59674468010705
 20
-6.880831414944992
 30
0.0
 11
16.59280767223303
 21
-6.880831414944992
 31
0.0
  0
LINE
  5
333E
330
1E
100
AcDbEntity
  8
7
100
AcDbLine
 10
16.03768956199681
 20
-2.097366848015857
 30
0.0
 11
16.01800452262674
 21
-2.054059761401685
 31
0.0
  0
LINE
  5
333F
330
1E
100
AcDbEntity
  8
7
100
AcDbLine
 10
16.01800452262674
 20
-2.054059761401685
 30
0.0
 11
15.97863444388657
 21
-2.038311729905622
 31
0.0
  0
LINE
  5
3340
330
1E
100
AcDbEntity
  8
7
100
AcDbLine
 10
16.09674468010705
 20
-2.266658186598535
 30
0.0
 11
16.05343759349288
 21
-2.250910155102472
 31
0.0
  0
LINE
  5
3341
330
1E
100
AcDbEntity
  8
7
100
AcDbLine
 10
16.05343759349288
 20
-2.250910155102472
 30
0.0
 11
16.03768956199681
 21
-2.2076030684883
 31
0.0
  0
LINE
  5
3342
330
1E
100
AcDbEntity
  8
7
100
AcDbLine
 10
16.19123286908342
 20
-2.329650312582787
 30
0.0
 11
16.17548483758737
 21
-2.286343225968614
 31
0.0
  0
LINE
  5
3343
330
1E
100
AcDbEntity
  8
7
100
AcDbLine
 10
16.17548483758737
 20
-2.286343225968614
 30
0.0
 11
16.13217775097319
 21
-2.266658186598535
 31
0.0
  0
LINE
  5
3344
330
1E
100
AcDbEntity
  8
7
100
AcDbLine
 10
16.31328011317791
 20
-2.479256611795385
 30
0.0
 11
16.29359507380783
 21
-2.479256611795385
 31
0.0
  0
LINE
  5
3345
330
1E
100
AcDbEntity
  8
7
100
AcDbLine
 10
16.29359507380783
 20
-2.479256611795385
 30
0.0
 11
16.25422499506768
 21
-2.479256611795385
 31
0.0
  0
LINE
  5
3346
330
1E
100
AcDbEntity
  8
7
100
AcDbLine
 10
16.37233523128815
 20
-2.479256611795385
 30
0.0
 11
16.32902814467398
 21
-2.479256611795385
 31
0.0
  0
LINE
  5
3347
330
1E
100
AcDbEntity
  8
7
100
AcDbLine
 10
16.32902814467398
 20
-2.479256611795385
 30
0.0
 11
16.31328011317791
 21
-2.479256611795385
 31
0.0
  0
LINE
  5
3348
330
1E
100
AcDbEntity
  8
7
100
AcDbLine
 10
16.91170531002831
 20
-2.479256611795385
 30
0.0
 11
16.89595727853225
 21
-2.479256611795385
 31
0.0
  0
LINE
  5
3349
330
1E
100
AcDbEntity
  8
7
100
AcDbLine
 10
16.89595727853225
 20
-2.479256611795385
 30
0.0
 11
16.85265019191807
 21
-2.479256611795385
 31
0.0
  0
LINE
  5
334A
330
1E
100
AcDbEntity
  8
7
100
AcDbLine
 10
16.85265019191807
 20
-2.416264485811133
 30
0.0
 11
16.89595727853225
 21
-2.416264485811133
 31
0.0
  0
LINE
  5
334B
330
1E
100
AcDbEntity
  8
7
100
AcDbLine
 10
16.89595727853225
 20
-2.416264485811133
 30
0.0
 11
16.91170531002831
 21
-2.416264485811133
 31
0.0
  0
LINE
  5
334C
330
1E
100
AcDbEntity
  8
7
100
AcDbLine
 10
16.31328011317791
 20
-2.416264485811133
 30
0.0
 11
16.32902814467398
 21
-2.416264485811133
 31
0.0
  0
LINE
  5
334D
330
1E
100
AcDbEntity
  8
7
100
AcDbLine
 10
16.32902814467398
 20
-2.416264485811133
 30
0.0
 11
16.37233523128815
 21
-2.416264485811133
 31
0.0
  0
LINE
  5
334E
330
1E
100
AcDbEntity
  8
7
100
AcDbLine
 10
16.25422499506768
 20
-2.416264485811133
 30
0.0
 11
16.29359507380783
 21
-2.416264485811133
 31
0.0
  0
LINE
  5
334F
330
1E
100
AcDbEntity
  8
7
100
AcDbLine
 10
16.29359507380783
 20
-2.416264485811133
 30
0.0
 11
16.31328011317791
 21
-2.416264485811133
 31
0.0
  0
LINE
  5
3350
330
1E
100
AcDbEntity
  8
7
100
AcDbLine
 10
16.25422499506768
 20
-2.416264485811133
 30
0.0
 11
16.2345399556976
 21
-2.416264485811133
 31
0.0
  0
LINE
  5
3351
330
1E
100
AcDbEntity
  8
7
100
AcDbLine
 10
16.2345399556976
 20
-2.416264485811133
 30
0.0
 11
16.21485491632752
 21
-2.416264485811133
 31
0.0
  0
LINE
  5
3352
330
1E
100
AcDbEntity
  8
7
100
AcDbLine
 10
16.21485491632752
 20
-2.416264485811133
 30
0.0
 11
16.20304389270547
 21
-2.412327477937118
 31
0.0
  0
LINE
  5
3353
330
1E
100
AcDbEntity
  8
7
100
AcDbLine
 10
16.20304389270547
 20
-2.412327477937118
 30
0.0
 11
16.19516987695744
 21
-2.404453462189085
 31
0.0
  0
LINE
  5
3354
330
1E
100
AcDbEntity
  8
7
100
AcDbLine
 10
16.19516987695744
 20
-2.404453462189085
 30
0.0
 11
16.19516987695744
 21
-2.392642438567039
 31
0.0
  0
LINE
  5
3355
330
1E
100
AcDbEntity
  8
7
100
AcDbLine
 10
16.19516987695744
 20
-2.392642438567039
 30
0.0
 11
16.19123286908342
 21
-2.376894407070976
 31
0.0
  0
LINE
  5
3356
330
1E
100
AcDbEntity
  8
7
100
AcDbLine
 10
16.19123286908342
 20
-2.376894407070976
 30
0.0
 11
16.19123286908342
 21
-2.357209367700896
 31
0.0
  0
LINE
  5
3357
330
1E
100
AcDbEntity
  8
7
100
AcDbLine
 10
16.19123286908342
 20
-2.357209367700896
 30
0.0
 11
16.19123286908342
 21
-2.416264485811133
 31
0.0
  0
LINE
  5
3358
330
1E
100
AcDbEntity
  8
7
100
AcDbLine
 10
16.19123286908342
 20
-2.416264485811133
 30
0.0
 11
16.19123286908342
 21
-2.463508580299322
 31
0.0
  0
LINE
  5
3359
330
1E
100
AcDbEntity
  8
7
100
AcDbLine
 10
16.19123286908342
 20
-2.463508580299322
 30
0.0
 11
16.19516987695744
 21
-2.471382596047353
 31
0.0
  0
LINE
  5
335A
330
1E
100
AcDbEntity
  8
7
100
AcDbLine
 10
16.19516987695744
 20
-2.471382596047353
 30
0.0
 11
16.20304389270547
 21
-2.47531960392137
 31
0.0
  0
LINE
  5
335B
330
1E
100
AcDbEntity
  8
7
100
AcDbLine
 10
16.20304389270547
 20
-2.47531960392137
 30
0.0
 11
16.21879192420154
 21
-2.479256611795385
 31
0.0
  0
LINE
  5
335C
330
1E
100
AcDbEntity
  8
7
100
AcDbLine
 10
16.21879192420154
 20
-2.479256611795385
 30
0.0
 11
16.2345399556976
 21
-2.479256611795385
 31
0.0
  0
LINE
  5
335D
330
1E
100
AcDbEntity
  8
7
100
AcDbLine
 10
16.2345399556976
 20
-2.479256611795385
 30
0.0
 11
16.25422499506768
 21
-2.479256611795385
 31
0.0
  0
LINE
  5
335E
330
1E
100
AcDbEntity
  8
7
100
AcDbLine
 10
-1.367822249026808
 20
-2.463508580299318
 30
0.0
 11
-1.367822249026808
 21
-2.416264485811129
 31
0.0
  0
LINE
  5
335F
330
1E
100
AcDbEntity
  8
7
100
AcDbLine
 10
-1.367822249026808
 20
-2.416264485811129
 30
0.0
 11
-1.367822249026808
 21
-2.357209367700892
 31
0.0
  0
LINE
  5
3360
330
1E
100
AcDbEntity
  8
7
100
AcDbLine
 10
-1.485932485247278
 20
-2.416264485811129
 30
0.0
 11
-1.470184453751219
 21
-2.416264485811129
 31
0.0
  0
LINE
  5
3361
330
1E
100
AcDbEntity
  8
7
100
AcDbLine
 10
-1.470184453751219
 20
-2.416264485811129
 30
0.0
 11
-1.426877367137045
 21
-2.416264485811129
 31
0.0
  0
LINE
  5
3362
330
1E
100
AcDbEntity
  8
7
100
AcDbLine
 10
-1.367822249026808
 20
-2.357209367700892
 30
0.0
 11
-1.367822249026808
 21
-2.376894407070972
 31
0.0
  0
LINE
  5
3363
330
1E
100
AcDbEntity
  8
7
100
AcDbLine
 10
-1.367822249026808
 20
-2.376894407070972
 30
0.0
 11
-1.367822249026808
 21
-2.396579446441052
 31
0.0
  0
LINE
  5
3364
330
1E
100
AcDbEntity
  8
7
100
AcDbLine
 10
-1.367822249026808
 20
-2.396579446441052
 30
0.0
 11
-1.375696264774841
 21
-2.408390470063098
 31
0.0
  0
LINE
  5
3365
330
1E
100
AcDbEntity
  8
7
100
AcDbLine
 10
-1.375696264774841
 20
-2.408390470063098
 30
0.0
 11
-1.383570280522871
 21
-2.416264485811129
 31
0.0
  0
LINE
  5
3366
330
1E
100
AcDbEntity
  8
7
100
AcDbLine
 10
-1.383570280522871
 20
-2.416264485811129
 30
0.0
 11
-1.395381304144919
 21
-2.416264485811129
 31
0.0
  0
LINE
  5
3367
330
1E
100
AcDbEntity
  8
7
100
AcDbLine
 10
-1.395381304144919
 20
-2.416264485811129
 30
0.0
 11
-1.407192327766967
 21
-2.416264485811129
 31
0.0
  0
LINE
  5
3368
330
1E
100
AcDbEntity
  8
7
100
AcDbLine
 10
-1.407192327766967
 20
-2.416264485811129
 30
0.0
 11
-1.426877367137045
 21
-2.416264485811129
 31
0.0
  0
LINE
  5
3369
330
1E
100
AcDbEntity
  8
7
100
AcDbLine
 10
-1.426877367137045
 20
-2.479256611795381
 30
0.0
 11
-1.407192327766967
 21
-2.479256611795381
 31
0.0
  0
LINE
  5
336A
330
1E
100
AcDbEntity
  8
7
100
AcDbLine
 10
-1.407192327766967
 20
-2.479256611795381
 30
0.0
 11
-1.391444296270901
 21
-2.479256611795381
 31
0.0
  0
LINE
  5
336B
330
1E
100
AcDbEntity
  8
7
100
AcDbLine
 10
-1.391444296270901
 20
-2.479256611795381
 30
0.0
 11
-1.375696264774841
 21
-2.475319603921366
 31
0.0
  0
LINE
  5
336C
330
1E
100
AcDbEntity
  8
7
100
AcDbLine
 10
-1.375696264774841
 20
-2.475319603921366
 30
0.0
 11
-1.367822249026808
 21
-2.47138259604735
 31
0.0
  0
LINE
  5
336D
330
1E
100
AcDbEntity
  8
7
100
AcDbLine
 10
-1.367822249026808
 20
-2.47138259604735
 30
0.0
 11
-1.367822249026808
 21
-2.463508580299318
 31
0.0
  0
LINE
  5
336E
330
1E
100
AcDbEntity
  8
7
100
AcDbLine
 10
-1.426877367137045
 20
-2.479256611795381
 30
0.0
 11
-1.470184453751219
 21
-2.479256611795381
 31
0.0
  0
LINE
  5
336F
330
1E
100
AcDbEntity
  8
7
100
AcDbLine
 10
-1.470184453751219
 20
-2.479256611795381
 30
0.0
 11
-1.485932485247278
 21
-2.479256611795381
 31
0.0
  0
LINE
  5
3370
330
1E
100
AcDbEntity
  8
7
100
AcDbLine
 10
-2.029239571861452
 20
-2.479256611795381
 30
0.0
 11
-2.068609650601612
 21
-2.479256611795381
 31
0.0
  0
LINE
  5
3371
330
1E
100
AcDbEntity
  8
7
100
AcDbLine
 10
-2.068609650601612
 20
-2.479256611795381
 30
0.0
 11
-2.088294689971689
 21
-2.479256611795381
 31
0.0
  0
LINE
  5
3372
330
1E
100
AcDbEntity
  8
7
100
AcDbLine
 10
-2.088294689971689
 20
-2.416264485811129
 30
0.0
 11
-2.068609650601612
 21
-2.416264485811129
 31
0.0
  0
LINE
  5
3373
330
1E
100
AcDbEntity
  8
7
100
AcDbLine
 10
-2.068609650601612
 20
-2.416264485811129
 30
0.0
 11
-2.029239571861452
 21
-2.416264485811129
 31
0.0
  0
LINE
  5
3374
330
1E
100
AcDbEntity
  8
7
100
AcDbLine
 10
-1.485932485247278
 20
-2.479256611795381
 30
0.0
 11
-1.50561752461736
 21
-2.479256611795381
 31
0.0
  0
LINE
  5
3375
330
1E
100
AcDbEntity
  8
7
100
AcDbLine
 10
-1.50561752461736
 20
-2.479256611795381
 30
0.0
 11
-1.54892461123153
 21
-2.479256611795381
 31
0.0
  0
LINE
  5
3376
330
1E
100
AcDbEntity
  8
7
100
AcDbLine
 10
-1.54892461123153
 20
-2.416264485811129
 30
0.0
 11
-1.50561752461736
 21
-2.416264485811129
 31
0.0
  0
LINE
  5
3377
330
1E
100
AcDbEntity
  8
7
100
AcDbLine
 10
-1.50561752461736
 20
-2.416264485811129
 30
0.0
 11
-1.485932485247278
 21
-2.416264485811129
 31
0.0
  0
LINE
  5
3378
330
1E
100
AcDbEntity
  8
7
100
AcDbLine
 10
-1.151286815955938
 20
-2.038311729905618
 30
0.0
 11
-1.194593902570112
 21
-2.054059761401681
 31
0.0
  0
LINE
  5
3379
330
1E
100
AcDbEntity
  8
7
100
AcDbLine
 10
-1.194593902570112
 20
-2.054059761401681
 30
0.0
 11
-1.21427894194019
 21
-2.097366848015854
 31
0.0
  0
LINE
  5
337A
330
1E
100
AcDbEntity
  8
7
100
AcDbLine
 10
-1.214278941940193
 20
-2.207603068488296
 30
0.0
 11
-1.230026973436256
 21
-2.250910155102468
 31
0.0
  0
LINE
  5
337B
330
1E
100
AcDbEntity
  8
7
100
AcDbLine
 10
-1.230026973436256
 20
-2.250910155102468
 30
0.0
 11
-1.27333406005043
 21
-2.266658186598531
 31
0.0
  0
LINE
  5
337C
330
1E
100
AcDbEntity
  8
7
100
AcDbLine
 10
-1.308767130916571
 20
-2.266658186598531
 30
0.0
 11
-1.34813720965673
 21
-2.286343225968611
 31
0.0
  0
LINE
  5
337D
330
1E
100
AcDbEntity
  8
7
100
AcDbLine
 10
-1.34813720965673
 20
-2.286343225968611
 30
0.0
 11
-1.367822249026808
 21
-2.329650312582783
 31
0.0
  0
LINE
  5
337E
330
1E
100
AcDbEntity
  8
7
100
AcDbLine
 10
6.254224995067684
 20
-1.995004643291446
 30
0.0
 11
6.313280113177917
 21
-2.006815666913494
 31
0.0
  0
LINE
  5
337F
330
1E
100
AcDbEntity
  8
7
100
AcDbLine
 10
6.313280113177917
 20
-2.006815666913494
 30
0.0
 11
6.360524207666109
 21
-2.03831172990562
 31
0.0
  0
LINE
  5
3380
330
1E
100
AcDbEntity
  8
7
100
AcDbLine
 10
5.549500585618865
 20
-2.03831172990562
 30
0.0
 11
5.59674468010705
 21
-2.006815666913494
 31
0.0
  0
LINE
  5
3381
330
1E
100
AcDbEntity
  8
7
100
AcDbLine
 10
5.59674468010705
 20
-2.006815666913494
 30
0.0
 11
5.651862790343272
 21
-1.995004643291446
 31
0.0
  0
LINE
  5
3382
330
1E
100
AcDbEntity
  8
7
100
AcDbLine
 10
7.395957278532247
 20
-2.762721178724516
 30
0.0
 11
7.356587199792091
 21
-2.845398344078848
 31
0.0
  0
LINE
  5
3383
330
1E
100
AcDbEntity
  8
7
100
AcDbLine
 10
7.356587199792091
 20
-2.845398344078848
 30
0.0
 11
7.273910034437758
 21
-2.876894407070974
 31
0.0
  0
LINE
  5
3384
330
1E
100
AcDbEntity
  8
7
100
AcDbLine
 10
7.285721058059806
 20
-2.479256611795383
 30
0.0
 11
7.344776176170039
 21
-2.479256611795383
 31
0.0
  0
LINE
  5
3385
330
1E
100
AcDbEntity
  8
7
100
AcDbLine
 10
7.344776176170039
 20
-2.479256611795383
 30
0.0
 11
7.388083262784217
 21
-2.479256611795383
 31
0.0
  0
LINE
  5
3386
330
1E
100
AcDbEntity
  8
7
100
AcDbLine
 10
7.388083262784217
 20
-2.479256611795383
 30
0.0
 11
7.403831294280276
 21
-2.479256611795383
 31
0.0
  0
LINE
  5
3387
330
1E
100
AcDbEntity
  8
7
100
AcDbLine
 10
7.395957278532247
 20
-2.762721178724516
 30
0.0
 11
7.380209247036184
 21
-2.762721178724516
 31
0.0
  0
LINE
  5
3388
330
1E
100
AcDbEntity
  8
7
100
AcDbLine
 10
7.380209247036184
 20
-2.762721178724516
 30
0.0
 11
7.33690216042201
 21
-2.762721178724516
 31
0.0
  0
LINE
  5
3389
330
1E
100
AcDbEntity
  8
7
100
AcDbLine
 10
7.33690216042201
 20
-2.762721178724516
 30
0.0
 11
7.273910034437758
 21
-2.762721178724516
 31
0.0
  0
LINE
  5
338A
330
1E
100
AcDbEntity
  8
7
100
AcDbLine
 10
4.514067514752721
 20
-2.762721178724516
 30
0.0
 11
4.549500585618861
 21
-2.845398344078848
 31
0.0
  0
LINE
  5
338B
330
1E
100
AcDbEntity
  8
7
100
AcDbLine
 10
4.549500585618861
 20
-2.845398344078848
 30
0.0
 11
4.63611475884721
 21
-2.876894407070974
 31
0.0
  0
LINE
  5
338C
330
1E
100
AcDbEntity
  8
7
100
AcDbLine
 10
4.514067514752721
 20
-2.762721178724516
 30
0.0
 11
4.52981554624878
 21
-2.762721178724516
 31
0.0
  0
LINE
  5
338D
330
1E
100
AcDbEntity
  8
7
100
AcDbLine
 10
4.52981554624878
 20
-2.762721178724516
 30
0.0
 11
4.573122632862954
 21
-2.762721178724516
 31
0.0
  0
LINE
  5
338E
330
1E
100
AcDbEntity
  8
7
100
AcDbLine
 10
4.573122632862954
 20
-2.762721178724516
 30
0.0
 11
4.63611475884721
 21
-2.762721178724516
 31
0.0
  0
LINE
  5
338F
330
1E
100
AcDbEntity
  8
7
100
AcDbLine
 10
4.624303735225158
 20
-2.479256611795383
 30
0.0
 11
4.565248617114921
 21
-2.479256611795383
 31
0.0
  0
LINE
  5
3390
330
1E
100
AcDbEntity
  8
7
100
AcDbLine
 10
4.565248617114921
 20
-2.479256611795383
 30
0.0
 11
4.52194153050075
 21
-2.479256611795383
 31
0.0
  0
LINE
  5
3391
330
1E
100
AcDbEntity
  8
7
100
AcDbLine
 10
4.52194153050075
 20
-2.479256611795383
 30
0.0
 11
4.506193499004687
 21
-2.479256611795383
 31
0.0
  0
LINE
  5
3392
330
1E
100
AcDbEntity
  8
7
100
AcDbLine
 10
4.63611475884721
 20
-2.762721178724516
 30
0.0
 11
4.63611475884721
 21
-2.845398344078848
 31
0.0
  0
LINE
  5
3393
330
1E
100
AcDbEntity
  8
7
100
AcDbLine
 10
4.63611475884721
 20
-2.845398344078848
 30
0.0
 11
4.63611475884721
 21
-2.876894407070974
 31
0.0
  0
LINE
  5
3394
330
1E
100
AcDbEntity
  8
7
100
AcDbLine
 10
7.273910034437758
 20
-2.762721178724516
 30
0.0
 11
7.273910034437758
 21
-2.845398344078848
 31
0.0
  0
LINE
  5
3395
330
1E
100
AcDbEntity
  8
7
100
AcDbLine
 10
7.273910034437758
 20
-2.845398344078848
 30
0.0
 11
7.273910034437758
 21
-2.876894407070974
 31
0.0
  0
LINE
  5
3396
330
1E
100
AcDbEntity
  8
7
100
AcDbLine
 10
3.340839168296028
 20
-1.995004643291446
 30
0.0
 11
3.399894286406265
 21
-2.006815666913494
 31
0.0
  0
LINE
  5
3397
330
1E
100
AcDbEntity
  8
7
100
AcDbLine
 10
3.399894286406265
 20
-2.006815666913494
 30
0.0
 11
3.447138380894454
 21
-2.03831172990562
 31
0.0
  0
LINE
  5
3398
330
1E
100
AcDbEntity
  8
7
100
AcDbLine
 10
2.632177750973195
 20
-2.03831172990562
 30
0.0
 11
2.683358853335398
 21
-2.006815666913494
 31
0.0
  0
LINE
  5
3399
330
1E
100
AcDbEntity
  8
7
100
AcDbLine
 10
2.683358853335398
 20
-2.006815666913494
 30
0.0
 11
2.738476963571621
 21
-1.995004643291446
 31
0.0
  0
LINE
  5
339A
330
1E
100
AcDbEntity
  8
7
100
AcDbLine
 10
4.478634443886576
 20
-2.762721178724516
 30
0.0
 11
4.443201373020436
 21
-2.845398344078848
 31
0.0
  0
LINE
  5
339B
330
1E
100
AcDbEntity
  8
7
100
AcDbLine
 10
4.443201373020436
 20
-2.845398344078848
 30
0.0
 11
4.360524207666106
 21
-2.876894407070974
 31
0.0
  0
LINE
  5
339C
330
1E
100
AcDbEntity
  8
7
100
AcDbLine
 10
4.368398223414136
 20
-2.479256611795383
 30
0.0
 11
4.431390349398387
 21
-2.479256611795383
 31
0.0
  0
LINE
  5
339D
330
1E
100
AcDbEntity
  8
7
100
AcDbLine
 10
4.431390349398387
 20
-2.479256611795383
 30
0.0
 11
4.474697436012561
 21
-2.479256611795383
 31
0.0
  0
LINE
  5
339E
330
1E
100
AcDbEntity
  8
7
100
AcDbLine
 10
4.474697436012561
 20
-2.479256611795383
 30
0.0
 11
4.490445467508624
 21
-2.479256611795383
 31
0.0
  0
LINE
  5
339F
330
1E
100
AcDbEntity
  8
7
100
AcDbLine
 10
4.478634443886576
 20
-2.762721178724516
 30
0.0
 11
4.462886412390513
 21
-2.762721178724516
 31
0.0
  0
LINE
  5
33A0
330
1E
100
AcDbEntity
  8
7
100
AcDbLine
 10
4.462886412390513
 20
-2.762721178724516
 30
0.0
 11
4.419579325776343
 21
-2.762721178724516
 31
0.0
  0
LINE
  5
33A1
330
1E
100
AcDbEntity
  8
7
100
AcDbLine
 10
4.419579325776343
 20
-2.762721178724516
 30
0.0
 11
4.360524207666106
 21
-2.762721178724516
 31
0.0
  0
LINE
  5
33A2
330
1E
100
AcDbEntity
  8
7
100
AcDbLine
 10
1.600681687981065
 20
-2.762721178724516
 30
0.0
 11
1.63611475884721
 21
-2.845398344078848
 31
0.0
  0
LINE
  5
33A3
330
1E
100
AcDbEntity
  8
7
100
AcDbLine
 10
1.63611475884721
 20
-2.845398344078848
 30
0.0
 11
1.718791924201536
 21
-2.876894407070974
 31
0.0
  0
LINE
  5
33A4
330
1E
100
AcDbEntity
  8
7
100
AcDbLine
 10
1.600681687981065
 20
-2.762721178724516
 30
0.0
 11
1.616429719477128
 21
-2.762721178724516
 31
0.0
  0
LINE
  5
33A5
330
1E
100
AcDbEntity
  8
7
100
AcDbLine
 10
1.616429719477128
 20
-2.762721178724516
 30
0.0
 11
1.659736806091302
 21
-2.762721178724516
 31
0.0
  0
LINE
  5
33A6
330
1E
100
AcDbEntity
  8
7
100
AcDbLine
 10
1.659736806091302
 20
-2.762721178724516
 30
0.0
 11
1.718791924201536
 21
-2.762721178724516
 31
0.0
  0
LINE
  5
33A7
330
1E
100
AcDbEntity
  8
7
100
AcDbLine
 10
1.710917908453506
 20
-2.479256611795383
 30
0.0
 11
1.647925782469254
 21
-2.479256611795383
 31
0.0
  0
LINE
  5
33A8
330
1E
100
AcDbEntity
  8
7
100
AcDbLine
 10
1.647925782469254
 20
-2.479256611795383
 30
0.0
 11
1.604618695855084
 21
-2.479256611795383
 31
0.0
  0
LINE
  5
33A9
330
1E
100
AcDbEntity
  8
7
100
AcDbLine
 10
1.604618695855084
 20
-2.479256611795383
 30
0.0
 11
1.588870664359017
 21
-2.479256611795383
 31
0.0
  0
LINE
  5
33AA
330
1E
100
AcDbEntity
  8
7
100
AcDbLine
 10
1.718791924201536
 20
-2.762721178724516
 30
0.0
 11
1.718791924201536
 21
-2.845398344078848
 31
0.0
  0
LINE
  5
33AB
330
1E
100
AcDbEntity
  8
7
100
AcDbLine
 10
1.718791924201536
 20
-2.845398344078848
 30
0.0
 11
1.718791924201536
 21
-2.876894407070974
 31
0.0
  0
LINE
  5
33AC
330
1E
100
AcDbEntity
  8
7
100
AcDbLine
 10
4.360524207666106
 20
-2.762721178724516
 30
0.0
 11
4.360524207666106
 21
-2.845398344078848
 31
0.0
  0
LINE
  5
33AD
330
1E
100
AcDbEntity
  8
7
100
AcDbLine
 10
4.360524207666106
 20
-2.845398344078848
 30
0.0
 11
4.360524207666106
 21
-2.876894407070974
 31
0.0
  0
LINE
  5
33AE
330
1E
100
AcDbEntity
  8
7
100
AcDbLine
 10
0.4274533415243767
 20
-1.995004643291446
 30
0.0
 11
0.4825714517605988
 21
-2.006815666913494
 31
0.0
  0
LINE
  5
33AF
330
1E
100
AcDbEntity
  8
7
100
AcDbLine
 10
0.4825714517605988
 20
-2.006815666913494
 30
0.0
 11
0.5298155462487842
 21
-2.03831172990562
 31
0.0
  0
LINE
  5
33B0
330
1E
100
AcDbEntity
  8
7
100
AcDbLine
 10
-0.2812080757984603
 20
-2.03831172990562
 30
0.0
 11
-0.2339639813102678
 21
-2.006815666913494
 31
0.0
  0
LINE
  5
33B1
330
1E
100
AcDbEntity
  8
7
100
AcDbLine
 10
-0.2339639813102678
 20
-2.006815666913494
 30
0.0
 11
-0.1749088632000344
 21
-1.995004643291446
 31
0.0
  0
LINE
  5
33B2
330
1E
100
AcDbEntity
  8
7
100
AcDbLine
 10
1.565248617114921
 20
-2.762721178724516
 30
0.0
 11
1.52981554624878
 21
-2.845398344078848
 31
0.0
  0
LINE
  5
33B3
330
1E
100
AcDbEntity
  8
7
100
AcDbLine
 10
1.52981554624878
 20
-2.845398344078848
 30
0.0
 11
1.443201373020436
 21
-2.876894407070974
 31
0.0
  0
LINE
  5
33B4
330
1E
100
AcDbEntity
  8
7
100
AcDbLine
 10
1.455012396642484
 20
-2.479256611795383
 30
0.0
 11
1.514067514752721
 21
-2.479256611795383
 31
0.0
  0
LINE
  5
33B5
330
1E
100
AcDbEntity
  8
7
100
AcDbLine
 10
1.514067514752721
 20
-2.479256611795383
 30
0.0
 11
1.557374601366891
 21
-2.479256611795383
 31
0.0
  0
LINE
  5
33B6
330
1E
100
AcDbEntity
  8
7
100
AcDbLine
 10
1.557374601366891
 20
-2.479256611795383
 30
0.0
 11
1.573122632862954
 21
-2.479256611795383
 31
0.0
  0
LINE
  5
33B7
330
1E
100
AcDbEntity
  8
7
100
AcDbLine
 10
1.565248617114921
 20
-2.762721178724516
 30
0.0
 11
1.549500585618861
 21
-2.762721178724516
 31
0.0
  0
LINE
  5
33B8
330
1E
100
AcDbEntity
  8
7
100
AcDbLine
 10
1.549500585618861
 20
-2.762721178724516
 30
0.0
 11
1.506193499004687
 21
-2.762721178724516
 31
0.0
  0
LINE
  5
33B9
330
1E
100
AcDbEntity
  8
7
100
AcDbLine
 10
1.506193499004687
 20
-2.762721178724516
 30
0.0
 11
1.443201373020436
 21
-2.762721178724516
 31
0.0
  0
LINE
  5
33BA
330
1E
100
AcDbEntity
  8
7
100
AcDbLine
 10
-1.316641146664604
 20
-2.762721178724515
 30
0.0
 11
-1.277271067924445
 21
-2.845398344078846
 31
0.0
  0
LINE
  5
33BB
330
1E
100
AcDbEntity
  8
7
100
AcDbLine
 10
-1.277271067924445
 20
-2.845398344078846
 30
0.0
 11
-1.194593902570115
 21
-2.876894407070972
 31
0.0
  0
LINE
  5
33BC
330
1E
100
AcDbEntity
  8
7
100
AcDbLine
 10
-1.316641146664604
 20
-2.762721178724515
 30
0.0
 11
-1.300893115168541
 21
-2.762721178724515
 31
0.0
  0
LINE
  5
33BD
330
1E
100
AcDbEntity
  8
7
100
AcDbLine
 10
-1.300893115168541
 20
-2.762721178724515
 30
0.0
 11
-1.253649020680352
 21
-2.762721178724515
 31
0.0
  0
LINE
  5
33BE
330
1E
100
AcDbEntity
  8
7
100
AcDbLine
 10
-1.253649020680352
 20
-2.762721178724515
 30
0.0
 11
-1.194593902570115
 21
-2.762721178724515
 31
0.0
  0
LINE
  5
33BF
330
1E
100
AcDbEntity
  8
7
100
AcDbLine
 10
-1.206404926192163
 20
-2.479256611795381
 30
0.0
 11
-1.265460044302397
 21
-2.479256611795381
 31
0.0
  0
LINE
  5
33C0
330
1E
100
AcDbEntity
  8
7
100
AcDbLine
 10
-1.265460044302397
 20
-2.479256611795381
 30
0.0
 11
-1.308767130916571
 21
-2.479256611795381
 31
0.0
  0
LINE
  5
33C1
330
1E
100
AcDbEntity
  8
7
100
AcDbLine
 10
-1.308767130916571
 20
-2.479256611795381
 30
0.0
 11
-1.324515162412634
 21
-2.479256611795381
 31
0.0
  0
LINE
  5
33C2
330
1E
100
AcDbEntity
  8
7
100
AcDbLine
 10
-1.194593902570115
 20
-2.762721178724515
 30
0.0
 11
-1.194593902570115
 21
-2.845398344078846
 31
0.0
  0
LINE
  5
33C3
330
1E
100
AcDbEntity
  8
7
100
AcDbLine
 10
-1.194593902570115
 20
-2.845398344078846
 30
0.0
 11
-1.194593902570115
 21
-2.876894407070972
 31
0.0
  0
LINE
  5
33C4
330
1E
100
AcDbEntity
  8
7
100
AcDbLine
 10
1.443201373020436
 20
-2.762721178724516
 30
0.0
 11
1.443201373020436
 21
-2.845398344078848
 31
0.0
  0
LINE
  5
33C5
330
1E
100
AcDbEntity
  8
7
100
AcDbLine
 10
1.443201373020436
 20
-2.845398344078848
 30
0.0
 11
1.443201373020436
 21
-2.876894407070974
 31
0.0
  0
LINE
  5
33C6
330
1E
100
AcDbEntity
  8
7
100
AcDbLine
 10
15.00225649113067
 20
-1.995004643291448
 30
0.0
 11
15.05737460136689
 21
-2.006815666913496
 31
0.0
  0
LINE
  5
33C7
330
1E
100
AcDbEntity
  8
7
100
AcDbLine
 10
15.05737460136689
 20
-2.006815666913496
 30
0.0
 11
15.10461869585508
 21
-2.038311729905622
 31
0.0
  0
LINE
  5
33C8
330
1E
100
AcDbEntity
  8
7
100
AcDbLine
 10
14.29359507380783
 20
-2.038311729905622
 30
0.0
 11
14.34083916829602
 21
-2.006815666913496
 31
0.0
  0
LINE
  5
33C9
330
1E
100
AcDbEntity
  8
7
100
AcDbLine
 10
14.34083916829602
 20
-2.006815666913496
 30
0.0
 11
14.39989428640626
 21
-1.995004643291448
 31
0.0
  0
LINE
  5
33CA
330
1E
100
AcDbEntity
  8
7
100
AcDbLine
 10
16.14005176672122
 20
-2.762721178724518
 30
0.0
 11
16.10461869585508
 21
-2.84539834407885
 31
0.0
  0
LINE
  5
33CB
330
1E
100
AcDbEntity
  8
7
100
AcDbLine
 10
16.10461869585508
 20
-2.84539834407885
 30
0.0
 11
16.02194153050075
 21
-2.876894407070976
 31
0.0
  0
LINE
  5
33CC
330
1E
100
AcDbEntity
  8
7
100
AcDbLine
 10
16.02981554624878
 20
-2.479256611795385
 30
0.0
 11
16.08887066435902
 21
-2.479256611795385
 31
0.0
  0
LINE
  5
33CD
330
1E
100
AcDbEntity
  8
7
100
AcDbLine
 10
16.08887066435902
 20
-2.479256611795385
 30
0.0
 11
16.13217775097319
 21
-2.479256611795385
 31
0.0
  0
LINE
  5
33CE
330
1E
100
AcDbEntity
  8
7
100
AcDbLine
 10
16.13217775097319
 20
-2.479256611795385
 30
0.0
 11
16.14792578246925
 21
-2.479256611795385
 31
0.0
  0
LINE
  5
33CF
330
1E
100
AcDbEntity
  8
7
100
AcDbLine
 10
16.14005176672122
 20
-2.762721178724518
 30
0.0
 11
16.12430373522516
 21
-2.762721178724518
 31
0.0
  0
LINE
  5
33D0
330
1E
100
AcDbEntity
  8
7
100
AcDbLine
 10
16.12430373522516
 20
-2.762721178724518
 30
0.0
 11
16.08099664861099
 21
-2.762721178724518
 31
0.0
  0
LINE
  5
33D1
330
1E
100
AcDbEntity
  8
7
100
AcDbLine
 10
16.08099664861099
 20
-2.762721178724518
 30
0.0
 11
16.02194153050075
 21
-2.762721178724518
 31
0.0
  0
LINE
  5
33D2
330
1E
100
AcDbEntity
  8
7
100
AcDbLine
 10
13.25816200294169
 20
-2.762721178724518
 30
0.0
 11
13.29753208168185
 21
-2.84539834407885
 31
0.0
  0
LINE
  5
33D3
330
1E
100
AcDbEntity
  8
7
100
AcDbLine
 10
13.29753208168185
 20
-2.84539834407885
 30
0.0
 11
13.38020924703618
 21
-2.876894407070976
 31
0.0
  0
LINE
  5
33D4
330
1E
100
AcDbEntity
  8
7
100
AcDbLine
 10
13.25816200294169
 20
-2.762721178724518
 30
0.0
 11
13.27784704231177
 21
-2.762721178724518
 31
0.0
  0
LINE
  5
33D5
330
1E
100
AcDbEntity
  8
7
100
AcDbLine
 10
13.27784704231177
 20
-2.762721178724518
 30
0.0
 11
13.32115412892594
 21
-2.762721178724518
 31
0.0
  0
LINE
  5
33D6
330
1E
100
AcDbEntity
  8
7
100
AcDbLine
 10
13.32115412892594
 20
-2.762721178724518
 30
0.0
 11
13.38020924703618
 21
-2.762721178724518
 31
0.0
  0
LINE
  5
33D7
330
1E
100
AcDbEntity
  8
7
100
AcDbLine
 10
13.36839822341413
 20
-2.479256611795385
 30
0.0
 11
13.3093431053039
 21
-2.479256611795385
 31
0.0
  0
LINE
  5
33D8
330
1E
100
AcDbEntity
  8
7
100
AcDbLine
 10
13.3093431053039
 20
-2.479256611795385
 30
0.0
 11
13.26603601868973
 21
-2.479256611795385
 31
0.0
  0
LINE
  5
33D9
330
1E
100
AcDbEntity
  8
7
100
AcDbLine
 10
13.26603601868973
 20
-2.479256611795385
 30
0.0
 11
13.25028798719366
 21
-2.479256611795385
 31
0.0
  0
LINE
  5
33DA
330
1E
100
AcDbEntity
  8
7
100
AcDbLine
 10
13.38020924703618
 20
-2.762721178724518
 30
0.0
 11
13.38020924703618
 21
-2.84539834407885
 31
0.0
  0
LINE
  5
33DB
330
1E
100
AcDbEntity
  8
7
100
AcDbLine
 10
13.38020924703618
 20
-2.84539834407885
 30
0.0
 11
13.38020924703618
 21
-2.876894407070976
 31
0.0
  0
LINE
  5
33DC
330
1E
100
AcDbEntity
  8
7
100
AcDbLine
 10
16.02194153050075
 20
-2.762721178724518
 30
0.0
 11
16.02194153050075
 21
-2.84539834407885
 31
0.0
  0
LINE
  5
33DD
330
1E
100
AcDbEntity
  8
7
100
AcDbLine
 10
16.02194153050075
 20
-2.84539834407885
 30
0.0
 11
16.02194153050075
 21
-2.876894407070976
 31
0.0
  0
LINE
  5
33DE
330
1E
100
AcDbEntity
  8
7
100
AcDbLine
 10
12.084933656485
 20
-1.995004643291448
 30
0.0
 11
12.14398877459524
 21
-2.006815666913496
 31
0.0
  0
LINE
  5
33DF
330
1E
100
AcDbEntity
  8
7
100
AcDbLine
 10
12.14398877459524
 20
-2.006815666913496
 30
0.0
 11
12.19123286908343
 21
-2.038311729905622
 31
0.0
  0
LINE
  5
33E0
330
1E
100
AcDbEntity
  8
7
100
AcDbLine
 10
11.38020924703618
 20
-2.038311729905622
 30
0.0
 11
11.42745334152437
 21
-2.006815666913496
 31
0.0
  0
LINE
  5
33E1
330
1E
100
AcDbEntity
  8
7
100
AcDbLine
 10
11.42745334152437
 20
-2.006815666913496
 30
0.0
 11
11.48257145176059
 21
-1.995004643291448
 31
0.0
  0
LINE
  5
33E2
330
1E
100
AcDbEntity
  8
7
100
AcDbLine
 10
13.22666593994957
 20
-2.762721178724518
 30
0.0
 11
13.18729586120941
 21
-2.84539834407885
 31
0.0
  0
LINE
  5
33E3
330
1E
100
AcDbEntity
  8
7
100
AcDbLine
 10
13.18729586120941
 20
-2.84539834407885
 30
0.0
 11
13.10461869585508
 21
-2.876894407070976
 31
0.0
  0
LINE
  5
33E4
330
1E
100
AcDbEntity
  8
7
100
AcDbLine
 10
13.11642971947713
 20
-2.479256611795385
 30
0.0
 11
13.17548483758736
 21
-2.479256611795385
 31
0.0
  0
LINE
  5
33E5
330
1E
100
AcDbEntity
  8
7
100
AcDbLine
 10
13.17548483758736
 20
-2.479256611795385
 30
0.0
 11
13.21879192420154
 21
-2.479256611795385
 31
0.0
  0
LINE
  5
33E6
330
1E
100
AcDbEntity
  8
7
100
AcDbLine
 10
13.21879192420154
 20
-2.479256611795385
 30
0.0
 11
13.2345399556976
 21
-2.479256611795385
 31
0.0
  0
LINE
  5
33E7
330
1E
100
AcDbEntity
  8
7
100
AcDbLine
 10
13.22666593994957
 20
-2.762721178724518
 30
0.0
 11
13.20698090057949
 21
-2.762721178724518
 31
0.0
  0
LINE
  5
33E8
330
1E
100
AcDbEntity
  8
7
100
AcDbLine
 10
13.20698090057949
 20
-2.762721178724518
 30
0.0
 11
13.16367381396531
 21
-2.762721178724518
 31
0.0
  0
LINE
  5
33E9
330
1E
100
AcDbEntity
  8
7
100
AcDbLine
 10
13.16367381396531
 20
-2.762721178724518
 30
0.0
 11
13.10461869585508
 21
-2.762721178724518
 31
0.0
  0
LINE
  5
33EA
330
1E
100
AcDbEntity
  8
7
100
AcDbLine
 10
10.34477617617004
 20
-2.762721178724518
 30
0.0
 11
10.38020924703618
 21
-2.84539834407885
 31
0.0
  0
LINE
  5
33EB
330
1E
100
AcDbEntity
  8
7
100
AcDbLine
 10
10.38020924703618
 20
-2.84539834407885
 30
0.0
 11
10.46288641239051
 21
-2.876894407070976
 31
0.0
  0
LINE
  5
33EC
330
1E
100
AcDbEntity
  8
7
100
AcDbLine
 10
10.34477617617004
 20
-2.762721178724518
 30
0.0
 11
10.3605242076661
 21
-2.762721178724518
 31
0.0
  0
LINE
  5
33ED
330
1E
100
AcDbEntity
  8
7
100
AcDbLine
 10
10.3605242076661
 20
-2.762721178724518
 30
0.0
 11
10.40383129428027
 21
-2.762721178724518
 31
0.0
  0
LINE
  5
33EE
330
1E
100
AcDbEntity
  8
7
100
AcDbLine
 10
10.40383129428027
 20
-2.762721178724518
 30
0.0
 11
10.46288641239051
 21
-2.762721178724518
 31
0.0
  0
LINE
  5
33EF
330
1E
100
AcDbEntity
  8
7
100
AcDbLine
 10
10.45501239664248
 20
-2.479256611795385
 30
0.0
 11
10.39595727853224
 21
-2.479256611795385
 31
0.0
  0
LINE
  5
33F0
330
1E
100
AcDbEntity
  8
7
100
AcDbLine
 10
10.39595727853224
 20
-2.479256611795385
 30
0.0
 11
10.35265019191807
 21
-2.479256611795385
 31
0.0
  0
LINE
  5
33F1
330
1E
100
AcDbEntity
  8
7
100
AcDbLine
 10
10.35265019191807
 20
-2.479256611795385
 30
0.0
 11
10.33296515254799
 21
-2.479256611795385
 31
0.0
  0
LINE
  5
33F2
330
1E
100
AcDbEntity
  8
7
100
AcDbLine
 10
10.46288641239051
 20
-2.762721178724518
 30
0.0
 11
10.46288641239051
 21
-2.84539834407885
 31
0.0
  0
LINE
  5
33F3
330
1E
100
AcDbEntity
  8
7
100
AcDbLine
 10
10.46288641239051
 20
-2.84539834407885
 30
0.0
 11
10.46288641239051
 21
-2.876894407070976
 31
0.0
  0
LINE
  5
33F4
330
1E
100
AcDbEntity
  8
7
100
AcDbLine
 10
13.10461869585508
 20
-2.762721178724518
 30
0.0
 11
13.10461869585508
 21
-2.84539834407885
 31
0.0
  0
LINE
  5
33F5
330
1E
100
AcDbEntity
  8
7
100
AcDbLine
 10
13.10461869585508
 20
-2.84539834407885
 30
0.0
 11
13.10461869585508
 21
-2.876894407070976
 31
0.0
  0
LINE
  5
33F6
330
1E
100
AcDbEntity
  8
7
100
AcDbLine
 10
9.171547829713352
 20
-1.995004643291446
 30
0.0
 11
9.226665939949571
 21
-2.006815666913496
 31
0.0
  0
LINE
  5
33F7
330
1E
100
AcDbEntity
  8
7
100
AcDbLine
 10
9.226665939949571
 20
-2.006815666913496
 30
0.0
 11
9.277847042311774
 21
-2.038311729905622
 31
0.0
  0
LINE
  5
33F8
330
1E
100
AcDbEntity
  8
7
100
AcDbLine
 10
8.462886412390515
 20
-2.03831172990562
 30
0.0
 11
8.510130506878704
 21
-2.006815666913494
 31
0.0
  0
LINE
  5
33F9
330
1E
100
AcDbEntity
  8
7
100
AcDbLine
 10
8.510130506878704
 20
-2.006815666913494
 30
0.0
 11
8.569185624988941
 21
-1.995004643291446
 31
0.0
  0
LINE
  5
33FA
330
1E
100
AcDbEntity
  8
7
100
AcDbLine
 10
10.3093431053039
 20
-2.762721178724518
 30
0.0
 11
10.27391003443776
 21
-2.84539834407885
 31
0.0
  0
LINE
  5
33FB
330
1E
100
AcDbEntity
  8
7
100
AcDbLine
 10
10.27391003443776
 20
-2.84539834407885
 30
0.0
 11
10.19123286908343
 21
-2.876894407070976
 31
0.0
  0
LINE
  5
33FC
330
1E
100
AcDbEntity
  8
7
100
AcDbLine
 10
10.19910688483146
 20
-2.479256611795385
 30
0.0
 11
10.25816200294169
 21
-2.479256611795385
 31
0.0
  0
LINE
  5
33FD
330
1E
100
AcDbEntity
  8
7
100
AcDbLine
 10
10.25816200294169
 20
-2.479256611795385
 30
0.0
 11
10.30540609742988
 21
-2.479256611795385
 31
0.0
  0
LINE
  5
33FE
330
1E
100
AcDbEntity
  8
7
100
AcDbLine
 10
10.30540609742988
 20
-2.479256611795385
 30
0.0
 11
10.32115412892594
 21
-2.479256611795385
 31
0.0
  0
LINE
  5
33FF
330
1E
100
AcDbEntity
  8
7
100
AcDbLine
 10
10.3093431053039
 20
-2.762721178724518
 30
0.0
 11
10.29359507380783
 21
-2.762721178724518
 31
0.0
  0
LINE
  5
3400
330
1E
100
AcDbEntity
  8
7
100
AcDbLine
 10
10.29359507380783
 20
-2.762721178724518
 30
0.0
 11
10.25028798719366
 21
-2.762721178724518
 31
0.0
  0
LINE
  5
3401
330
1E
100
AcDbEntity
  8
7
100
AcDbLine
 10
10.25028798719366
 20
-2.762721178724518
 30
0.0
 11
10.19123286908343
 21
-2.762721178724518
 31
0.0
  0
LINE
  5
3402
330
1E
100
AcDbEntity
  8
7
100
AcDbLine
 10
7.431390349398387
 20
-2.762721178724516
 30
0.0
 11
7.466823420264528
 21
-2.845398344078848
 31
0.0
  0
LINE
  5
3403
330
1E
100
AcDbEntity
  8
7
100
AcDbLine
 10
7.466823420264528
 20
-2.845398344078848
 30
0.0
 11
7.549500585618861
 21
-2.876894407070974
 31
0.0
  0
LINE
  5
3404
330
1E
100
AcDbEntity
  8
7
100
AcDbLine
 10
7.431390349398387
 20
-2.762721178724516
 30
0.0
 11
7.44713838089445
 21
-2.762721178724516
 31
0.0
  0
LINE
  5
3405
330
1E
100
AcDbEntity
  8
7
100
AcDbLine
 10
7.44713838089445
 20
-2.762721178724516
 30
0.0
 11
7.490445467508624
 21
-2.762721178724516
 31
0.0
  0
LINE
  5
3406
330
1E
100
AcDbEntity
  8
7
100
AcDbLine
 10
7.490445467508624
 20
-2.762721178724516
 30
0.0
 11
7.549500585618861
 21
-2.762721178724516
 31
0.0
  0
LINE
  5
3407
330
1E
100
AcDbEntity
  8
7
100
AcDbLine
 10
7.541626569870828
 20
-2.479256611795383
 30
0.0
 11
7.478634443886576
 21
-2.479256611795383
 31
0.0
  0
LINE
  5
3408
330
1E
100
AcDbEntity
  8
7
100
AcDbLine
 10
7.478634443886576
 20
-2.479256611795383
 30
0.0
 11
7.435327357272402
 21
-2.479256611795383
 31
0.0
  0
LINE
  5
3409
330
1E
100
AcDbEntity
  8
7
100
AcDbLine
 10
7.435327357272402
 20
-2.479256611795383
 30
0.0
 11
7.419579325776343
 21
-2.479256611795383
 31
0.0
  0
LINE
  5
340A
330
1E
100
AcDbEntity
  8
7
100
AcDbLine
 10
7.549500585618861
 20
-2.762721178724516
 30
0.0
 11
7.549500585618861
 21
-2.845398344078848
 31
0.0
  0
LINE
  5
340B
330
1E
100
AcDbEntity
  8
7
100
AcDbLine
 10
7.549500585618861
 20
-2.845398344078848
 30
0.0
 11
7.549500585618861
 21
-2.876894407070974
 31
0.0
  0
LINE
  5
340C
330
1E
100
AcDbEntity
  8
7
100
AcDbLine
 10
10.19123286908343
 20
-2.762721178724518
 30
0.0
 11
10.19123286908343
 21
-2.84539834407885
 31
0.0
  0
LINE
  5
340D
330
1E
100
AcDbEntity
  8
7
100
AcDbLine
 10
10.19123286908343
 20
-2.84539834407885
 30
0.0
 11
10.19123286908343
 21
-2.876894407070976
 31
0.0
  0
LINE
  5
340E
330
1E
100
AcDbEntity
  8
7
100
AcDbLine
 10
16.64398877459524
 20
-2.479256611795385
 30
0.0
 11
16.65186279034327
 21
-2.479256611795385
 31
0.0
  0
LINE
  5
340F
330
1E
100
AcDbEntity
  8
7
100
AcDbLine
 10
16.65186279034327
 20
-2.479256611795385
 30
0.0
 11
16.66367381396531
 21
-2.479256611795385
 31
0.0
  0
LINE
  5
3410
330
1E
100
AcDbEntity
  8
7
100
AcDbLine
 10
16.70698090057949
 20
-2.479256611795385
 30
0.0
 11
16.71879192420154
 21
-2.479256611795385
 31
0.0
  0
LINE
  5
3411
330
1E
100
AcDbEntity
  8
7
100
AcDbLine
 10
16.71879192420154
 20
-2.479256611795385
 30
0.0
 11
16.72666593994956
 21
-2.479256611795385
 31
0.0
  0
LINE
  5
3412
330
1E
100
AcDbEntity
  8
7
100
AcDbLine
 10
16.63217775097319
 20
-2.479256611795385
 30
0.0
 11
16.62824074309917
 21
-2.479256611795385
 31
0.0
  0
LINE
  5
3413
330
1E
100
AcDbEntity
  8
7
100
AcDbLine
 10
16.62824074309917
 20
-2.479256611795385
 30
0.0
 11
16.61249271160311
 21
-2.479256611795385
 31
0.0
  0
LINE
  5
3414
330
1E
100
AcDbEntity
  8
7
100
AcDbLine
 10
16.69516987695744
 20
-2.479256611795385
 30
0.0
 11
16.69910688483145
 21
-2.479256611795385
 31
0.0
  0
LINE
  5
3415
330
1E
100
AcDbEntity
  8
7
100
AcDbLine
 10
16.69910688483145
 20
-2.479256611795385
 30
0.0
 11
16.70304389270547
 21
-2.479256611795385
 31
0.0
  0
LINE
  5
3416
330
1E
100
AcDbEntity
  8
7
100
AcDbLine
 10
16.61249271160311
 20
-2.479256611795385
 30
0.0
 11
16.62824074309917
 21
-2.479256611795385
 31
0.0
  0
LINE
  5
3417
330
1E
100
AcDbEntity
  8
7
100
AcDbLine
 10
16.62824074309917
 20
-2.479256611795385
 30
0.0
 11
16.63217775097319
 21
-2.479256611795385
 31
0.0
  0
LINE
  5
3418
330
1E
100
AcDbEntity
  8
7
100
AcDbLine
 10
16.59280767223303
 20
-2.479256611795385
 30
0.0
 11
16.59674468010705
 21
-2.479256611795385
 31
0.0
  0
LINE
  5
3419
330
1E
100
AcDbEntity
  8
7
100
AcDbLine
 10
16.59674468010705
 20
-2.479256611795385
 30
0.0
 11
16.60068168798106
 21
-2.479256611795385
 31
0.0
  0
LINE
  5
341A
330
1E
100
AcDbEntity
  8
7
100
AcDbLine
 10
16.33690216042201
 20
-2.479256611795385
 30
0.0
 11
16.34871318404405
 21
-2.479256611795385
 31
0.0
  0
LINE
  5
341B
330
1E
100
AcDbEntity
  8
7
100
AcDbLine
 10
16.34871318404405
 20
-2.479256611795385
 30
0.0
 11
16.36052420766611
 21
-2.479256611795385
 31
0.0
  0
LINE
  5
341C
330
1E
100
AcDbEntity
  8
7
100
AcDbLine
 10
16.38414625491019
 20
-2.479256611795385
 30
0.0
 11
16.36839822341413
 21
-2.479256611795385
 31
0.0
  0
LINE
  5
341D
330
1E
100
AcDbEntity
  8
7
100
AcDbLine
 10
16.36839822341413
 20
-2.479256611795385
 30
0.0
 11
16.33690216042201
 21
-2.479256611795385
 31
0.0
  0
LINE
  5
341E
330
1E
100
AcDbEntity
  8
7
100
AcDbLine
 10
16.60068168798106
 20
-2.479256611795385
 30
0.0
 11
16.59674468010705
 21
-2.479256611795385
 31
0.0
  0
LINE
  5
341F
330
1E
100
AcDbEntity
  8
7
100
AcDbLine
 10
16.59674468010705
 20
-2.479256611795385
 30
0.0
 11
16.59280767223303
 21
-2.479256611795385
 31
0.0
  0
ENDSEC
  0
SECTION
  2
OBJECTS
  0
DICTIONARY
  5
C
330
0
100
AcDbDictionary
  3
ACAD_GROUP
350
D
  3
ACAD_LAYOUT
350
19
  3
ACAD_MLINESTYLE
350
16
  3
ACAD_PLOTSETTINGS
350
18
1001
ACAD
1000
TREAT_AS_HARD
1070
     0
  0
DICTIONARY
  5
46AB
330
1E
100
AcDbDictionary
  3
ACAD_LAYOUTSELFREF
350
46E5
1001
ACAD
1000
TREAT_AS_HARD
1070
     1
  0
DICTIONARY
  5
46AD
330
1A
100
AcDbDictionary
  3
ACAD_LAYOUTSELFREF
350
46E4
1001
ACAD
1000
TREAT_AS_HARD
1070
     1
  0
DICTIONARY
  5
D
102
{ACAD_REACTORS
330
C
102
}
330
C
100
AcDbDictionary
1001
ACAD
1000
TREAT_AS_HARD
1070
     0
  0
DICTIONARY
  5
19
102
{ACAD_REACTORS
330
C
102
}
330
C
100
AcDbDictionary
1001
ACAD
1000
TREAT_AS_HARD
1070
     0
  0
DICTIONARY
  5
16
102
{ACAD_REACTORS
330
C
102
}
330
C
100
AcDbDictionary
  3
STANDARD
350
17
1001
ACAD
1000
TREAT_AS_HARD
1070
     0
  0
DICTIONARY
  5
18
102
{ACAD_REACTORS
330
C
102
}
330
C
100
AcDbDictionary
1001
ACAD
1000
TREAT_AS_HARD
1070
     0
  0
XRECORD
  5
46E5
102
{ACAD_REACTORS
330
46AB
102
}
330
46AB
100
AcDbXrecord
340
1E
  0
XRECORD
  5
46E4
102
{ACAD_REACTORS
330
46AD
102
}
330
46AD
100
AcDbXrecord
340
1A
  0
MLINESTYLE
  5
17
102
{ACAD_REACTORS
330
16
102
}
330
16
100
AcDbMlineStyle
  2
STANDARD
 70
     0
  3

 62
   256
 51
90.0
 52
90.0
 71
     2
 49
0.5
 62
   256
  6
BYLAYER
 49
-0.5
 62
   256
  6
BYLAYER
  0
ENDSEC
  0
EOF
