  0
SECTION
  2
HEADER
  9
$ACADVER
  1
AC1012
  9
$DWGCODEPAGE
  3
ANSI_1252
  9
$INSBASE
 10
0.0
 20
0.0
 30
0.0
  9
$EXTMIN
 10
-0.5665455416700631
 20
3.99188234982067
 30
-0.0000000349181948
  9
$EXTMAX
 10
6.192445134458729
 20
8.492843648294037
 30
0.0000000814935746
  9
$LIMMIN
 10
0.0
 20
0.0
  9
$LIMMAX
 10
12.0
 20
9.0
  9
$ORTHOMODE
 70
     0
  9
$REGENMODE
 70
     1
  9
$FILLMODE
 70
     1
  9
$QTEXTMODE
 70
     0
  9
$MIRRTEXT
 70
     1
  9
$DRAGMODE
 70
     2
  9
$LTSCALE
 40
1.0
  9
$OSMODE
 70
   547
  9
$ATTMODE
 70
     1
  9
$TEXTSIZE
 40
0.2
  9
$TRACEWID
 40
0.05
  9
$TEXTSTYLE
  7
STANDARD
  9
$CLAYER
  8
0
  9
$CELTYPE
  6
BYLAYER
  9
$CECOLOR
 62
   256
  9
$CELTSCALE
 40
1.0
  9
$DELOBJ
 70
     1
  9
$DISPSILH
 70
     0
  9
$DIMSCALE
 40
1.0
  9
$DIMASZ
 40
0.18
  9
$DIMEXO
 40
0.0625
  9
$DIMDLI
 40
0.38
  9
$DIMRND
 40
0.0
  9
$DIMDLE
 40
0.0
  9
$DIMEXE
 40
0.18
  9
$DIMTP
 40
0.0
  9
$DIMTM
 40
0.0
  9
$DIMTXT
 40
0.18
  9
$DIMCEN
 40
0.09
  9
$DIMTSZ
 40
0.0
  9
$DIMTOL
 70
     0
  9
$DIMLIM
 70
     0
  9
$DIMTIH
 70
     1
  9
$DIMTOH
 70
     1
  9
$DIMSE1
 70
     0
  9
$DIMSE2
 70
     0
  9
$DIMTAD
 70
     0
  9
$DIMZIN
 70
     0
  9
$DIMBLK
  1

  9
$DIMASO
 70
     1
  9
$DIMSHO
 70
     1
  9
$DIMPOST
  1

  9
$DIMAPOST
  1

  9
$DIMALT
 70
     0
  9
$DIMALTD
 70
     2
  9
$DIMALTF
 40
25.4
  9
$DIMLFAC
 40
1.0
  9
$DIMTOFL
 70
     0
  9
$DIMTVP
 40
0.0
  9
$DIMTIX
 70
     0
  9
$DIMSOXD
 70
     0
  9
$DIMSAH
 70
     0
  9
$DIMBLK1
  1

  9
$DIMBLK2
  1

  9
$DIMSTYLE
  2
STANDARD
  9
$DIMCLRD
 70
     0
  9
$DIMCLRE
 70
     0
  9
$DIMCLRT
 70
     0
  9
$DIMTFAC
 40
1.0
  9
$DIMGAP
 40
0.09
  9
$DIMJUST
 70
     0
  9
$DIMSD1
 70
     0
  9
$DIMSD2
 70
     0
  9
$DIMTOLJ
 70
     1
  9
$DIMTZIN
 70
     0
  9
$DIMALTZ
 70
     0
  9
$DIMALTTZ
 70
     0
  9
$DIMFIT
 70
     5
  9
$DIMUPT
 70
     0
  9
$DIMUNIT
 70
     2
  9
$DIMDEC
 70
     4
  9
$DIMTDEC
 70
     4
  9
$DIMALTU
 70
     2
  9
$DIMALTTD
 70
     2
  9
$DIMTXSTY
  7
STANDARD
  9
$DIMAUNIT
 70
     0
  9
$LUNITS
 70
     2
  9
$LUPREC
 70
     4
  9
$SKETCHINC
 40
0.1
  9
$FILLETRAD
 40
0.0
  9
$AUNITS
 70
     0
  9
$AUPREC
 70
     0
  9
$MENU
  1
acad
  9
$ELEVATION
 40
0.0
  9
$PELEVATION
 40
0.0
  9
$THICKNESS
 40
0.0
  9
$LIMCHECK
 70
     0
  9
$BLIPMODE
 70
     0
  9
$CHAMFERA
 40
0.0
  9
$CHAMFERB
 40
0.0
  9
$CHAMFERC
 40
0.0
  9
$CHAMFERD
 40
0.0
  9
$SKPOLY
 70
     0
  9
$TDCREATE
 40
2452489.558287037
  9
$TDUPDATE
 40
2453944.522931088
  9
$TDINDWG
 40
0.0025099537
  9
$TDUSRTIMER
 40
0.0025099537
  9
$USRTIMER
 70
     1
  9
$ANGBASE
 50
0.0
  9
$ANGDIR
 70
     0
  9
$PDMODE
 70
     0
  9
$PDSIZE
 40
0.0
  9
$PLINEWID
 40
0.0
  9
$COORDS
 70
     1
  9
$SPLFRAME
 70
     0
  9
$SPLINETYPE
 70
     6
  9
$SPLINESEGS
 70
     8
  9
$ATTDIA
 70
     0
  9
$ATTREQ
 70
     1
  9
$HANDLING
 70
  4097
  9
$HANDSEED
  5
5846
  9
$SURFTAB1
 70
     6
  9
$SURFTAB2
 70
     6
  9
$SURFTYPE
 70
     6
  9
$SURFU
 70
     6
  9
$SURFV
 70
     6
  9
$UCSNAME
  2

  9
$UCSORG
 10
0.0
 20
0.0
 30
0.0
  9
$UCSXDIR
 10
1.0
 20
0.0
 30
0.0
  9
$UCSYDIR
 10
0.0
 20
1.0
 30
0.0
  9
$PUCSNAME
  2

  9
$PUCSORG
 10
0.0
 20
0.0
 30
0.0
  9
$PUCSXDIR
 10
1.0
 20
0.0
 30
0.0
  9
$PUCSYDIR
 10
0.0
 20
1.0
 30
0.0
  9
$USERI1
 70
     0
  9
$USERI2
 70
     0
  9
$USERI3
 70
     0
  9
$USERI4
 70
     0
  9
$USERI5
 70
     0
  9
$USERR1
 40
0.0
  9
$USERR2
 40
0.0
  9
$USERR3
 40
0.0
  9
$USERR4
 40
0.0
  9
$USERR5
 40
0.0
  9
$WORLDVIEW
 70
     1
  9
$SHADEDGE
 70
     3
  9
$SHADEDIF
 70
    70
  9
$TILEMODE
 70
     1
  9
$MAXACTVP
 70
    16
  9
$PINSBASE
 10
0.0
 20
0.0
 30
0.0
  9
$PLIMCHECK
 70
     0
  9
$PEXTMIN
 10
1.000000000000000E+20
 20
1.000000000000000E+20
 30
1.000000000000000E+20
  9
$PEXTMAX
 10
-1.000000000000000E+20
 20
-1.000000000000000E+20
 30
-1.000000000000000E+20
  9
$PLIMMIN
 10
0.0
 20
0.0
  9
$PLIMMAX
 10
12.0
 20
9.0
  9
$UNITMODE
 70
     0
  9
$VISRETAIN
 70
     0
  9
$PLINEGEN
 70
     0
  9
$PSLTSCALE
 70
     1
  9
$TREEDEPTH
 70
  3020
  9
$PICKSTYLE
 70
     1
  9
$CMLSTYLE
  2
STANDARD
  9
$CMLJUST
 70
     0
  9
$CMLSCALE
 40
1.0
  9
$SAVEIMAGES
 70
     1
  0
ENDSEC
  0
SECTION
  2
CLASSES
  0
CLASS
  1
ACDBDICTIONARYWDFLT
  2
AcDbDictionaryWithDefault
  3
AutoCAD 2000
 90
    32768
280
     0
281
     0
  0
CLASS
  1
ACDBPLACEHOLDER
  2
AcDbPlaceHolder
  3
AutoCAD 2000
 90
    32768
280
     0
281
     0
  0
CLASS
  1
LAYOUT
  2
AcDbLayout
  3
AutoCAD 2000
 90
    32768
280
     0
281
     0
  0
CLASS
  1
LONG_TRANSACTION
  2
AcDbLongTransaction
  3
AutoCAD 2000
 90
    32768
280
     0
281
     0
  0
CLASS
  1
LWPOLYLINE
  2
AcDbPolyline
  3
AutoCAD 2000
 90
    32768
280
     0
281
     1
  0
CLASS
  1
HATCH
  2
AcDbHatch
  3
AutoCAD 2000
 90
    32768
280
     0
281
     1
  0
CLASS
  1
XRECORD
  2
AcDbXrecord
  3
AutoCAD 2000
 90
    32768
280
     0
281
     0
  0
CLASS
  1
LONG_TRANSACTION
  2
AcDbLongTransaction
  3
AutoCAD 2000
 90
    32768
280
     0
281
     0
  0
CLASS
  1
LWPOLYLINE
  2
AcDbPolyline
  3
AutoCAD 2000
 90
    32768
280
     0
281
     1
  0
CLASS
  1
HATCH
  2
AcDbHatch
  3
AutoCAD 2000
 90
    32768
280
     0
281
     1
  0
CLASS
  1
XRECORD
  2
AcDbXrecord
  3
AutoCAD 2000
 90
    32768
280
     0
281
     0
  0
ENDSEC
  0
SECTION
  2
TABLES
  0
TABLE
  2
VPORT
  5
8
330
0
100
AcDbSymbolTable
 70
     3
  0
VPORT
  5
5843
330
8
100
AcDbSymbolTableRecord
100
AcDbViewportTableRecord
  2
*ACTIVE
 70
     0
 10
0.0
 20
0.0
 11
1.0
 21
1.0
 12
2.812949796394333
 22
6.242362999057354
 13
0.0
 23
0.0
 14
1.0
 24
1.0
 15
0.0
 25
0.0
 16
0.0
 26
0.0
 36
1.0
 17
0.0
 27
0.0
 37
0.0
 40
4.547765055476556
 41
1.647569444444444
 42
50.0
 43
0.0
 44
0.0
 50
0.0
 51
0.0
 71
     0
 72
   100
 73
     1
 74
     1
 75
     0
 76
     0
 77
     0
 78
     0
  0
ENDTAB
  0
TABLE
  2
LTYPE
  5
5
330
0
100
AcDbSymbolTable
 70
    25
  0
LTYPE
  5
13
330
5
100
AcDbSymbolTableRecord
100
AcDbLinetypeTableRecord
  2
BYBLOCK
 70
     0
  3

 72
    65
 73
     0
 40
0.0
  0
LTYPE
  5
14
330
5
100
AcDbSymbolTableRecord
100
AcDbLinetypeTableRecord
  2
BYLAYER
 70
     0
  3

 72
    65
 73
     0
 40
0.0
  0
LTYPE
  5
15
330
5
100
AcDbSymbolTableRecord
100
AcDbLinetypeTableRecord
  2
CONTINUOUS
 70
     0
  3
Solid line
 72
    65
 73
     0
 40
0.0
  0
LTYPE
  5
22
330
5
100
AcDbSymbolTableRecord
100
AcDbLinetypeTableRecord
  2
BORDER
 70
     0
  3
__ __ . __ __ . __ __ . __ __ . __ __ . __ __ .
 72
    65
 73
     6
 40
1.75
 49
0.5
 74
     0
 49
-0.25
 74
     0
 49
0.5
 74
     0
 49
-0.25
 74
     0
 49
0.5
 74
     0
 49
-0.25
 74
     0
  0
LTYPE
  5
23
330
5
100
AcDbSymbolTableRecord
100
AcDbLinetypeTableRecord
  2
BORDER2
 70
     0
  3
__.__.__.__.__.__.__.__.__.__.__.__.__.__.__.__
 72
    65
 73
     6
 40
0.875
 49
0.25
 74
     0
 49
-0.125
 74
     0
 49
0.25
 74
     0
 49
-0.125
 74
     0
 49
0.25
 74
     0
 49
-0.125
 74
     0
  0
LTYPE
  5
24
330
5
100
AcDbSymbolTableRecord
100
AcDbLinetypeTableRecord
  2
BORDERX2
 70
     0
  3
____  ____  .  ____  ____  .  
 72
    65
 73
     6
 40
3.5
 49
1.0
 74
     0
 49
-0.5
 74
     0
 49
1.0
 74
     0
 49
-0.5
 74
     0
 49
1.0
 74
     0
 49
-0.5
 74
     0
  0
LTYPE
  5
25
330
5
100
AcDbSymbolTableRecord
100
AcDbLinetypeTableRecord
  2
CENTER
 70
     0
  3
____ _ ____ _ ____ _ ____ _ ____ _ ____ _ ____
 72
    65
 73
     4
 40
2.0
 49
1.25
 74
     0
 49
-0.25
 74
     0
 49
0.25
 74
     0
 49
-0.25
 74
     0
  0
LTYPE
  5
26
330
5
100
AcDbSymbolTableRecord
100
AcDbLinetypeTableRecord
  2
CENTER2
 70
     0
  3
____ _ ____ _ ____ _ ____ _ ____ _ ____ _ ____
 72
    65
 73
     4
 40
1.125
 49
0.75
 74
     0
 49
-0.125
 74
     0
 49
0.125
 74
     0
 49
-0.125
 74
     0
  0
LTYPE
  5
27
330
5
100
AcDbSymbolTableRecord
100
AcDbLinetypeTableRecord
  2
CENTERX2
 70
     0
  3
________  __  ________  __  ________  __  
 72
    65
 73
     4
 40
4.0
 49
2.5
 74
     0
 49
-0.5
 74
     0
 49
0.5
 74
     0
 49
-0.5
 74
     0
  0
LTYPE
  5
28
330
5
100
AcDbSymbolTableRecord
100
AcDbLinetypeTableRecord
  2
DASHDOT
 70
     0
  3
__ . __ . __ . __ . __ . __ . __ . 
 72
    65
 73
     4
 40
1.0
 49
0.5
 74
     0
 49
-0.25
 74
     0
 49
0.0
 74
     0
 49
-0.25
 74
     0
  0
LTYPE
  5
29
330
5
100
AcDbSymbolTableRecord
100
AcDbLinetypeTableRecord
  2
DASHDOT2
 70
     0
  3
_._._._._._._._._._._._._._._._.
 72
    65
 73
     4
 40
0.5
 49
0.25
 74
     0
 49
-0.125
 74
     0
 49
0.0
 74
     0
 49
-0.125
 74
     0
  0
LTYPE
  5
2A
330
5
100
AcDbSymbolTableRecord
100
AcDbLinetypeTableRecord
  2
DASHDOTX2
 70
     0
  3
____  .  ____  .  ____  .  ____  .  
 72
    65
 73
     4
 40
2.0
 49
1.0
 74
     0
 49
-0.5
 74
     0
 49
0.0
 74
     0
 49
-0.5
 74
     0
  0
LTYPE
  5
2B
330
5
100
AcDbSymbolTableRecord
100
AcDbLinetypeTableRecord
  2
DASHED
 70
     0
  3
__ __ __ __ __ __ __ __ __ __ __ __ 
 72
    65
 73
     2
 40
0.75
 49
0.5
 74
     0
 49
-0.25
 74
     0
  0
LTYPE
  5
2C
330
5
100
AcDbSymbolTableRecord
100
AcDbLinetypeTableRecord
  2
DASHED2
 70
     0
  3
_ _ _ _ _ _ _ _ _ _ _ _ _ _ _ _ _ _ 
 72
    65
 73
     2
 40
0.375
 49
0.25
 74
     0
 49
-0.125
 74
     0
  0
LTYPE
  5
2D
330
5
100
AcDbSymbolTableRecord
100
AcDbLinetypeTableRecord
  2
DASHEDX2
 70
     0
  3
____  ____  ____  ____  ____  ____  
 72
    65
 73
     2
 40
1.5
 49
1.0
 74
     0
 49
-0.5
 74
     0
  0
LTYPE
  5
2E
330
5
100
AcDbSymbolTableRecord
100
AcDbLinetypeTableRecord
  2
DIVIDE
 70
     0
  3
____ . . ____ . . ____ . . ____ . . 
 72
    65
 73
     6
 40
1.25
 49
0.5
 74
     0
 49
-0.25
 74
     0
 49
0.0
 74
     0
 49
-0.25
 74
     0
 49
0.0
 74
     0
 49
-0.25
 74
     0
  0
LTYPE
  5
2F
330
5
100
AcDbSymbolTableRecord
100
AcDbLinetypeTableRecord
  2
DIVIDE2
 70
     0
  3
__..__..__..__..__..__..__..__..__..
 72
    65
 73
     6
 40
0.625
 49
0.25
 74
     0
 49
-0.125
 74
     0
 49
0.0
 74
     0
 49
-0.125
 74
     0
 49
0.0
 74
     0
 49
-0.125
 74
     0
  0
LTYPE
  5
30
330
5
100
AcDbSymbolTableRecord
100
AcDbLinetypeTableRecord
  2
DIVIDEX2
 70
     0
  3
________  .  .  ________  .  .  ________  .  . 
 72
    65
 73
     6
 40
2.5
 49
1.0
 74
     0
 49
-0.5
 74
     0
 49
0.0
 74
     0
 49
-0.5
 74
     0
 49
0.0
 74
     0
 49
-0.5
 74
     0
  0
LTYPE
  5
31
330
5
100
AcDbSymbolTableRecord
100
AcDbLinetypeTableRecord
  2
DOT
 70
     0
  3
. . . . . . . . . . . . . . . . . . 
 72
    65
 73
     2
 40
0.25
 49
0.0
 74
     0
 49
-0.25
 74
     0
  0
LTYPE
  5
32
330
5
100
AcDbSymbolTableRecord
100
AcDbLinetypeTableRecord
  2
DOT2
 70
     0
  3
....................................
 72
    65
 73
     2
 40
0.125
 49
0.0
 74
     0
 49
-0.125
 74
     0
  0
LTYPE
  5
33
330
5
100
AcDbSymbolTableRecord
100
AcDbLinetypeTableRecord
  2
DOTX2
 70
     0
  3
.  .  .  .  .  .  .  .  .  .  .  .  .  
 72
    65
 73
     2
 40
0.5
 49
0.0
 74
     0
 49
-0.5
 74
     0
  0
LTYPE
  5
34
330
5
100
AcDbSymbolTableRecord
100
AcDbLinetypeTableRecord
  2
HIDDEN
 70
     0
  3
__ __ __ __ __ __ __ __ __ __ __ __ 
 72
    65
 73
     2
 40
0.375
 49
0.25
 74
     0
 49
-0.125
 74
     0
  0
LTYPE
  5
35
330
5
100
AcDbSymbolTableRecord
100
AcDbLinetypeTableRecord
  2
HIDDEN2
 70
     0
  3
_ _ _ _ _ _ _ _ _ _ _ _ _ _ _ _ _ _ 
 72
    65
 73
     2
 40
0.1875
 49
0.125
 74
     0
 49
-0.0625
 74
     0
  0
LTYPE
  5
36
330
5
100
AcDbSymbolTableRecord
100
AcDbLinetypeTableRecord
  2
HIDDENX2
 70
     0
  3
____ ____ ____ ____ ____ ____ ____ 
 72
    65
 73
     2
 40
0.75
 49
0.5
 74
     0
 49
-0.25
 74
     0
  0
LTYPE
  5
37
330
5
100
AcDbSymbolTableRecord
100
AcDbLinetypeTableRecord
  2
PHANTOM
 70
     0
  3
______  __  __  ______  __  __  
 72
    65
 73
     6
 40
2.5
 49
1.25
 74
     0
 49
-0.25
 74
     0
 49
0.25
 74
     0
 49
-0.25
 74
     0
 49
0.25
 74
     0
 49
-0.25
 74
     0
  0
LTYPE
  5
38
330
5
100
AcDbSymbolTableRecord
100
AcDbLinetypeTableRecord
  2
PHANTOM2
 70
     0
  3
___ _ _ ___ _ _ ___ _ _ ___ _ _ 
 72
    65
 73
     6
 40
1.25
 49
0.625
 74
     0
 49
-0.125
 74
     0
 49
0.125
 74
     0
 49
-0.125
 74
     0
 49
0.125
 74
     0
 49
-0.125
 74
     0
  0
LTYPE
  5
39
330
5
100
AcDbSymbolTableRecord
100
AcDbLinetypeTableRecord
  2
PHANTOMX2
 70
     0
  3
___ _ _ ___ _ _ ___ _ _ ___ _ _ 
 72
    65
 73
     6
 40
5.0
 49
2.5
 74
     0
 49
-0.5
 74
     0
 49
0.5
 74
     0
 49
-0.5
 74
     0
 49
0.5
 74
     0
 49
-0.5
 74
     0
  0
ENDTAB
  0
TABLE
  2
LAYER
  5
2
330
0
100
AcDbSymbolTable
 70
   257
  0
LAYER
  5
10
330
2
100
AcDbSymbolTableRecord
100
AcDbLayerTableRecord
  2
0
 70
     0
 62
     7
  6
CONTINUOUS
  0
LAYER
  5
3A
330
2
100
AcDbSymbolTableRecord
100
AcDbLayerTableRecord
  2
1
 70
     0
 62
     1
  6
CONTINUOUS
  0
LAYER
  5
3B
330
2
100
AcDbSymbolTableRecord
100
AcDbLayerTableRecord
  2
2
 70
     0
 62
     2
  6
CONTINUOUS
  0
LAYER
  5
3C
330
2
100
AcDbSymbolTableRecord
100
AcDbLayerTableRecord
  2
3
 70
     0
 62
     3
  6
CONTINUOUS
  0
LAYER
  5
3D
330
2
100
AcDbSymbolTableRecord
100
AcDbLayerTableRecord
  2
4
 70
     0
 62
     4
  6
CONTINUOUS
  0
LAYER
  5
3E
330
2
100
AcDbSymbolTableRecord
100
AcDbLayerTableRecord
  2
5
 70
     0
 62
     5
  6
CONTINUOUS
  0
LAYER
  5
3F
330
2
100
AcDbSymbolTableRecord
100
AcDbLayerTableRecord
  2
6
 70
     0
 62
     6
  6
CONTINUOUS
  0
LAYER
  5
40
330
2
100
AcDbSymbolTableRecord
100
AcDbLayerTableRecord
  2
7
 70
     0
 62
     7
  6
CONTINUOUS
  0
LAYER
  5
41
330
2
100
AcDbSymbolTableRecord
100
AcDbLayerTableRecord
  2
8
 70
     0
 62
     8
  6
CONTINUOUS
  0
LAYER
  5
42
330
2
100
AcDbSymbolTableRecord
100
AcDbLayerTableRecord
  2
9
 70
     0
 62
     9
  6
CONTINUOUS
  0
LAYER
  5
43
330
2
100
AcDbSymbolTableRecord
100
AcDbLayerTableRecord
  2
10
 70
     0
 62
    10
  6
CONTINUOUS
  0
LAYER
  5
44
330
2
100
AcDbSymbolTableRecord
100
AcDbLayerTableRecord
  2
11
 70
     0
 62
    11
  6
CONTINUOUS
  0
LAYER
  5
45
330
2
100
AcDbSymbolTableRecord
100
AcDbLayerTableRecord
  2
12
 70
     0
 62
    12
  6
CONTINUOUS
  0
LAYER
  5
46
330
2
100
AcDbSymbolTableRecord
100
AcDbLayerTableRecord
  2
13
 70
     0
 62
    13
  6
CONTINUOUS
  0
LAYER
  5
47
330
2
100
AcDbSymbolTableRecord
100
AcDbLayerTableRecord
  2
14
 70
     0
 62
    14
  6
CONTINUOUS
  0
LAYER
  5
48
330
2
100
AcDbSymbolTableRecord
100
AcDbLayerTableRecord
  2
15
 70
     0
 62
    15
  6
CONTINUOUS
  0
LAYER
  5
49
330
2
100
AcDbSymbolTableRecord
100
AcDbLayerTableRecord
  2
16
 70
     0
 62
    16
  6
CONTINUOUS
  0
LAYER
  5
4A
330
2
100
AcDbSymbolTableRecord
100
AcDbLayerTableRecord
  2
17
 70
     0
 62
    17
  6
CONTINUOUS
  0
LAYER
  5
4B
330
2
100
AcDbSymbolTableRecord
100
AcDbLayerTableRecord
  2
18
 70
     0
 62
    18
  6
CONTINUOUS
  0
LAYER
  5
4C
330
2
100
AcDbSymbolTableRecord
100
AcDbLayerTableRecord
  2
19
 70
     0
 62
    19
  6
CONTINUOUS
  0
LAYER
  5
4D
330
2
100
AcDbSymbolTableRecord
100
AcDbLayerTableRecord
  2
20
 70
     0
 62
    20
  6
CONTINUOUS
  0
LAYER
  5
4E
330
2
100
AcDbSymbolTableRecord
100
AcDbLayerTableRecord
  2
21
 70
     0
 62
    21
  6
CONTINUOUS
  0
LAYER
  5
4F
330
2
100
AcDbSymbolTableRecord
100
AcDbLayerTableRecord
  2
22
 70
     0
 62
    22
  6
CONTINUOUS
  0
LAYER
  5
50
330
2
100
AcDbSymbolTableRecord
100
AcDbLayerTableRecord
  2
23
 70
     0
 62
    23
  6
CONTINUOUS
  0
LAYER
  5
51
330
2
100
AcDbSymbolTableRecord
100
AcDbLayerTableRecord
  2
24
 70
     0
 62
    24
  6
CONTINUOUS
  0
LAYER
  5
52
330
2
100
AcDbSymbolTableRecord
100
AcDbLayerTableRecord
  2
25
 70
     0
 62
    25
  6
CONTINUOUS
  0
LAYER
  5
53
330
2
100
AcDbSymbolTableRecord
100
AcDbLayerTableRecord
  2
26
 70
     0
 62
    26
  6
CONTINUOUS
  0
LAYER
  5
54
330
2
100
AcDbSymbolTableRecord
100
AcDbLayerTableRecord
  2
27
 70
     0
 62
    27
  6
CONTINUOUS
  0
LAYER
  5
55
330
2
100
AcDbSymbolTableRecord
100
AcDbLayerTableRecord
  2
28
 70
     0
 62
    28
  6
CONTINUOUS
  0
LAYER
  5
56
330
2
100
AcDbSymbolTableRecord
100
AcDbLayerTableRecord
  2
29
 70
     0
 62
    29
  6
CONTINUOUS
  0
LAYER
  5
57
330
2
100
AcDbSymbolTableRecord
100
AcDbLayerTableRecord
  2
30
 70
     0
 62
    30
  6
CONTINUOUS
  0
LAYER
  5
58
330
2
100
AcDbSymbolTableRecord
100
AcDbLayerTableRecord
  2
31
 70
     0
 62
    31
  6
CONTINUOUS
  0
LAYER
  5
59
330
2
100
AcDbSymbolTableRecord
100
AcDbLayerTableRecord
  2
32
 70
     0
 62
    32
  6
CONTINUOUS
  0
LAYER
  5
5A
330
2
100
AcDbSymbolTableRecord
100
AcDbLayerTableRecord
  2
33
 70
     0
 62
    33
  6
CONTINUOUS
  0
LAYER
  5
5B
330
2
100
AcDbSymbolTableRecord
100
AcDbLayerTableRecord
  2
34
 70
     0
 62
    34
  6
CONTINUOUS
  0
LAYER
  5
5C
330
2
100
AcDbSymbolTableRecord
100
AcDbLayerTableRecord
  2
35
 70
     0
 62
    35
  6
CONTINUOUS
  0
LAYER
  5
5D
330
2
100
AcDbSymbolTableRecord
100
AcDbLayerTableRecord
  2
36
 70
     0
 62
    36
  6
CONTINUOUS
  0
LAYER
  5
5E
330
2
100
AcDbSymbolTableRecord
100
AcDbLayerTableRecord
  2
37
 70
     0
 62
    37
  6
CONTINUOUS
  0
LAYER
  5
5F
330
2
100
AcDbSymbolTableRecord
100
AcDbLayerTableRecord
  2
38
 70
     0
 62
    38
  6
CONTINUOUS
  0
LAYER
  5
60
330
2
100
AcDbSymbolTableRecord
100
AcDbLayerTableRecord
  2
39
 70
     0
 62
    39
  6
CONTINUOUS
  0
LAYER
  5
61
330
2
100
AcDbSymbolTableRecord
100
AcDbLayerTableRecord
  2
40
 70
     0
 62
    40
  6
CONTINUOUS
  0
LAYER
  5
62
330
2
100
AcDbSymbolTableRecord
100
AcDbLayerTableRecord
  2
41
 70
     0
 62
    41
  6
CONTINUOUS
  0
LAYER
  5
63
330
2
100
AcDbSymbolTableRecord
100
AcDbLayerTableRecord
  2
42
 70
     0
 62
    42
  6
CONTINUOUS
  0
LAYER
  5
64
330
2
100
AcDbSymbolTableRecord
100
AcDbLayerTableRecord
  2
43
 70
     0
 62
    43
  6
CONTINUOUS
  0
LAYER
  5
65
330
2
100
AcDbSymbolTableRecord
100
AcDbLayerTableRecord
  2
44
 70
     0
 62
    44
  6
CONTINUOUS
  0
LAYER
  5
66
330
2
100
AcDbSymbolTableRecord
100
AcDbLayerTableRecord
  2
45
 70
     0
 62
    45
  6
CONTINUOUS
  0
LAYER
  5
67
330
2
100
AcDbSymbolTableRecord
100
AcDbLayerTableRecord
  2
46
 70
     0
 62
    46
  6
CONTINUOUS
  0
LAYER
  5
68
330
2
100
AcDbSymbolTableRecord
100
AcDbLayerTableRecord
  2
47
 70
     0
 62
    47
  6
CONTINUOUS
  0
LAYER
  5
69
330
2
100
AcDbSymbolTableRecord
100
AcDbLayerTableRecord
  2
48
 70
     0
 62
    48
  6
CONTINUOUS
  0
LAYER
  5
6A
330
2
100
AcDbSymbolTableRecord
100
AcDbLayerTableRecord
  2
49
 70
     0
 62
    49
  6
CONTINUOUS
  0
LAYER
  5
6B
330
2
100
AcDbSymbolTableRecord
100
AcDbLayerTableRecord
  2
50
 70
     0
 62
    50
  6
CONTINUOUS
  0
LAYER
  5
6C
330
2
100
AcDbSymbolTableRecord
100
AcDbLayerTableRecord
  2
51
 70
     0
 62
    51
  6
CONTINUOUS
  0
LAYER
  5
6D
330
2
100
AcDbSymbolTableRecord
100
AcDbLayerTableRecord
  2
52
 70
     0
 62
    52
  6
CONTINUOUS
  0
LAYER
  5
6E
330
2
100
AcDbSymbolTableRecord
100
AcDbLayerTableRecord
  2
53
 70
     0
 62
    53
  6
CONTINUOUS
  0
LAYER
  5
6F
330
2
100
AcDbSymbolTableRecord
100
AcDbLayerTableRecord
  2
54
 70
     0
 62
    54
  6
CONTINUOUS
  0
LAYER
  5
70
330
2
100
AcDbSymbolTableRecord
100
AcDbLayerTableRecord
  2
55
 70
     0
 62
    55
  6
CONTINUOUS
  0
LAYER
  5
71
330
2
100
AcDbSymbolTableRecord
100
AcDbLayerTableRecord
  2
56
 70
     0
 62
    56
  6
CONTINUOUS
  0
LAYER
  5
72
330
2
100
AcDbSymbolTableRecord
100
AcDbLayerTableRecord
  2
57
 70
     0
 62
    57
  6
CONTINUOUS
  0
LAYER
  5
73
330
2
100
AcDbSymbolTableRecord
100
AcDbLayerTableRecord
  2
58
 70
     0
 62
    58
  6
CONTINUOUS
  0
LAYER
  5
74
330
2
100
AcDbSymbolTableRecord
100
AcDbLayerTableRecord
  2
59
 70
     0
 62
    59
  6
CONTINUOUS
  0
LAYER
  5
75
330
2
100
AcDbSymbolTableRecord
100
AcDbLayerTableRecord
  2
60
 70
     0
 62
    60
  6
CONTINUOUS
  0
LAYER
  5
76
330
2
100
AcDbSymbolTableRecord
100
AcDbLayerTableRecord
  2
61
 70
     0
 62
    61
  6
CONTINUOUS
  0
LAYER
  5
77
330
2
100
AcDbSymbolTableRecord
100
AcDbLayerTableRecord
  2
62
 70
     0
 62
    62
  6
CONTINUOUS
  0
LAYER
  5
78
330
2
100
AcDbSymbolTableRecord
100
AcDbLayerTableRecord
  2
63
 70
     0
 62
    63
  6
CONTINUOUS
  0
LAYER
  5
79
330
2
100
AcDbSymbolTableRecord
100
AcDbLayerTableRecord
  2
64
 70
     0
 62
    64
  6
CONTINUOUS
  0
LAYER
  5
7A
330
2
100
AcDbSymbolTableRecord
100
AcDbLayerTableRecord
  2
65
 70
     0
 62
    65
  6
CONTINUOUS
  0
LAYER
  5
7B
330
2
100
AcDbSymbolTableRecord
100
AcDbLayerTableRecord
  2
66
 70
     0
 62
    66
  6
CONTINUOUS
  0
LAYER
  5
7C
330
2
100
AcDbSymbolTableRecord
100
AcDbLayerTableRecord
  2
67
 70
     0
 62
    67
  6
CONTINUOUS
  0
LAYER
  5
7D
330
2
100
AcDbSymbolTableRecord
100
AcDbLayerTableRecord
  2
68
 70
     0
 62
    68
  6
CONTINUOUS
  0
LAYER
  5
7E
330
2
100
AcDbSymbolTableRecord
100
AcDbLayerTableRecord
  2
69
 70
     0
 62
    69
  6
CONTINUOUS
  0
LAYER
  5
7F
330
2
100
AcDbSymbolTableRecord
100
AcDbLayerTableRecord
  2
70
 70
     0
 62
    70
  6
CONTINUOUS
  0
LAYER
  5
80
330
2
100
AcDbSymbolTableRecord
100
AcDbLayerTableRecord
  2
71
 70
     0
 62
    71
  6
CONTINUOUS
  0
LAYER
  5
81
330
2
100
AcDbSymbolTableRecord
100
AcDbLayerTableRecord
  2
72
 70
     0
 62
    72
  6
CONTINUOUS
  0
LAYER
  5
82
330
2
100
AcDbSymbolTableRecord
100
AcDbLayerTableRecord
  2
73
 70
     0
 62
    73
  6
CONTINUOUS
  0
LAYER
  5
83
330
2
100
AcDbSymbolTableRecord
100
AcDbLayerTableRecord
  2
74
 70
     0
 62
    74
  6
CONTINUOUS
  0
LAYER
  5
84
330
2
100
AcDbSymbolTableRecord
100
AcDbLayerTableRecord
  2
75
 70
     0
 62
    75
  6
CONTINUOUS
  0
LAYER
  5
85
330
2
100
AcDbSymbolTableRecord
100
AcDbLayerTableRecord
  2
76
 70
     0
 62
    76
  6
CONTINUOUS
  0
LAYER
  5
86
330
2
100
AcDbSymbolTableRecord
100
AcDbLayerTableRecord
  2
77
 70
     0
 62
    77
  6
CONTINUOUS
  0
LAYER
  5
87
330
2
100
AcDbSymbolTableRecord
100
AcDbLayerTableRecord
  2
78
 70
     0
 62
    78
  6
CONTINUOUS
  0
LAYER
  5
88
330
2
100
AcDbSymbolTableRecord
100
AcDbLayerTableRecord
  2
79
 70
     0
 62
    79
  6
CONTINUOUS
  0
LAYER
  5
89
330
2
100
AcDbSymbolTableRecord
100
AcDbLayerTableRecord
  2
80
 70
     0
 62
    80
  6
CONTINUOUS
  0
LAYER
  5
8A
330
2
100
AcDbSymbolTableRecord
100
AcDbLayerTableRecord
  2
81
 70
     0
 62
    81
  6
CONTINUOUS
  0
LAYER
  5
8B
330
2
100
AcDbSymbolTableRecord
100
AcDbLayerTableRecord
  2
82
 70
     0
 62
    82
  6
CONTINUOUS
  0
LAYER
  5
8C
330
2
100
AcDbSymbolTableRecord
100
AcDbLayerTableRecord
  2
83
 70
     0
 62
    83
  6
CONTINUOUS
  0
LAYER
  5
8D
330
2
100
AcDbSymbolTableRecord
100
AcDbLayerTableRecord
  2
84
 70
     0
 62
    84
  6
CONTINUOUS
  0
LAYER
  5
8E
330
2
100
AcDbSymbolTableRecord
100
AcDbLayerTableRecord
  2
85
 70
     0
 62
    85
  6
CONTINUOUS
  0
LAYER
  5
8F
330
2
100
AcDbSymbolTableRecord
100
AcDbLayerTableRecord
  2
86
 70
     0
 62
    86
  6
CONTINUOUS
  0
LAYER
  5
90
330
2
100
AcDbSymbolTableRecord
100
AcDbLayerTableRecord
  2
87
 70
     0
 62
    87
  6
CONTINUOUS
  0
LAYER
  5
91
330
2
100
AcDbSymbolTableRecord
100
AcDbLayerTableRecord
  2
88
 70
     0
 62
    88
  6
CONTINUOUS
  0
LAYER
  5
92
330
2
100
AcDbSymbolTableRecord
100
AcDbLayerTableRecord
  2
89
 70
     0
 62
    89
  6
CONTINUOUS
  0
LAYER
  5
93
330
2
100
AcDbSymbolTableRecord
100
AcDbLayerTableRecord
  2
90
 70
     0
 62
    90
  6
CONTINUOUS
  0
LAYER
  5
94
330
2
100
AcDbSymbolTableRecord
100
AcDbLayerTableRecord
  2
91
 70
     0
 62
    91
  6
CONTINUOUS
  0
LAYER
  5
95
330
2
100
AcDbSymbolTableRecord
100
AcDbLayerTableRecord
  2
92
 70
     0
 62
    92
  6
CONTINUOUS
  0
LAYER
  5
96
330
2
100
AcDbSymbolTableRecord
100
AcDbLayerTableRecord
  2
93
 70
     0
 62
    93
  6
CONTINUOUS
  0
LAYER
  5
97
330
2
100
AcDbSymbolTableRecord
100
AcDbLayerTableRecord
  2
94
 70
     0
 62
    94
  6
CONTINUOUS
  0
LAYER
  5
98
330
2
100
AcDbSymbolTableRecord
100
AcDbLayerTableRecord
  2
95
 70
     0
 62
    95
  6
CONTINUOUS
  0
LAYER
  5
99
330
2
100
AcDbSymbolTableRecord
100
AcDbLayerTableRecord
  2
96
 70
     0
 62
    96
  6
CONTINUOUS
  0
LAYER
  5
9A
330
2
100
AcDbSymbolTableRecord
100
AcDbLayerTableRecord
  2
97
 70
     0
 62
    97
  6
CONTINUOUS
  0
LAYER
  5
9B
330
2
100
AcDbSymbolTableRecord
100
AcDbLayerTableRecord
  2
98
 70
     0
 62
    98
  6
CONTINUOUS
  0
LAYER
  5
9C
330
2
100
AcDbSymbolTableRecord
100
AcDbLayerTableRecord
  2
99
 70
     0
 62
    99
  6
CONTINUOUS
  0
LAYER
  5
9D
330
2
100
AcDbSymbolTableRecord
100
AcDbLayerTableRecord
  2
100
 70
     0
 62
   100
  6
CONTINUOUS
  0
LAYER
  5
9E
330
2
100
AcDbSymbolTableRecord
100
AcDbLayerTableRecord
  2
101
 70
     0
 62
   101
  6
CONTINUOUS
  0
LAYER
  5
9F
330
2
100
AcDbSymbolTableRecord
100
AcDbLayerTableRecord
  2
102
 70
     0
 62
   102
  6
CONTINUOUS
  0
LAYER
  5
A0
330
2
100
AcDbSymbolTableRecord
100
AcDbLayerTableRecord
  2
103
 70
     0
 62
   103
  6
CONTINUOUS
  0
LAYER
  5
A1
330
2
100
AcDbSymbolTableRecord
100
AcDbLayerTableRecord
  2
104
 70
     0
 62
   104
  6
CONTINUOUS
  0
LAYER
  5
A2
330
2
100
AcDbSymbolTableRecord
100
AcDbLayerTableRecord
  2
105
 70
     0
 62
   105
  6
CONTINUOUS
  0
LAYER
  5
A3
330
2
100
AcDbSymbolTableRecord
100
AcDbLayerTableRecord
  2
106
 70
     0
 62
   106
  6
CONTINUOUS
  0
LAYER
  5
A4
330
2
100
AcDbSymbolTableRecord
100
AcDbLayerTableRecord
  2
107
 70
     0
 62
   107
  6
CONTINUOUS
  0
LAYER
  5
A5
330
2
100
AcDbSymbolTableRecord
100
AcDbLayerTableRecord
  2
108
 70
     0
 62
   108
  6
CONTINUOUS
  0
LAYER
  5
A6
330
2
100
AcDbSymbolTableRecord
100
AcDbLayerTableRecord
  2
109
 70
     0
 62
   109
  6
CONTINUOUS
  0
LAYER
  5
A7
330
2
100
AcDbSymbolTableRecord
100
AcDbLayerTableRecord
  2
110
 70
     0
 62
   110
  6
CONTINUOUS
  0
LAYER
  5
A8
330
2
100
AcDbSymbolTableRecord
100
AcDbLayerTableRecord
  2
111
 70
     0
 62
   111
  6
CONTINUOUS
  0
LAYER
  5
A9
330
2
100
AcDbSymbolTableRecord
100
AcDbLayerTableRecord
  2
112
 70
     0
 62
   112
  6
CONTINUOUS
  0
LAYER
  5
AA
330
2
100
AcDbSymbolTableRecord
100
AcDbLayerTableRecord
  2
113
 70
     0
 62
   113
  6
CONTINUOUS
  0
LAYER
  5
AB
330
2
100
AcDbSymbolTableRecord
100
AcDbLayerTableRecord
  2
114
 70
     0
 62
   114
  6
CONTINUOUS
  0
LAYER
  5
AC
330
2
100
AcDbSymbolTableRecord
100
AcDbLayerTableRecord
  2
115
 70
     0
 62
   115
  6
CONTINUOUS
  0
LAYER
  5
AD
330
2
100
AcDbSymbolTableRecord
100
AcDbLayerTableRecord
  2
116
 70
     0
 62
   116
  6
CONTINUOUS
  0
LAYER
  5
AE
330
2
100
AcDbSymbolTableRecord
100
AcDbLayerTableRecord
  2
117
 70
     0
 62
   117
  6
CONTINUOUS
  0
LAYER
  5
AF
330
2
100
AcDbSymbolTableRecord
100
AcDbLayerTableRecord
  2
118
 70
     0
 62
   118
  6
CONTINUOUS
  0
LAYER
  5
B0
330
2
100
AcDbSymbolTableRecord
100
AcDbLayerTableRecord
  2
119
 70
     0
 62
   119
  6
CONTINUOUS
  0
LAYER
  5
B1
330
2
100
AcDbSymbolTableRecord
100
AcDbLayerTableRecord
  2
120
 70
     0
 62
   120
  6
CONTINUOUS
  0
LAYER
  5
B2
330
2
100
AcDbSymbolTableRecord
100
AcDbLayerTableRecord
  2
121
 70
     0
 62
   121
  6
CONTINUOUS
  0
LAYER
  5
B3
330
2
100
AcDbSymbolTableRecord
100
AcDbLayerTableRecord
  2
122
 70
     0
 62
   122
  6
CONTINUOUS
  0
LAYER
  5
B4
330
2
100
AcDbSymbolTableRecord
100
AcDbLayerTableRecord
  2
123
 70
     0
 62
   123
  6
CONTINUOUS
  0
LAYER
  5
B5
330
2
100
AcDbSymbolTableRecord
100
AcDbLayerTableRecord
  2
124
 70
     0
 62
   124
  6
CONTINUOUS
  0
LAYER
  5
B6
330
2
100
AcDbSymbolTableRecord
100
AcDbLayerTableRecord
  2
125
 70
     0
 62
   125
  6
CONTINUOUS
  0
LAYER
  5
B7
330
2
100
AcDbSymbolTableRecord
100
AcDbLayerTableRecord
  2
126
 70
     0
 62
   126
  6
CONTINUOUS
  0
LAYER
  5
B8
330
2
100
AcDbSymbolTableRecord
100
AcDbLayerTableRecord
  2
127
 70
     0
 62
   127
  6
CONTINUOUS
  0
LAYER
  5
B9
330
2
100
AcDbSymbolTableRecord
100
AcDbLayerTableRecord
  2
128
 70
     0
 62
   128
  6
CONTINUOUS
  0
LAYER
  5
BA
330
2
100
AcDbSymbolTableRecord
100
AcDbLayerTableRecord
  2
129
 70
     0
 62
   129
  6
CONTINUOUS
  0
LAYER
  5
BB
330
2
100
AcDbSymbolTableRecord
100
AcDbLayerTableRecord
  2
130
 70
     0
 62
   130
  6
CONTINUOUS
  0
LAYER
  5
BC
330
2
100
AcDbSymbolTableRecord
100
AcDbLayerTableRecord
  2
131
 70
     0
 62
   131
  6
CONTINUOUS
  0
LAYER
  5
BD
330
2
100
AcDbSymbolTableRecord
100
AcDbLayerTableRecord
  2
132
 70
     0
 62
   132
  6
CONTINUOUS
  0
LAYER
  5
BE
330
2
100
AcDbSymbolTableRecord
100
AcDbLayerTableRecord
  2
133
 70
     0
 62
   133
  6
CONTINUOUS
  0
LAYER
  5
BF
330
2
100
AcDbSymbolTableRecord
100
AcDbLayerTableRecord
  2
134
 70
     0
 62
   134
  6
CONTINUOUS
  0
LAYER
  5
C0
330
2
100
AcDbSymbolTableRecord
100
AcDbLayerTableRecord
  2
135
 70
     0
 62
   135
  6
CONTINUOUS
  0
LAYER
  5
C1
330
2
100
AcDbSymbolTableRecord
100
AcDbLayerTableRecord
  2
136
 70
     0
 62
   136
  6
CONTINUOUS
  0
LAYER
  5
C2
330
2
100
AcDbSymbolTableRecord
100
AcDbLayerTableRecord
  2
137
 70
     0
 62
   137
  6
CONTINUOUS
  0
LAYER
  5
C3
330
2
100
AcDbSymbolTableRecord
100
AcDbLayerTableRecord
  2
138
 70
     0
 62
   138
  6
CONTINUOUS
  0
LAYER
  5
C4
330
2
100
AcDbSymbolTableRecord
100
AcDbLayerTableRecord
  2
139
 70
     0
 62
   139
  6
CONTINUOUS
  0
LAYER
  5
C5
330
2
100
AcDbSymbolTableRecord
100
AcDbLayerTableRecord
  2
140
 70
     0
 62
   140
  6
CONTINUOUS
  0
LAYER
  5
C6
330
2
100
AcDbSymbolTableRecord
100
AcDbLayerTableRecord
  2
141
 70
     0
 62
   141
  6
CONTINUOUS
  0
LAYER
  5
C7
330
2
100
AcDbSymbolTableRecord
100
AcDbLayerTableRecord
  2
142
 70
     0
 62
   142
  6
CONTINUOUS
  0
LAYER
  5
C8
330
2
100
AcDbSymbolTableRecord
100
AcDbLayerTableRecord
  2
143
 70
     0
 62
   143
  6
CONTINUOUS
  0
LAYER
  5
C9
330
2
100
AcDbSymbolTableRecord
100
AcDbLayerTableRecord
  2
144
 70
     0
 62
   144
  6
CONTINUOUS
  0
LAYER
  5
CA
330
2
100
AcDbSymbolTableRecord
100
AcDbLayerTableRecord
  2
145
 70
     0
 62
   145
  6
CONTINUOUS
  0
LAYER
  5
CB
330
2
100
AcDbSymbolTableRecord
100
AcDbLayerTableRecord
  2
146
 70
     0
 62
   146
  6
CONTINUOUS
  0
LAYER
  5
CC
330
2
100
AcDbSymbolTableRecord
100
AcDbLayerTableRecord
  2
147
 70
     0
 62
   147
  6
CONTINUOUS
  0
LAYER
  5
CD
330
2
100
AcDbSymbolTableRecord
100
AcDbLayerTableRecord
  2
148
 70
     0
 62
   148
  6
CONTINUOUS
  0
LAYER
  5
CE
330
2
100
AcDbSymbolTableRecord
100
AcDbLayerTableRecord
  2
149
 70
     0
 62
   149
  6
CONTINUOUS
  0
LAYER
  5
CF
330
2
100
AcDbSymbolTableRecord
100
AcDbLayerTableRecord
  2
150
 70
     0
 62
   150
  6
CONTINUOUS
  0
LAYER
  5
D0
330
2
100
AcDbSymbolTableRecord
100
AcDbLayerTableRecord
  2
151
 70
     0
 62
   151
  6
CONTINUOUS
  0
LAYER
  5
D1
330
2
100
AcDbSymbolTableRecord
100
AcDbLayerTableRecord
  2
152
 70
     0
 62
   152
  6
CONTINUOUS
  0
LAYER
  5
D2
330
2
100
AcDbSymbolTableRecord
100
AcDbLayerTableRecord
  2
153
 70
     0
 62
   153
  6
CONTINUOUS
  0
LAYER
  5
D3
330
2
100
AcDbSymbolTableRecord
100
AcDbLayerTableRecord
  2
154
 70
     0
 62
   154
  6
CONTINUOUS
  0
LAYER
  5
D4
330
2
100
AcDbSymbolTableRecord
100
AcDbLayerTableRecord
  2
155
 70
     0
 62
   155
  6
CONTINUOUS
  0
LAYER
  5
D5
330
2
100
AcDbSymbolTableRecord
100
AcDbLayerTableRecord
  2
156
 70
     0
 62
   156
  6
CONTINUOUS
  0
LAYER
  5
D6
330
2
100
AcDbSymbolTableRecord
100
AcDbLayerTableRecord
  2
157
 70
     0
 62
   157
  6
CONTINUOUS
  0
LAYER
  5
D7
330
2
100
AcDbSymbolTableRecord
100
AcDbLayerTableRecord
  2
158
 70
     0
 62
   158
  6
CONTINUOUS
  0
LAYER
  5
D8
330
2
100
AcDbSymbolTableRecord
100
AcDbLayerTableRecord
  2
159
 70
     0
 62
   159
  6
CONTINUOUS
  0
LAYER
  5
D9
330
2
100
AcDbSymbolTableRecord
100
AcDbLayerTableRecord
  2
160
 70
     0
 62
   160
  6
CONTINUOUS
  0
LAYER
  5
DA
330
2
100
AcDbSymbolTableRecord
100
AcDbLayerTableRecord
  2
161
 70
     0
 62
   161
  6
CONTINUOUS
  0
LAYER
  5
DB
330
2
100
AcDbSymbolTableRecord
100
AcDbLayerTableRecord
  2
162
 70
     0
 62
   162
  6
CONTINUOUS
  0
LAYER
  5
DC
330
2
100
AcDbSymbolTableRecord
100
AcDbLayerTableRecord
  2
163
 70
     0
 62
   163
  6
CONTINUOUS
  0
LAYER
  5
DD
330
2
100
AcDbSymbolTableRecord
100
AcDbLayerTableRecord
  2
164
 70
     0
 62
   164
  6
CONTINUOUS
  0
LAYER
  5
DE
330
2
100
AcDbSymbolTableRecord
100
AcDbLayerTableRecord
  2
165
 70
     0
 62
   165
  6
CONTINUOUS
  0
LAYER
  5
DF
330
2
100
AcDbSymbolTableRecord
100
AcDbLayerTableRecord
  2
166
 70
     0
 62
   166
  6
CONTINUOUS
  0
LAYER
  5
E0
330
2
100
AcDbSymbolTableRecord
100
AcDbLayerTableRecord
  2
167
 70
     0
 62
   167
  6
CONTINUOUS
  0
LAYER
  5
E1
330
2
100
AcDbSymbolTableRecord
100
AcDbLayerTableRecord
  2
168
 70
     0
 62
   168
  6
CONTINUOUS
  0
LAYER
  5
E2
330
2
100
AcDbSymbolTableRecord
100
AcDbLayerTableRecord
  2
169
 70
     0
 62
   169
  6
CONTINUOUS
  0
LAYER
  5
E3
330
2
100
AcDbSymbolTableRecord
100
AcDbLayerTableRecord
  2
170
 70
     0
 62
   170
  6
CONTINUOUS
  0
LAYER
  5
E4
330
2
100
AcDbSymbolTableRecord
100
AcDbLayerTableRecord
  2
171
 70
     0
 62
   171
  6
CONTINUOUS
  0
LAYER
  5
E5
330
2
100
AcDbSymbolTableRecord
100
AcDbLayerTableRecord
  2
172
 70
     0
 62
   172
  6
CONTINUOUS
  0
LAYER
  5
E6
330
2
100
AcDbSymbolTableRecord
100
AcDbLayerTableRecord
  2
173
 70
     0
 62
   173
  6
CONTINUOUS
  0
LAYER
  5
E7
330
2
100
AcDbSymbolTableRecord
100
AcDbLayerTableRecord
  2
174
 70
     0
 62
   174
  6
CONTINUOUS
  0
LAYER
  5
E8
330
2
100
AcDbSymbolTableRecord
100
AcDbLayerTableRecord
  2
175
 70
     0
 62
   175
  6
CONTINUOUS
  0
LAYER
  5
E9
330
2
100
AcDbSymbolTableRecord
100
AcDbLayerTableRecord
  2
176
 70
     0
 62
   176
  6
CONTINUOUS
  0
LAYER
  5
EA
330
2
100
AcDbSymbolTableRecord
100
AcDbLayerTableRecord
  2
177
 70
     0
 62
   177
  6
CONTINUOUS
  0
LAYER
  5
EB
330
2
100
AcDbSymbolTableRecord
100
AcDbLayerTableRecord
  2
178
 70
     0
 62
   178
  6
CONTINUOUS
  0
LAYER
  5
EC
330
2
100
AcDbSymbolTableRecord
100
AcDbLayerTableRecord
  2
179
 70
     0
 62
   179
  6
CONTINUOUS
  0
LAYER
  5
ED
330
2
100
AcDbSymbolTableRecord
100
AcDbLayerTableRecord
  2
180
 70
     0
 62
   180
  6
CONTINUOUS
  0
LAYER
  5
EE
330
2
100
AcDbSymbolTableRecord
100
AcDbLayerTableRecord
  2
181
 70
     0
 62
   181
  6
CONTINUOUS
  0
LAYER
  5
EF
330
2
100
AcDbSymbolTableRecord
100
AcDbLayerTableRecord
  2
182
 70
     0
 62
   182
  6
CONTINUOUS
  0
LAYER
  5
F0
330
2
100
AcDbSymbolTableRecord
100
AcDbLayerTableRecord
  2
183
 70
     0
 62
   183
  6
CONTINUOUS
  0
LAYER
  5
F1
330
2
100
AcDbSymbolTableRecord
100
AcDbLayerTableRecord
  2
184
 70
     0
 62
   184
  6
CONTINUOUS
  0
LAYER
  5
F2
330
2
100
AcDbSymbolTableRecord
100
AcDbLayerTableRecord
  2
185
 70
     0
 62
   185
  6
CONTINUOUS
  0
LAYER
  5
F3
330
2
100
AcDbSymbolTableRecord
100
AcDbLayerTableRecord
  2
186
 70
     0
 62
   186
  6
CONTINUOUS
  0
LAYER
  5
F4
330
2
100
AcDbSymbolTableRecord
100
AcDbLayerTableRecord
  2
187
 70
     0
 62
   187
  6
CONTINUOUS
  0
LAYER
  5
F5
330
2
100
AcDbSymbolTableRecord
100
AcDbLayerTableRecord
  2
188
 70
     0
 62
   188
  6
CONTINUOUS
  0
LAYER
  5
F6
330
2
100
AcDbSymbolTableRecord
100
AcDbLayerTableRecord
  2
189
 70
     0
 62
   189
  6
CONTINUOUS
  0
LAYER
  5
F7
330
2
100
AcDbSymbolTableRecord
100
AcDbLayerTableRecord
  2
190
 70
     0
 62
   190
  6
CONTINUOUS
  0
LAYER
  5
F8
330
2
100
AcDbSymbolTableRecord
100
AcDbLayerTableRecord
  2
191
 70
     0
 62
   191
  6
CONTINUOUS
  0
LAYER
  5
F9
330
2
100
AcDbSymbolTableRecord
100
AcDbLayerTableRecord
  2
192
 70
     0
 62
   192
  6
CONTINUOUS
  0
LAYER
  5
FA
330
2
100
AcDbSymbolTableRecord
100
AcDbLayerTableRecord
  2
193
 70
     0
 62
   193
  6
CONTINUOUS
  0
LAYER
  5
FB
330
2
100
AcDbSymbolTableRecord
100
AcDbLayerTableRecord
  2
194
 70
     0
 62
   194
  6
CONTINUOUS
  0
LAYER
  5
FC
330
2
100
AcDbSymbolTableRecord
100
AcDbLayerTableRecord
  2
195
 70
     0
 62
   195
  6
CONTINUOUS
  0
LAYER
  5
FD
330
2
100
AcDbSymbolTableRecord
100
AcDbLayerTableRecord
  2
196
 70
     0
 62
   196
  6
CONTINUOUS
  0
LAYER
  5
FE
330
2
100
AcDbSymbolTableRecord
100
AcDbLayerTableRecord
  2
197
 70
     0
 62
   197
  6
CONTINUOUS
  0
LAYER
  5
FF
330
2
100
AcDbSymbolTableRecord
100
AcDbLayerTableRecord
  2
198
 70
     0
 62
   198
  6
CONTINUOUS
  0
LAYER
  5
100
330
2
100
AcDbSymbolTableRecord
100
AcDbLayerTableRecord
  2
199
 70
     0
 62
   199
  6
CONTINUOUS
  0
LAYER
  5
101
330
2
100
AcDbSymbolTableRecord
100
AcDbLayerTableRecord
  2
200
 70
     0
 62
   200
  6
CONTINUOUS
  0
LAYER
  5
102
330
2
100
AcDbSymbolTableRecord
100
AcDbLayerTableRecord
  2
201
 70
     0
 62
   201
  6
CONTINUOUS
  0
LAYER
  5
103
330
2
100
AcDbSymbolTableRecord
100
AcDbLayerTableRecord
  2
202
 70
     0
 62
   202
  6
CONTINUOUS
  0
LAYER
  5
104
330
2
100
AcDbSymbolTableRecord
100
AcDbLayerTableRecord
  2
203
 70
     0
 62
   203
  6
CONTINUOUS
  0
LAYER
  5
105
330
2
100
AcDbSymbolTableRecord
100
AcDbLayerTableRecord
  2
204
 70
     0
 62
   204
  6
CONTINUOUS
  0
LAYER
  5
106
330
2
100
AcDbSymbolTableRecord
100
AcDbLayerTableRecord
  2
205
 70
     0
 62
   205
  6
CONTINUOUS
  0
LAYER
  5
107
330
2
100
AcDbSymbolTableRecord
100
AcDbLayerTableRecord
  2
206
 70
     0
 62
   206
  6
CONTINUOUS
  0
LAYER
  5
108
330
2
100
AcDbSymbolTableRecord
100
AcDbLayerTableRecord
  2
207
 70
     0
 62
   207
  6
CONTINUOUS
  0
LAYER
  5
109
330
2
100
AcDbSymbolTableRecord
100
AcDbLayerTableRecord
  2
208
 70
     0
 62
   208
  6
CONTINUOUS
  0
LAYER
  5
10A
330
2
100
AcDbSymbolTableRecord
100
AcDbLayerTableRecord
  2
209
 70
     0
 62
   209
  6
CONTINUOUS
  0
LAYER
  5
10B
330
2
100
AcDbSymbolTableRecord
100
AcDbLayerTableRecord
  2
210
 70
     0
 62
   210
  6
CONTINUOUS
  0
LAYER
  5
10C
330
2
100
AcDbSymbolTableRecord
100
AcDbLayerTableRecord
  2
211
 70
     0
 62
   211
  6
CONTINUOUS
  0
LAYER
  5
10D
330
2
100
AcDbSymbolTableRecord
100
AcDbLayerTableRecord
  2
212
 70
     0
 62
   212
  6
CONTINUOUS
  0
LAYER
  5
10E
330
2
100
AcDbSymbolTableRecord
100
AcDbLayerTableRecord
  2
213
 70
     0
 62
   213
  6
CONTINUOUS
  0
LAYER
  5
10F
330
2
100
AcDbSymbolTableRecord
100
AcDbLayerTableRecord
  2
214
 70
     0
 62
   214
  6
CONTINUOUS
  0
LAYER
  5
110
330
2
100
AcDbSymbolTableRecord
100
AcDbLayerTableRecord
  2
215
 70
     0
 62
   215
  6
CONTINUOUS
  0
LAYER
  5
111
330
2
100
AcDbSymbolTableRecord
100
AcDbLayerTableRecord
  2
216
 70
     0
 62
   216
  6
CONTINUOUS
  0
LAYER
  5
112
330
2
100
AcDbSymbolTableRecord
100
AcDbLayerTableRecord
  2
217
 70
     0
 62
   217
  6
CONTINUOUS
  0
LAYER
  5
113
330
2
100
AcDbSymbolTableRecord
100
AcDbLayerTableRecord
  2
218
 70
     0
 62
   218
  6
CONTINUOUS
  0
LAYER
  5
114
330
2
100
AcDbSymbolTableRecord
100
AcDbLayerTableRecord
  2
219
 70
     0
 62
   219
  6
CONTINUOUS
  0
LAYER
  5
115
330
2
100
AcDbSymbolTableRecord
100
AcDbLayerTableRecord
  2
220
 70
     0
 62
   220
  6
CONTINUOUS
  0
LAYER
  5
116
330
2
100
AcDbSymbolTableRecord
100
AcDbLayerTableRecord
  2
221
 70
     0
 62
   221
  6
CONTINUOUS
  0
LAYER
  5
117
330
2
100
AcDbSymbolTableRecord
100
AcDbLayerTableRecord
  2
222
 70
     0
 62
   222
  6
CONTINUOUS
  0
LAYER
  5
118
330
2
100
AcDbSymbolTableRecord
100
AcDbLayerTableRecord
  2
223
 70
     0
 62
   223
  6
CONTINUOUS
  0
LAYER
  5
119
330
2
100
AcDbSymbolTableRecord
100
AcDbLayerTableRecord
  2
224
 70
     0
 62
   224
  6
CONTINUOUS
  0
LAYER
  5
11A
330
2
100
AcDbSymbolTableRecord
100
AcDbLayerTableRecord
  2
225
 70
     0
 62
   225
  6
CONTINUOUS
  0
LAYER
  5
11B
330
2
100
AcDbSymbolTableRecord
100
AcDbLayerTableRecord
  2
226
 70
     0
 62
   226
  6
CONTINUOUS
  0
LAYER
  5
11C
330
2
100
AcDbSymbolTableRecord
100
AcDbLayerTableRecord
  2
227
 70
     0
 62
   227
  6
CONTINUOUS
  0
LAYER
  5
11D
330
2
100
AcDbSymbolTableRecord
100
AcDbLayerTableRecord
  2
228
 70
     0
 62
   228
  6
CONTINUOUS
  0
LAYER
  5
11E
330
2
100
AcDbSymbolTableRecord
100
AcDbLayerTableRecord
  2
229
 70
     0
 62
   229
  6
CONTINUOUS
  0
LAYER
  5
11F
330
2
100
AcDbSymbolTableRecord
100
AcDbLayerTableRecord
  2
230
 70
     0
 62
   230
  6
CONTINUOUS
  0
LAYER
  5
120
330
2
100
AcDbSymbolTableRecord
100
AcDbLayerTableRecord
  2
231
 70
     0
 62
   231
  6
CONTINUOUS
  0
LAYER
  5
121
330
2
100
AcDbSymbolTableRecord
100
AcDbLayerTableRecord
  2
232
 70
     0
 62
   232
  6
CONTINUOUS
  0
LAYER
  5
122
330
2
100
AcDbSymbolTableRecord
100
AcDbLayerTableRecord
  2
233
 70
     0
 62
   233
  6
CONTINUOUS
  0
LAYER
  5
123
330
2
100
AcDbSymbolTableRecord
100
AcDbLayerTableRecord
  2
234
 70
     0
 62
   234
  6
CONTINUOUS
  0
LAYER
  5
124
330
2
100
AcDbSymbolTableRecord
100
AcDbLayerTableRecord
  2
235
 70
     0
 62
   235
  6
CONTINUOUS
  0
LAYER
  5
125
330
2
100
AcDbSymbolTableRecord
100
AcDbLayerTableRecord
  2
236
 70
     0
 62
   236
  6
CONTINUOUS
  0
LAYER
  5
126
330
2
100
AcDbSymbolTableRecord
100
AcDbLayerTableRecord
  2
237
 70
     0
 62
   237
  6
CONTINUOUS
  0
LAYER
  5
127
330
2
100
AcDbSymbolTableRecord
100
AcDbLayerTableRecord
  2
238
 70
     0
 62
   238
  6
CONTINUOUS
  0
LAYER
  5
128
330
2
100
AcDbSymbolTableRecord
100
AcDbLayerTableRecord
  2
239
 70
     0
 62
   239
  6
CONTINUOUS
  0
LAYER
  5
129
330
2
100
AcDbSymbolTableRecord
100
AcDbLayerTableRecord
  2
240
 70
     0
 62
   240
  6
CONTINUOUS
  0
LAYER
  5
12A
330
2
100
AcDbSymbolTableRecord
100
AcDbLayerTableRecord
  2
241
 70
     0
 62
   241
  6
CONTINUOUS
  0
LAYER
  5
12B
330
2
100
AcDbSymbolTableRecord
100
AcDbLayerTableRecord
  2
242
 70
     0
 62
   242
  6
CONTINUOUS
  0
LAYER
  5
12C
330
2
100
AcDbSymbolTableRecord
100
AcDbLayerTableRecord
  2
243
 70
     0
 62
   243
  6
CONTINUOUS
  0
LAYER
  5
12D
330
2
100
AcDbSymbolTableRecord
100
AcDbLayerTableRecord
  2
244
 70
     0
 62
   244
  6
CONTINUOUS
  0
LAYER
  5
12E
330
2
100
AcDbSymbolTableRecord
100
AcDbLayerTableRecord
  2
245
 70
     0
 62
   245
  6
CONTINUOUS
  0
LAYER
  5
12F
330
2
100
AcDbSymbolTableRecord
100
AcDbLayerTableRecord
  2
246
 70
     0
 62
   246
  6
CONTINUOUS
  0
LAYER
  5
130
330
2
100
AcDbSymbolTableRecord
100
AcDbLayerTableRecord
  2
247
 70
     0
 62
   247
  6
CONTINUOUS
  0
LAYER
  5
131
330
2
100
AcDbSymbolTableRecord
100
AcDbLayerTableRecord
  2
248
 70
     0
 62
   248
  6
CONTINUOUS
  0
LAYER
  5
132
330
2
100
AcDbSymbolTableRecord
100
AcDbLayerTableRecord
  2
249
 70
     0
 62
   249
  6
CONTINUOUS
  0
LAYER
  5
133
330
2
100
AcDbSymbolTableRecord
100
AcDbLayerTableRecord
  2
250
 70
     0
 62
   250
  6
CONTINUOUS
  0
LAYER
  5
134
330
2
100
AcDbSymbolTableRecord
100
AcDbLayerTableRecord
  2
251
 70
     0
 62
   251
  6
CONTINUOUS
  0
LAYER
  5
135
330
2
100
AcDbSymbolTableRecord
100
AcDbLayerTableRecord
  2
252
 70
     0
 62
   252
  6
CONTINUOUS
  0
LAYER
  5
136
330
2
100
AcDbSymbolTableRecord
100
AcDbLayerTableRecord
  2
253
 70
     0
 62
   253
  6
CONTINUOUS
  0
LAYER
  5
137
330
2
100
AcDbSymbolTableRecord
100
AcDbLayerTableRecord
  2
254
 70
     0
 62
   254
  6
CONTINUOUS
  0
LAYER
  5
138
330
2
100
AcDbSymbolTableRecord
100
AcDbLayerTableRecord
  2
255
 70
     0
 62
   255
  6
CONTINUOUS
  0
LAYER
  5
57FB
330
2
100
AcDbSymbolTableRecord
100
AcDbLayerTableRecord
  2
DEFPOINTS
 70
     0
 62
     7
  6
CONTINUOUS
  0
ENDTAB
  0
TABLE
  2
STYLE
  5
3
330
0
100
AcDbSymbolTable
 70
     1
  0
STYLE
  5
11
330
3
100
AcDbSymbolTableRecord
100
AcDbTextStyleTableRecord
  2
STANDARD
 70
     0
 40
0.0
 41
1.0
 50
0.0
 71
     0
 42
0.2
  3
monotxt
  4

  0
ENDTAB
  0
TABLE
  2
VIEW
  5
6
330
0
100
AcDbSymbolTable
 70
     0
  0
ENDTAB
  0
TABLE
  2
UCS
  5
7
330
0
100
AcDbSymbolTable
 70
     0
  0
ENDTAB
  0
TABLE
  2
APPID
  5
9
330
0
100
AcDbSymbolTable
 70
     1
  0
APPID
  5
12
330
9
100
AcDbSymbolTableRecord
100
AcDbRegAppTableRecord
  2
ACAD
 70
     0
  0
ENDTAB
  0
TABLE
  2
DIMSTYLE
  5
A
330
0
100
AcDbSymbolTable
 70
     1
  0
DIMSTYLE
105
41EE
330
A
100
AcDbSymbolTableRecord
100
AcDbDimStyleTableRecord
  2
STANDARD
 70
     0
  3

  4

  5

  6

  7

 40
1.0
 41
0.18
 42
0.0625
 43
0.38
 44
0.18
 45
0.0
 46
0.0
 47
0.0
 48
0.0
140
0.18
141
0.09
142
0.0
143
25.4
144
1.0
145
0.0
146
1.0
147
0.09
 71
     0
 72
     0
 73
     1
 74
     1
 75
     0
 76
     0
 77
     0
 78
     0
170
     0
171
     2
172
     0
173
     0
174
     0
175
     0
176
     0
177
     0
178
     0
270
     2
271
     4
272
     4
273
     2
274
     2
340
11
275
     0
280
     0
281
     0
282
     0
283
     1
284
     0
285
     0
286
     0
287
     3
288
     0
  0
ENDTAB
  0
TABLE
  2
BLOCK_RECORD
  5
1
330
0
100
AcDbSymbolTable
 70
     1
  0
BLOCK_RECORD
  5
1E
102
{ACAD_XDICTIONARY
360
580A
102
}
330
1
100
AcDbSymbolTableRecord
100
AcDbBlockTableRecord
  2
*MODEL_SPACE
  0
BLOCK_RECORD
  5
1A
102
{ACAD_XDICTIONARY
360
580C
102
}
330
1
100
AcDbSymbolTableRecord
100
AcDbBlockTableRecord
  2
*PAPER_SPACE
  0
ENDTAB
  0
ENDSEC
  0
SECTION
  2
BLOCKS
  0
BLOCK
  5
13B
330
1E
100
AcDbEntity
  8
0
100
AcDbBlockBegin
  2
*MODEL_SPACE
 70
     0
 10
0.0
 20
0.0
 30
0.0
  3
*MODEL_SPACE
  1

  0
ENDBLK
  5
13C
330
1E
100
AcDbEntity
  8
0
100
AcDbBlockEnd
  0
BLOCK
  5
139
330
1A
100
AcDbEntity
 67
     1
  8
0
100
AcDbBlockBegin
  2
*PAPER_SPACE
 70
     0
 10
0.0
 20
0.0
 30
0.0
  3
*PAPER_SPACE
  1

  0
ENDBLK
  5
13A
330
1A
100
AcDbEntity
 67
     1
  8
0
100
AcDbBlockEnd
  0
ENDSEC
  0
SECTION
  2
ENTITIES
  0
LINE
  5
374F
330
1E
100
AcDbEntity
  8
7
100
AcDbLine
 10
0.9342460142689228
 20
6.397828362497318
 30
0.0
 11
1.054324754426403
 21
6.397828362497318
 31
0.0
  0
LINE
  5
3750
330
1E
100
AcDbEntity
  8
7
100
AcDbLine
 10
1.054324754426403
 20
6.454914976670545
 30
0.0
 11
1.199994045764985
 21
6.454914976670545
 31
0.0
  0
LINE
  5
3751
330
1E
100
AcDbEntity
  8
7
100
AcDbLine
 10
1.199994045764985
 20
6.397828362497318
 30
0.0
 11
1.320072785922466
 21
6.397828362497318
 31
0.0
  0
LINE
  5
3752
330
1E
100
AcDbEntity
  8
7
100
AcDbLine
 10
0.9342460142689228
 20
4.899796866434325
 30
0.0
 11
1.054324754426403
 21
4.899796866434325
 31
0.0
  0
LINE
  5
3753
330
1E
100
AcDbEntity
  8
7
100
AcDbLine
 10
1.054324754426403
 20
4.956883480607555
 30
0.0
 11
1.199994045764985
 21
4.956883480607555
 31
0.0
  0
LINE
  5
3754
330
1E
100
AcDbEntity
  8
7
100
AcDbLine
 10
1.199994045764985
 20
4.899796866434325
 30
0.0
 11
1.320072785922466
 21
4.899796866434325
 31
0.0
  0
LINE
  5
3755
330
1E
100
AcDbEntity
  8
7
100
AcDbLine
 10
0.2984192426153802
 20
6.397828362497318
 30
0.0
 11
0.4184979827728599
 21
6.397828362497318
 31
0.0
  0
LINE
  5
3756
330
1E
100
AcDbEntity
  8
7
100
AcDbLine
 10
0.4184979827728599
 20
6.454914976670545
 30
0.0
 11
0.5641672741114432
 21
6.454914976670545
 31
0.0
  0
LINE
  5
3757
330
1E
100
AcDbEntity
  8
7
100
AcDbLine
 10
0.5641672741114432
 20
6.397828362497318
 30
0.0
 11
0.6842460142689229
 21
6.397828362497318
 31
0.0
  0
LINE
  5
3758
330
1E
100
AcDbEntity
  8
7
100
AcDbLine
 10
-0.0716594975421003
 20
6.454914976670545
 30
0.0
 11
-0.1385886314003688
 21
6.454914976670545
 31
0.0
  0
LINE
  5
3759
330
1E
100
AcDbEntity
  8
7
100
AcDbLine
 10
-0.0716594975421003
 20
6.397828362497318
 30
0.0
 11
0.0484192426153802
 21
6.397828362497318
 31
0.0
  0
LINE
  5
375A
330
1E
100
AcDbEntity
  8
7
100
AcDbLine
 10
0.2984192426153802
 20
4.899796866434325
 30
0.0
 11
0.4184979827728599
 21
4.899796866434325
 31
0.0
  0
LINE
  5
375B
330
1E
100
AcDbEntity
  8
7
100
AcDbLine
 10
0.4184979827728599
 20
4.956883480607555
 30
0.0
 11
0.5641672741114432
 21
4.956883480607555
 31
0.0
  0
LINE
  5
375C
330
1E
100
AcDbEntity
  8
7
100
AcDbLine
 10
0.5641672741114432
 20
4.899796866434325
 30
0.0
 11
0.6842460142689229
 21
4.899796866434325
 31
0.0
  0
LINE
  5
375D
330
1E
100
AcDbEntity
  8
7
100
AcDbLine
 10
-0.0716594975421003
 20
4.956883480607555
 30
0.0
 11
-0.1385886314003688
 21
4.956883480607555
 31
0.0
  0
LINE
  5
375E
330
1E
100
AcDbEntity
  8
7
100
AcDbLine
 10
-0.0716594975421003
 20
4.899796866434325
 30
0.0
 11
0.0484192426153802
 21
4.899796866434325
 31
0.0
  0
LINE
  5
375F
330
1E
100
AcDbEntity
  8
7
100
AcDbLine
 10
1.688183022142938
 20
4.909639386119364
 30
0.0
 11
1.688183022142938
 21
4.956883480607555
 31
0.0
  0
LINE
  5
3760
330
1E
100
AcDbEntity
  8
7
100
AcDbLine
 10
1.688183022142938
 20
4.909639386119364
 30
0.0
 11
1.757080659938214
 21
4.909639386119364
 31
0.0
  0
LINE
  5
3761
330
1E
100
AcDbEntity
  8
7
100
AcDbLine
 10
1.688183022142938
 20
4.956883480607555
 30
0.0
 11
1.757080659938214
 21
4.956883480607555
 31
0.0
  0
LINE
  5
3762
330
1E
100
AcDbEntity
  8
7
100
AcDbLine
 10
1.757080659938214
 20
4.909639386119364
 30
0.0
 11
1.757080659938214
 21
5.482474031788656
 31
0.0
  0
LINE
  5
3763
330
1E
100
AcDbEntity
  8
7
100
AcDbLine
 10
-0.1385886314003688
 20
5.482474031788656
 30
0.0
 11
-0.1385886314003688
 21
4.909639386119364
 31
0.0
  0
LINE
  5
3764
330
1E
100
AcDbEntity
  8
7
100
AcDbLine
 10
-0.0716594975421003
 20
4.909639386119364
 30
0.0
 11
-0.1385886314003688
 21
4.909639386119364
 31
0.0
  0
LINE
  5
3765
330
1E
100
AcDbEntity
  8
7
100
AcDbLine
 10
-0.0716594975421003
 20
4.909639386119364
 30
0.0
 11
-0.0716594975421003
 21
4.956883480607555
 31
0.0
  0
LINE
  5
3766
330
1E
100
AcDbEntity
  8
7
100
AcDbLine
 10
0.4184979827728599
 20
4.909639386119364
 30
0.0
 11
0.4184979827728599
 21
4.956883480607555
 31
0.0
  0
LINE
  5
376C
330
1E
100
AcDbEntity
  8
7
100
AcDbLine
 10
1.054324754426403
 20
4.909639386119364
 30
0.0
 11
1.054324754426403
 21
4.956883480607555
 31
0.0
  0
LINE
  5
376D
330
1E
100
AcDbEntity
  8
7
100
AcDbLine
 10
1.054324754426403
 20
4.909639386119364
 30
0.0
 11
1.199994045764985
 21
4.909639386119364
 31
0.0
  0
LINE
  5
376E
330
1E
100
AcDbEntity
  8
7
100
AcDbLine
 10
1.199994045764985
 20
4.909639386119364
 30
0.0
 11
1.199994045764985
 21
4.956883480607555
 31
0.0
  0
LINE
  5
376F
330
1E
100
AcDbEntity
  8
7
100
AcDbLine
 10
1.688183022142938
 20
6.407670882182356
 30
0.0
 11
1.688183022142938
 21
6.454914976670545
 31
0.0
  0
LINE
  5
3770
330
1E
100
AcDbEntity
  8
7
100
AcDbLine
 10
1.688183022142938
 20
6.407670882182356
 30
0.0
 11
1.757080659938214
 21
6.407670882182356
 31
0.0
  0
LINE
  5
3771
330
1E
100
AcDbEntity
  8
7
100
AcDbLine
 10
1.688183022142938
 20
6.454914976670545
 30
0.0
 11
1.757080659938214
 21
6.454914976670545
 31
0.0
  0
LINE
  5
3772
330
1E
100
AcDbEntity
  8
7
100
AcDbLine
 10
1.757080659938214
 20
6.407670882182356
 30
0.0
 11
1.757080659938214
 21
6.980505527851649
 31
0.0
  0
LINE
  5
3773
330
1E
100
AcDbEntity
  8
7
100
AcDbLine
 10
-0.1385886314003688
 20
6.980505527851649
 30
0.0
 11
-0.1385886314003688
 21
6.407670882182356
 31
0.0
  0
LINE
  5
3774
330
1E
100
AcDbEntity
  8
7
100
AcDbLine
 10
-0.0716594975421003
 20
6.407670882182356
 30
0.0
 11
-0.1385886314003688
 21
6.407670882182356
 31
0.0
  0
LINE
  5
3775
330
1E
100
AcDbEntity
  8
7
100
AcDbLine
 10
-0.0716594975421003
 20
6.407670882182356
 30
0.0
 11
-0.0716594975421003
 21
6.454914976670545
 31
0.0
  0
LINE
  5
3776
330
1E
100
AcDbEntity
  8
7
100
AcDbLine
 10
0.4184979827728599
 20
6.407670882182356
 30
0.0
 11
0.4184979827728599
 21
6.454914976670545
 31
0.0
  0
LINE
  5
377C
330
1E
100
AcDbEntity
  8
7
100
AcDbLine
 10
1.054324754426403
 20
6.407670882182356
 30
0.0
 11
1.054324754426403
 21
6.454914976670545
 31
0.0
  0
LINE
  5
3782
330
1E
100
AcDbEntity
  8
7
100
AcDbLine
 10
-0.0952815447861948
 20
4.366332299505192
 30
0.0
 11
-0.0972500487232022
 21
4.364363795568184
 31
0.0
  0
LINE
  5
3788
330
1E
100
AcDbEntity
  8
7
100
AcDbLine
 10
-0.128746111715329
 20
4.39585985856031
 30
0.0
 11
-0.1267776077783207
 21
4.39585985856031
 31
0.0
  0
LINE
  5
378F
330
1E
100
AcDbEntity
  8
7
100
AcDbLine
 10
-0.1267776077783207
 20
4.744285055410703
 30
0.0
 11
-0.1267776077783207
 21
4.39585985856031
 31
0.0
  0
LINE
  5
379B
330
1E
100
AcDbEntity
  8
7
100
AcDbLine
 10
-0.0972500487232022
 20
4.777749622339838
 30
0.0
 11
-0.0952815447861948
 21
4.775781118402829
 31
0.0
  0
LINE
  5
37A1
330
1E
100
AcDbEntity
  8
7
100
AcDbLine
 10
1.713773573324041
 20
4.775781118402829
 30
0.0
 11
1.684246014268922
 21
4.775781118402829
 31
0.0
  0
LINE
  5
37A2
330
1E
100
AcDbEntity
  8
7
100
AcDbLine
 10
1.713773573324041
 20
4.775781118402829
 30
0.0
 11
1.715742077261048
 21
4.777749622339838
 31
0.0
  0
LINE
  5
37A3
330
1E
100
AcDbEntity
  8
7
100
AcDbLine
 10
-0.0972500487232022
 20
4.777749622339838
 30
0.0
 11
1.715742077261048
 21
4.777749622339838
 31
0.0
  0
LINE
  5
37A4
330
1E
100
AcDbEntity
  8
7
100
AcDbLine
 10
-0.0657539857310763
 20
4.775781118402829
 30
0.0
 11
-0.0952815447861948
 21
4.775781118402829
 31
0.0
  0
LINE
  5
37A5
330
1E
100
AcDbEntity
  8
7
100
AcDbLine
 10
-0.0637854817940689
 20
4.775781118402829
 30
0.0
 11
-0.0657539857310763
 21
4.775781118402829
 31
0.0
  0
LINE
  5
37B0
330
1E
100
AcDbEntity
  8
7
100
AcDbLine
 10
1.747238140253174
 20
4.746253559347712
 30
0.0
 11
1.745269636316167
 21
4.744285055410703
 31
0.0
  0
LINE
  5
37B1
330
1E
100
AcDbEntity
  8
7
100
AcDbLine
 10
1.747238140253174
 20
4.746253559347712
 30
0.0
 11
1.747238140253174
 21
4.39585985856031
 31
0.0
  0
LINE
  5
37B2
330
1E
100
AcDbEntity
  8
7
100
AcDbLine
 10
1.745269636316167
 20
4.39585985856031
 30
0.0
 11
1.745269636316167
 21
4.744285055410703
 31
0.0
  0
LINE
  5
37BE
330
1E
100
AcDbEntity
  8
7
100
AcDbLine
 10
1.715742077261048
 20
4.364363795568184
 30
0.0
 11
1.713773573324041
 21
4.366332299505192
 31
0.0
  0
LINE
  5
37BF
330
1E
100
AcDbEntity
  8
7
100
AcDbLine
 10
1.715742077261048
 20
4.364363795568184
 30
0.0
 11
-0.0972500487232022
 21
4.364363795568184
 31
0.0
  0
LINE
  5
37C0
330
1E
100
AcDbEntity
  8
7
100
AcDbLine
 10
1.684246014268922
 20
4.366332299505192
 30
0.0
 11
1.713773573324041
 21
4.366332299505192
 31
0.0
  0
LINE
  5
37C1
330
1E
100
AcDbEntity
  8
7
100
AcDbLine
 10
1.682277510331915
 20
4.366332299505192
 30
0.0
 11
1.684246014268922
 21
4.366332299505192
 31
0.0
  0
LINE
  5
37C2
330
1E
100
AcDbEntity
  8
7
100
AcDbLine
 10
1.682277510331915
 20
4.366332299505192
 30
0.0
 11
-0.0637854817940689
 21
4.366332299505192
 31
0.0
  0
LINE
  5
37C3
330
1E
100
AcDbEntity
  8
7
100
AcDbLine
 10
-0.0637854817940689
 20
4.366332299505192
 30
0.0
 11
-0.0657539857310763
 21
4.366332299505192
 31
0.0
  0
LINE
  5
37C4
330
1E
100
AcDbEntity
  8
7
100
AcDbLine
 10
-0.0952815447861948
 20
4.366332299505192
 30
0.0
 11
-0.0657539857310763
 21
4.366332299505192
 31
0.0
  0
LINE
  5
37CE
330
1E
100
AcDbEntity
  8
7
100
AcDbLine
 10
1.747238140253174
 20
7.736411039662671
 30
0.0
 11
1.747238140253174
 21
8.086804740450073
 31
0.0
  0
LINE
  5
37CF
330
1E
100
AcDbEntity
  8
7
100
AcDbLine
 10
1.745269636316167
 20
8.086804740450073
 30
0.0
 11
1.745269636316167
 21
7.73837954359968
 31
0.0
  0
LINE
  5
37D0
330
1E
100
AcDbEntity
  8
7
100
AcDbLine
 10
1.747238140253174
 20
7.736411039662671
 30
0.0
 11
1.745269636316167
 21
7.73837954359968
 31
0.0
  0
LINE
  5
37DC
330
1E
100
AcDbEntity
  8
7
100
AcDbLine
 10
1.682277510331915
 20
7.706883480607555
 30
0.0
 11
1.684246014268922
 21
7.706883480607555
 31
0.0
  0
LINE
  5
37DD
330
1E
100
AcDbEntity
  8
7
100
AcDbLine
 10
1.682277510331915
 20
8.116332299505192
 30
0.0
 11
1.684246014268922
 21
8.118300803442199
 31
0.0
  0
LINE
  5
37DE
330
1E
100
AcDbEntity
  8
7
100
AcDbLine
 10
-0.0972500487232022
 20
7.704914976670545
 30
0.0
 11
1.715742077261048
 21
7.704914976670545
 31
0.0
  0
LINE
  5
37DF
330
1E
100
AcDbEntity
  8
7
100
AcDbLine
 10
1.713773573324041
 20
7.706883480607555
 30
0.0
 11
1.684246014268922
 21
7.706883480607555
 31
0.0
  0
LINE
  5
37E0
330
1E
100
AcDbEntity
  8
7
100
AcDbLine
 10
-0.0637854817940689
 20
7.706883480607555
 30
0.0
 11
1.682277510331915
 21
7.706883480607555
 31
0.0
  0
LINE
  5
37E6
330
1E
100
AcDbEntity
  8
7
100
AcDbLine
 10
-0.0972500487232022
 20
7.704914976670545
 30
0.0
 11
-0.0952815447861948
 21
7.706883480607555
 31
0.0
  0
LINE
  5
37F2
330
1E
100
AcDbEntity
  8
7
100
AcDbLine
 10
-0.128746111715329
 20
8.086804740450073
 30
0.0
 11
-0.128746111715329
 21
7.736411039662671
 31
0.0
  0
LINE
  5
37F3
330
1E
100
AcDbEntity
  8
7
100
AcDbLine
 10
-0.1267776077783207
 20
7.73837954359968
 30
0.0
 11
-0.1267776077783207
 21
8.086804740450073
 31
0.0
  0
LINE
  5
37F4
330
1E
100
AcDbEntity
  8
7
100
AcDbLine
 10
-0.128746111715329
 20
8.086804740450073
 30
0.0
 11
-0.1267776077783207
 21
8.086804740450073
 31
0.0
  0
LINE
  5
3800
330
1E
100
AcDbEntity
  8
7
100
AcDbLine
 10
1.682277510331915
 20
8.116332299505192
 30
0.0
 11
-0.0637854817940689
 21
8.116332299505192
 31
0.0
  0
LINE
  5
3801
330
1E
100
AcDbEntity
  8
7
100
AcDbLine
 10
1.684246014268922
 20
8.118300803442199
 30
0.0
 11
1.713773573324041
 21
8.118300803442199
 31
0.0
  0
LINE
  5
3802
330
1E
100
AcDbEntity
  8
7
100
AcDbLine
 10
1.715742077261048
 20
8.118300803442199
 30
0.0
 11
-0.0972500487232022
 21
8.118300803442199
 31
0.0
  0
LINE
  5
3803
330
1E
100
AcDbEntity
  8
7
100
AcDbLine
 10
-0.0952815447861948
 20
8.118300803442199
 30
0.0
 11
-0.0657539857310763
 21
8.118300803442199
 31
0.0
  0
LINE
  5
3804
330
1E
100
AcDbEntity
  8
7
100
AcDbLine
 10
-0.0637854817940689
 20
8.116332299505192
 30
0.0
 11
-0.0657539857310763
 21
8.118300803442199
 31
0.0
  0
LINE
  5
3805
330
1E
100
AcDbEntity
  8
7
100
AcDbLine
 10
0.4184979827728599
 20
6.407670882182356
 30
0.0
 11
0.4184979827728599
 21
6.350584268009129
 31
0.0
  0
LINE
  5
3806
330
1E
100
AcDbEntity
  8
7
100
AcDbLine
 10
-0.0716594975421003
 20
6.350584268009129
 30
0.0
 11
-0.0716594975421003
 21
6.407670882182356
 31
0.0
  0
LINE
  5
3807
330
1E
100
AcDbEntity
  8
7
100
AcDbLine
 10
1.570072785922466
 20
6.397828362497318
 30
0.0
 11
1.688183022142938
 21
6.397828362497318
 31
0.0
  0
LINE
  5
3808
330
1E
100
AcDbEntity
  8
7
100
AcDbLine
 10
0.4184979827728599
 20
4.909639386119364
 30
0.0
 11
0.4184979827728599
 21
4.852552771946136
 31
0.0
  0
LINE
  5
3809
330
1E
100
AcDbEntity
  8
7
100
AcDbLine
 10
-0.0716594975421003
 20
4.852552771946136
 30
0.0
 11
-0.0716594975421003
 21
4.909639386119364
 31
0.0
  0
LINE
  5
380A
330
1E
100
AcDbEntity
  8
7
100
AcDbLine
 10
1.570072785922466
 20
4.899796866434325
 30
0.0
 11
1.688183022142938
 21
4.899796866434325
 31
0.0
  0
LINE
  5
380B
330
1E
100
AcDbEntity
  8
7
100
AcDbLine
 10
1.054324754426403
 20
4.909639386119364
 30
0.0
 11
1.054324754426403
 21
4.852552771946136
 31
0.0
  0
LINE
  5
380C
330
1E
100
AcDbEntity
  8
7
100
AcDbLine
 10
0.5641672741114432
 20
4.909639386119364
 30
0.0
 11
0.5641672741114432
 21
4.852552771946136
 31
0.0
  0
LINE
  5
380D
330
1E
100
AcDbEntity
  8
7
100
AcDbLine
 10
1.688183022142938
 20
4.852552771946136
 30
0.0
 11
1.688183022142938
 21
4.909639386119364
 31
0.0
  0
LINE
  5
380E
330
1E
100
AcDbEntity
  8
7
100
AcDbLine
 10
1.199994045764985
 20
4.909639386119364
 30
0.0
 11
1.199994045764985
 21
4.852552771946136
 31
0.0
  0
LINE
  5
380F
330
1E
100
AcDbEntity
  8
7
100
AcDbLine
 10
1.688183022142938
 20
6.350584268009129
 30
0.0
 11
1.688183022142938
 21
6.407670882182356
 31
0.0
  0
LINE
  5
3810
330
1E
100
AcDbEntity
  8
7
100
AcDbLine
 10
1.199994045764985
 20
6.407670882182356
 30
0.0
 11
1.199994045764985
 21
6.350584268009129
 31
0.0
  0
LINE
  5
3811
330
1E
100
AcDbEntity
  8
7
100
AcDbLine
 10
1.054324754426403
 20
6.407670882182356
 30
0.0
 11
1.054324754426403
 21
6.350584268009129
 31
0.0
  0
LINE
  5
3836
330
1E
100
AcDbEntity
  8
7
100
AcDbLine
 10
2.180309006394907
 20
8.427355921552436
 30
0.0
 11
2.180309006394907
 21
4.055308677457947
 31
0.0
  0
LINE
  5
3837
330
1E
100
AcDbEntity
  8
7
100
AcDbLine
 10
1.955899557576009
 20
4.218694504229601
 30
0.0
 11
1.955899557576009
 21
8.263970094780782
 31
0.0
  0
LINE
  5
3850
330
1E
100
AcDbEntity
  8
7
100
AcDbLine
 10
2.12125388828467
 20
3.994285055410703
 30
0.0
 11
-0.5027618597468245
 21
3.994285055410703
 31
0.0
  0
LINE
  5
3851
330
1E
100
AcDbEntity
  8
7
100
AcDbLine
 10
-0.3374075290381633
 20
4.218694504229601
 30
0.0
 11
1.955899557576009
 21
4.218694504229601
 31
0.0
  0
LINE
  5
3852
330
1E
100
AcDbEntity
  8
7
100
AcDbLine
 10
-0.5027618597468245
 20
8.48837954359968
 30
0.0
 11
2.12125388828467
 21
8.48837954359968
 31
0.0
  0
LINE
  5
385C
330
1E
100
AcDbEntity
  8
7
100
AcDbLine
 10
1.955899557576009
 20
8.263970094780782
 30
0.0
 11
-0.3374075290381633
 21
8.263970094780782
 31
0.0
  0
LINE
  5
386C
330
1E
100
AcDbEntity
  8
7
100
AcDbLine
 10
-0.5618169778570615
 20
4.055308677457947
 30
0.0
 11
-0.5618169778570615
 21
8.427355921552436
 31
0.0
  0
LINE
  5
3876
330
1E
100
AcDbEntity
  8
7
100
AcDbLine
 10
-0.3374075290381633
 20
8.263970094780782
 30
0.0
 11
-0.3374075290381633
 21
4.218694504229601
 31
0.0
  0
LINE
  5
387D
330
1E
100
AcDbEntity
  8
7
100
AcDbLine
 10
1.199994045764985
 20
6.350584268009129
 30
0.0
 11
1.054324754426403
 21
6.350584268009129
 31
0.0
  0
LINE
  5
387E
330
1E
100
AcDbEntity
  8
7
100
AcDbLine
 10
0.5641672741114432
 20
6.350584268009129
 30
0.0
 11
1.054324754426403
 21
6.350584268009129
 31
0.0
  0
LINE
  5
3893
330
1E
100
AcDbEntity
  8
7
100
AcDbLine
 10
1.827946801670497
 20
7.667513401867395
 30
0.0
 11
-0.2094547731326521
 21
7.667513401867395
 31
0.0
  0
LINE
  5
38A6
330
1E
100
AcDbEntity
  8
7
100
AcDbLine
 10
1.199994045764985
 20
6.350584268009129
 30
0.0
 11
1.688183022142938
 21
6.350584268009129
 31
0.0
  0
LINE
  5
38B5
330
1E
100
AcDbEntity
  8
7
100
AcDbLine
 10
-0.3000059542350133
 20
6.012001590843775
 30
0.0
 11
-0.3000059542350133
 21
5.031686630213853
 31
0.0
  0
LINE
  5
38BE
330
1E
100
AcDbEntity
  8
7
100
AcDbLine
 10
1.827946801670497
 20
6.169481905804405
 30
0.0
 11
-0.2094547731326521
 21
6.169481905804405
 31
0.0
  0
LINE
  5
38C7
330
1E
100
AcDbEntity
  8
7
100
AcDbLine
 10
1.918497982772859
 20
5.031686630213853
 30
0.0
 11
1.918497982772859
 21
6.012001590843775
 31
0.0
  0
LINE
  5
38C8
330
1E
100
AcDbEntity
  8
7
100
AcDbLine
 10
1.918497982772859
 20
5.031686630213853
 30
0.0
 11
1.914560974898844
 21
4.976568519977632
 31
0.0
  0
LINE
  5
38D1
330
1E
100
AcDbEntity
  8
7
100
AcDbLine
 10
1.199994045764985
 20
4.852552771946136
 30
0.0
 11
1.688183022142938
 21
4.852552771946136
 31
0.0
  0
LINE
  5
38D2
330
1E
100
AcDbEntity
  8
7
100
AcDbLine
 10
1.199994045764985
 20
4.852552771946136
 30
0.0
 11
1.054324754426403
 21
4.852552771946136
 31
0.0
  0
LINE
  5
38D3
330
1E
100
AcDbEntity
  8
7
100
AcDbLine
 10
0.5641672741114432
 20
4.852552771946136
 30
0.0
 11
1.054324754426403
 21
4.852552771946136
 31
0.0
  0
LINE
  5
38D4
330
1E
100
AcDbEntity
  8
7
100
AcDbLine
 10
0.5641672741114432
 20
6.407670882182356
 30
0.0
 11
0.5641672741114432
 21
6.350584268009129
 31
0.0
  0
LINE
  5
38D5
330
1E
100
AcDbEntity
  8
7
100
AcDbLine
 10
0.9145609748988441
 20
5.118300803442199
 30
0.0
 11
0.9342460142689228
 21
4.899796866434325
 31
0.0
  0
LINE
  5
38DB
330
1E
100
AcDbEntity
  8
7
100
AcDbLine
 10
-0.0637854817940689
 20
4.775781118402829
 30
0.0
 11
-0.0637854817940689
 21
4.366332299505192
 31
0.0
  0
LINE
  5
38DC
330
1E
100
AcDbEntity
  8
7
100
AcDbLine
 10
1.682277510331915
 20
4.775781118402829
 30
0.0
 11
1.682277510331915
 21
4.366332299505192
 31
0.0
  0
LINE
  5
38DD
330
1E
100
AcDbEntity
  8
7
100
AcDbLine
 10
-0.0637854817940689
 20
7.706883480607555
 30
0.0
 11
-0.0637854817940689
 21
8.116332299505192
 31
0.0
  0
LINE
  5
38DE
330
1E
100
AcDbEntity
  8
7
100
AcDbLine
 10
1.682277510331915
 20
7.706883480607555
 30
0.0
 11
1.682277510331915
 21
8.116332299505192
 31
0.0
  0
LINE
  5
38DF
330
1E
100
AcDbEntity
  8
7
100
AcDbLine
 10
1.550387746552387
 20
5.118300803442199
 30
0.0
 11
1.570072785922466
 21
4.899796866434325
 31
0.0
  0
LINE
  5
38E5
330
1E
100
AcDbEntity
  8
7
100
AcDbLine
 10
0.2807027071823089
 20
5.118300803442199
 30
0.0
 11
0.2984192426153802
 21
4.899796866434325
 31
0.0
  0
LINE
  5
38EB
330
1E
100
AcDbEntity
  8
7
100
AcDbLine
 10
1.550387746552387
 20
6.616332299505192
 30
0.0
 11
1.570072785922466
 21
6.397828362497318
 31
0.0
  0
LINE
  5
38F1
330
1E
100
AcDbEntity
  8
7
100
AcDbLine
 10
0.9145609748988441
 20
6.616332299505192
 30
0.0
 11
0.9342460142689228
 21
6.397828362497318
 31
0.0
  0
LINE
  5
38F7
330
1E
100
AcDbEntity
  8
7
100
AcDbLine
 10
0.2807027071823089
 20
6.616332299505192
 30
0.0
 11
0.2984192426153802
 21
6.397828362497318
 31
0.0
  0
LINE
  5
38FD
330
1E
100
AcDbEntity
  8
7
100
AcDbLine
 10
0.8692853843476635
 20
7.730505527851649
 30
0.0
 11
0.7492066441901831
 21
7.730505527851649
 31
0.0
  0
LINE
  5
390A
330
1E
100
AcDbEntity
  8
7
100
AcDbLine
 10
0.7492066441901831
 20
8.03365513415086
 30
0.0
 11
0.8692853843476635
 21
8.03365513415086
 31
0.0
  0
LINE
  5
3917
330
1E
100
AcDbEntity
  8
7
100
AcDbLine
 10
0.8692853843476635
 20
7.732474031788656
 30
0.0
 11
0.8692853843476635
 21
7.730505527851649
 31
0.0
  0
LINE
  5
3918
330
1E
100
AcDbEntity
  8
7
100
AcDbLine
 10
0.7492066441901831
 20
7.732474031788656
 30
0.0
 11
0.8692853843476635
 21
7.732474031788656
 31
0.0
  0
LINE
  5
3919
330
1E
100
AcDbEntity
  8
7
100
AcDbLine
 10
0.7492066441901831
 20
7.730505527851649
 30
0.0
 11
0.7492066441901831
 21
7.732474031788656
 31
0.0
  0
LINE
  5
3929
330
1E
100
AcDbEntity
  8
7
100
AcDbLine
 10
0.7492066441901831
 20
8.031686630213853
 30
0.0
 11
0.7492066441901831
 21
8.03365513415086
 31
0.0
  0
LINE
  5
392A
330
1E
100
AcDbEntity
  8
7
100
AcDbLine
 10
0.8692853843476635
 20
8.031686630213853
 30
0.0
 11
0.7492066441901831
 21
8.031686630213853
 31
0.0
  0
LINE
  5
392B
330
1E
100
AcDbEntity
  8
7
100
AcDbLine
 10
0.8692853843476635
 20
8.03365513415086
 30
0.0
 11
0.8692853843476635
 21
8.031686630213853
 31
0.0
  0
LINE
  5
392C
330
1E
100
AcDbEntity
  8
7
100
AcDbLine
 10
0.8692853843476635
 20
7.732474031788656
 30
0.0
 11
0.9204664867098681
 21
7.742316551473695
 31
0.0
  0
LINE
  5
3938
330
1E
100
AcDbEntity
  8
7
100
AcDbLine
 10
0.8692853843476635
 20
4.752159071158734
 30
0.0
 11
0.7492066441901831
 21
4.752159071158734
 31
0.0
  0
LINE
  5
3939
330
1E
100
AcDbEntity
  8
7
100
AcDbLine
 10
0.8692853843476635
 20
4.449009464859523
 30
0.0
 11
0.9204664867098681
 21
4.458851984544562
 31
0.0
  0
LINE
  5
3945
330
1E
100
AcDbEntity
  8
7
100
AcDbLine
 10
0.7492066441901831
 20
4.449009464859523
 30
0.0
 11
0.8692853843476635
 21
4.449009464859523
 31
0.0
  0
LINE
  5
3946
330
1E
100
AcDbEntity
  8
7
100
AcDbLine
 10
0.7492066441901831
 20
4.752159071158734
 30
0.0
 11
0.6980255418279784
 21
4.742316551473695
 31
0.0
  0
LINE
  5
3976
330
1E
100
AcDbEntity
  8
7
100
AcDbLine
 10
2.125190896158686
 20
8.492316551473695
 30
0.0
 11
-0.5066988676208411
 21
8.492316551473695
 31
0.0
  0
LINE
  5
397D
330
1E
100
AcDbEntity
  8
7
100
AcDbLine
 10
2.184246014268922
 20
4.051371669583932
 30
0.0
 11
2.184246014268922
 21
8.431292929426451
 31
0.0
  0
LINE
  5
3984
330
1E
100
AcDbEntity
  8
7
100
AcDbLine
 10
-0.5066988676208411
 20
3.992316551473695
 30
0.0
 11
2.125190896158686
 21
3.992316551473695
 31
0.0
  0
LINE
  5
398B
330
1E
100
AcDbEntity
  8
7
100
AcDbLine
 10
-0.5657539857310763
 20
8.431292929426451
 30
0.0
 11
-0.5657539857310763
 21
4.051371669583932
 31
0.0
  0
LINE
  5
3992
330
1E
100
AcDbEntity
  8
7
100
AcDbLine
 10
-0.5027618597468245
 20
3.994285055410703
 30
0.0
 11
-0.5066988676208411
 21
3.992316551473695
 31
0.0
  0
LINE
  5
3993
330
1E
100
AcDbEntity
  8
7
100
AcDbLine
 10
-0.5657539857310763
 20
4.051371669583932
 30
0.0
 11
-0.5618169778570615
 21
4.055308677457947
 31
0.0
  0
LINE
  5
3994
330
1E
100
AcDbEntity
  8
7
100
AcDbLine
 10
-0.5618169778570615
 20
8.427355921552436
 30
0.0
 11
-0.5657539857310763
 21
8.431292929426451
 31
0.0
  0
LINE
  5
3995
330
1E
100
AcDbEntity
  8
7
100
AcDbLine
 10
-0.5066988676208411
 20
8.492316551473695
 30
0.0
 11
-0.5027618597468245
 21
8.48837954359968
 31
0.0
  0
LINE
  5
3996
330
1E
100
AcDbEntity
  8
7
100
AcDbLine
 10
2.12125388828467
 20
8.48837954359968
 30
0.0
 11
2.125190896158686
 21
8.492316551473695
 31
0.0
  0
LINE
  5
3997
330
1E
100
AcDbEntity
  8
7
100
AcDbLine
 10
2.125190896158686
 20
3.992316551473695
 30
0.0
 11
2.12125388828467
 21
3.994285055410703
 31
0.0
  0
LINE
  5
3998
330
1E
100
AcDbEntity
  8
7
100
AcDbLine
 10
2.180309006394907
 20
4.055308677457947
 30
0.0
 11
2.184246014268922
 21
4.051371669583932
 31
0.0
  0
LINE
  5
3999
330
1E
100
AcDbEntity
  8
7
100
AcDbLine
 10
2.184246014268922
 20
8.431292929426451
 30
0.0
 11
2.180309006394907
 21
8.427355921552436
 31
0.0
  0
LINE
  5
399A
330
1E
100
AcDbEntity
  8
7
100
AcDbLine
 10
0.7216475890720729
 20
6.970663008166608
 30
0.0
 11
0.8968444394657737
 21
6.970663008166608
 31
0.0
  0
LINE
  5
399B
330
1E
100
AcDbEntity
  8
7
100
AcDbLine
 10
0.0858208174185293
 20
6.970663008166608
 30
0.0
 11
0.2610176678122302
 21
6.970663008166608
 31
0.0
  0
LINE
  5
399C
330
1E
100
AcDbEntity
  8
7
100
AcDbLine
 10
1.357474360725616
 20
6.970663008166608
 30
0.0
 11
1.530702707182308
 21
6.970663008166608
 31
0.0
  0
LINE
  5
399D
330
1E
100
AcDbEntity
  8
7
100
AcDbLine
 10
0.2767656993082932
 20
7.285623638087869
 30
0.0
 11
0.1862145182059311
 21
7.285623638087869
 31
0.0
  0
LINE
  5
399E
330
1E
100
AcDbEntity
  8
7
100
AcDbLine
 10
0.1862145182059311
 20
7.23837954359968
 30
0.0
 11
0.2767656993082932
 21
7.23837954359968
 31
0.0
  0
LINE
  5
399F
330
1E
100
AcDbEntity
  8
7
100
AcDbLine
 10
0.7078680615130173
 20
7.23837954359968
 30
0.0
 11
0.7964507386783719
 21
7.23837954359968
 31
0.0
  0
LINE
  5
39A0
330
1E
100
AcDbEntity
  8
7
100
AcDbLine
 10
0.7964507386783719
 20
7.285623638087869
 30
0.0
 11
0.7078680615130173
 21
7.285623638087869
 31
0.0
  0
LINE
  5
39A1
330
1E
100
AcDbEntity
  8
7
100
AcDbLine
 10
0.9106239670248283
 20
7.285623638087869
 30
0.0
 11
0.8220412898594746
 21
7.285623638087869
 31
0.0
  0
LINE
  5
39A2
330
1E
100
AcDbEntity
  8
7
100
AcDbLine
 10
0.8220412898594746
 20
7.23837954359968
 30
0.0
 11
0.9106239670248283
 21
7.23837954359968
 31
0.0
  0
LINE
  5
39A3
330
1E
100
AcDbEntity
  8
7
100
AcDbLine
 10
1.341726329229553
 20
7.23837954359968
 30
0.0
 11
1.432277510331915
 21
7.23837954359968
 31
0.0
  0
LINE
  5
39A4
330
1E
100
AcDbEntity
  8
7
100
AcDbLine
 10
1.432277510331915
 20
7.285623638087869
 30
0.0
 11
1.341726329229553
 21
7.285623638087869
 31
0.0
  0
LINE
  5
39A5
330
1E
100
AcDbEntity
  8
7
100
AcDbLine
 10
1.546450738678371
 20
7.285623638087869
 30
0.0
 11
1.455899557576009
 21
7.285623638087869
 31
0.0
  0
LINE
  5
39A6
330
1E
100
AcDbEntity
  8
7
100
AcDbLine
 10
1.455899557576009
 20
7.23837954359968
 30
0.0
 11
1.546450738678371
 21
7.23837954359968
 31
0.0
  0
LINE
  5
39A7
330
1E
100
AcDbEntity
  8
7
100
AcDbLine
 10
0.0720412898594747
 20
7.23837954359968
 30
0.0
 11
0.1625924709618367
 21
7.23837954359968
 31
0.0
  0
LINE
  5
39A8
330
1E
100
AcDbEntity
  8
7
100
AcDbLine
 10
0.1625924709618367
 20
7.285623638087869
 30
0.0
 11
0.0720412898594747
 21
7.285623638087869
 31
0.0
  0
LINE
  5
39A9
330
1E
100
AcDbEntity
  8
7
100
AcDbLine
 10
0.0858208174185293
 20
7.004127575095743
 30
0.0
 11
0.0858208174185293
 21
6.970663008166608
 31
0.0
  0
LINE
  5
39AA
330
1E
100
AcDbEntity
  8
7
100
AcDbLine
 10
1.357474360725616
 20
7.004127575095743
 30
0.0
 11
1.530702707182308
 21
7.004127575095743
 31
0.0
  0
LINE
  5
39AB
330
1E
100
AcDbEntity
  8
7
100
AcDbLine
 10
1.357474360725616
 20
7.004127575095743
 30
0.0
 11
1.357474360725616
 21
6.970663008166608
 31
0.0
  0
LINE
  5
39AC
330
1E
100
AcDbEntity
  8
7
100
AcDbLine
 10
1.530702707182308
 20
7.004127575095743
 30
0.0
 11
1.530702707182308
 21
6.970663008166608
 31
0.0
  0
LINE
  5
39AD
330
1E
100
AcDbEntity
  8
7
100
AcDbLine
 10
0.8968444394657737
 20
7.004127575095743
 30
0.0
 11
0.8968444394657737
 21
6.970663008166608
 31
0.0
  0
LINE
  5
39AE
330
1E
100
AcDbEntity
  8
7
100
AcDbLine
 10
0.7216475890720729
 20
7.004127575095743
 30
0.0
 11
0.8968444394657737
 21
7.004127575095743
 31
0.0
  0
LINE
  5
39AF
330
1E
100
AcDbEntity
  8
7
100
AcDbLine
 10
0.7216475890720729
 20
7.004127575095743
 30
0.0
 11
0.7216475890720729
 21
6.970663008166608
 31
0.0
  0
LINE
  5
39B0
330
1E
100
AcDbEntity
  8
7
100
AcDbLine
 10
0.2610176678122302
 20
7.004127575095743
 30
0.0
 11
0.2610176678122302
 21
6.970663008166608
 31
0.0
  0
LINE
  5
39B1
330
1E
100
AcDbEntity
  8
7
100
AcDbLine
 10
0.0858208174185293
 20
7.004127575095743
 30
0.0
 11
0.2610176678122302
 21
7.004127575095743
 31
0.0
  0
LINE
  5
39F0
330
1E
100
AcDbEntity
  8
7
100
AcDbLine
 10
0.0700727859224664
 20
6.980505527851649
 30
0.0
 11
-0.1385886314003688
 21
6.980505527851649
 31
0.0
  0
LINE
  5
39F1
330
1E
100
AcDbEntity
  8
7
100
AcDbLine
 10
0.0858208174185293
 20
7.004127575095743
 30
0.0
 11
0.0720412898594747
 21
7.004127575095743
 31
0.0
  0
LINE
  5
39F2
330
1E
100
AcDbEntity
  8
7
100
AcDbLine
 10
1.814167274111443
 20
7.021844110528814
 30
0.0
 11
-0.1956752455735966
 21
7.021844110528814
 31
0.0
  0
LINE
  5
39F8
330
1E
100
AcDbEntity
  8
7
100
AcDbLine
 10
-0.1956752455735966
 20
7.120269307379206
 30
0.0
 11
1.814167274111443
 21
7.120269307379206
 31
0.0
  0
LINE
  5
39F9
330
1E
100
AcDbEntity
  8
7
100
AcDbLine
 10
1.546450738678371
 20
6.980505527851649
 30
0.0
 11
1.54841924261538
 21
7.006096079032751
 31
0.0
  0
LINE
  5
39FA
330
1E
100
AcDbEntity
  8
7
100
AcDbLine
 10
1.546450738678371
 20
7.004127575095743
 30
0.0
 11
1.54841924261538
 21
7.006096079032751
 31
0.0
  0
LINE
  5
39FB
330
1E
100
AcDbEntity
  8
7
100
AcDbLine
 10
1.546450738678371
 20
7.004127575095743
 30
0.0
 11
1.546450738678371
 21
6.980505527851649
 31
0.0
  0
LINE
  5
39FC
330
1E
100
AcDbEntity
  8
7
100
AcDbLine
 10
1.54841924261538
 20
7.006096079032751
 30
0.0
 11
1.339757825292545
 21
7.006096079032751
 31
0.0
  0
LINE
  5
39FD
330
1E
100
AcDbEntity
  8
7
100
AcDbLine
 10
1.341726329229553
 20
7.004127575095743
 30
0.0
 11
1.339757825292545
 21
7.006096079032751
 31
0.0
  0
LINE
  5
39FE
330
1E
100
AcDbEntity
  8
7
100
AcDbLine
 10
1.357474360725616
 20
7.004127575095743
 30
0.0
 11
1.341726329229553
 21
7.004127575095743
 31
0.0
  0
LINE
  5
39FF
330
1E
100
AcDbEntity
  8
7
100
AcDbLine
 10
1.546450738678371
 20
7.004127575095743
 30
0.0
 11
1.530702707182308
 21
7.004127575095743
 31
0.0
  0
LINE
  5
3A05
330
1E
100
AcDbEntity
  8
7
100
AcDbLine
 10
1.341726329229553
 20
6.980505527851649
 30
0.0
 11
0.9125924709618367
 21
6.980505527851649
 31
0.0
  0
LINE
  5
3A06
330
1E
100
AcDbEntity
  8
7
100
AcDbLine
 10
0.9125924709618367
 20
7.004127575095743
 30
0.0
 11
0.9125924709618367
 21
6.980505527851649
 31
0.0
  0
LINE
  5
3A07
330
1E
100
AcDbEntity
  8
7
100
AcDbLine
 10
0.9125924709618367
 20
7.004127575095743
 30
0.0
 11
0.8968444394657737
 21
7.004127575095743
 31
0.0
  0
LINE
  5
3A08
330
1E
100
AcDbEntity
  8
7
100
AcDbLine
 10
0.9125924709618367
 20
6.980505527851649
 30
0.0
 11
0.9125924709618367
 21
7.006096079032751
 31
0.0
  0
LINE
  5
3A0E
330
1E
100
AcDbEntity
  8
7
100
AcDbLine
 10
0.7058995575760099
 20
7.004127575095743
 30
0.0
 11
0.7058995575760099
 21
7.006096079032751
 31
0.0
  0
LINE
  5
3A0F
330
1E
100
AcDbEntity
  8
7
100
AcDbLine
 10
0.7216475890720729
 20
7.004127575095743
 30
0.0
 11
0.7058995575760099
 21
7.004127575095743
 31
0.0
  0
LINE
  5
3A15
330
1E
100
AcDbEntity
  8
7
100
AcDbLine
 10
0.7058995575760099
 20
6.980505527851649
 30
0.0
 11
0.2767656993082932
 21
6.980505527851649
 31
0.0
  0
LINE
  5
3A16
330
1E
100
AcDbEntity
  8
7
100
AcDbLine
 10
0.2767656993082932
 20
7.004127575095743
 30
0.0
 11
0.2767656993082932
 21
6.980505527851649
 31
0.0
  0
LINE
  5
3A17
330
1E
100
AcDbEntity
  8
7
100
AcDbLine
 10
0.2767656993082932
 20
7.004127575095743
 30
0.0
 11
0.2610176678122302
 21
7.004127575095743
 31
0.0
  0
LINE
  5
3A18
330
1E
100
AcDbEntity
  8
7
100
AcDbLine
 10
0.2767656993082932
 20
6.980505527851649
 30
0.0
 11
0.2767656993082932
 21
7.006096079032751
 31
0.0
  0
LINE
  5
3A27
330
1E
100
AcDbEntity
  8
7
100
AcDbLine
 10
1.757080659938214
 20
6.980505527851649
 30
0.0
 11
1.546450738678371
 21
6.980505527851649
 31
0.0
  0
LINE
  5
3A28
330
1E
100
AcDbEntity
  8
7
100
AcDbLine
 10
1.90865546308782
 20
7.067119701079995
 30
0.0
 11
1.918497982772859
 21
6.529718126276845
 31
0.0
  0
LINE
  5
3A29
330
1E
100
AcDbEntity
  8
7
100
AcDbLine
 10
1.827946801670497
 20
6.350584268009129
 30
0.0
 11
1.814167274111443
 21
7.021844110528814
 31
0.0
  0
LINE
  5
3A2A
330
1E
100
AcDbEntity
  8
7
100
AcDbLine
 10
1.814167274111443
 20
7.120269307379206
 30
0.0
 11
1.827946801670497
 21
7.667513401867395
 31
0.0
  0
LINE
  5
3A2B
330
1E
100
AcDbEntity
  8
7
100
AcDbLine
 10
1.918497982772859
 20
7.510033086906766
 30
0.0
 11
1.90865546308782
 21
7.067119701079995
 31
0.0
  0
LINE
  5
3A2C
330
1E
100
AcDbEntity
  8
7
100
AcDbLine
 10
-0.1956752455735966
 20
7.021844110528814
 30
0.0
 11
-0.2094547731326521
 21
6.350584268009129
 31
0.0
  0
LINE
  5
3A2D
330
1E
100
AcDbEntity
  8
7
100
AcDbLine
 10
-0.2094547731326521
 20
7.667513401867395
 30
0.0
 11
-0.1956752455735966
 21
7.120269307379206
 31
0.0
  0
LINE
  5
3A2E
330
1E
100
AcDbEntity
  8
7
100
AcDbLine
 10
-0.2901634345499744
 20
7.067119701079995
 30
0.0
 11
-0.3000059542350133
 21
7.510033086906766
 31
0.0
  0
LINE
  5
3A2F
330
1E
100
AcDbEntity
  8
7
100
AcDbLine
 10
-0.3000059542350133
 20
6.529718126276845
 30
0.0
 11
-0.2901634345499744
 21
7.067119701079995
 31
0.0
  0
LINE
  5
3A30
330
1E
100
AcDbEntity
  8
7
100
AcDbLine
 10
0.7216475890720729
 20
5.472631512103617
 30
0.0
 11
0.8968444394657737
 21
5.472631512103617
 31
0.0
  0
LINE
  5
3A31
330
1E
100
AcDbEntity
  8
7
100
AcDbLine
 10
0.0858208174185293
 20
5.472631512103617
 30
0.0
 11
0.2610176678122302
 21
5.472631512103617
 31
0.0
  0
LINE
  5
3A32
330
1E
100
AcDbEntity
  8
7
100
AcDbLine
 10
1.357474360725616
 20
5.472631512103617
 30
0.0
 11
1.530702707182308
 21
5.472631512103617
 31
0.0
  0
LINE
  5
3A33
330
1E
100
AcDbEntity
  8
7
100
AcDbLine
 10
1.546450738678371
 20
5.787592142024877
 30
0.0
 11
1.455899557576009
 21
5.787592142024877
 31
0.0
  0
LINE
  5
3A34
330
1E
100
AcDbEntity
  8
7
100
AcDbLine
 10
1.455899557576009
 20
5.740348047536688
 30
0.0
 11
1.546450738678371
 21
5.740348047536688
 31
0.0
  0
LINE
  5
3A35
330
1E
100
AcDbEntity
  8
7
100
AcDbLine
 10
0.9106239670248283
 20
5.787592142024877
 30
0.0
 11
0.8220412898594746
 21
5.787592142024877
 31
0.0
  0
LINE
  5
3A36
330
1E
100
AcDbEntity
  8
7
100
AcDbLine
 10
0.8220412898594746
 20
5.740348047536688
 30
0.0
 11
0.9106239670248283
 21
5.740348047536688
 31
0.0
  0
LINE
  5
3A37
330
1E
100
AcDbEntity
  8
7
100
AcDbLine
 10
1.341726329229553
 20
5.740348047536688
 30
0.0
 11
1.432277510331915
 21
5.740348047536688
 31
0.0
  0
LINE
  5
3A38
330
1E
100
AcDbEntity
  8
7
100
AcDbLine
 10
1.432277510331915
 20
5.787592142024877
 30
0.0
 11
1.341726329229553
 21
5.787592142024877
 31
0.0
  0
LINE
  5
3A39
330
1E
100
AcDbEntity
  8
7
100
AcDbLine
 10
0.2767656993082932
 20
5.787592142024877
 30
0.0
 11
0.1862145182059311
 21
5.787592142024877
 31
0.0
  0
LINE
  5
3A3A
330
1E
100
AcDbEntity
  8
7
100
AcDbLine
 10
0.1862145182059311
 20
5.740348047536688
 30
0.0
 11
0.2767656993082932
 21
5.740348047536688
 31
0.0
  0
LINE
  5
3A3B
330
1E
100
AcDbEntity
  8
7
100
AcDbLine
 10
0.7078680615130173
 20
5.740348047536688
 30
0.0
 11
0.7964507386783719
 21
5.740348047536688
 31
0.0
  0
LINE
  5
3A3C
330
1E
100
AcDbEntity
  8
7
100
AcDbLine
 10
0.7964507386783719
 20
5.787592142024877
 30
0.0
 11
0.7078680615130173
 21
5.787592142024877
 31
0.0
  0
LINE
  5
3A3D
330
1E
100
AcDbEntity
  8
7
100
AcDbLine
 10
0.0720412898594747
 20
5.740348047536688
 30
0.0
 11
0.1625924709618367
 21
5.740348047536688
 31
0.0
  0
LINE
  5
3A3E
330
1E
100
AcDbEntity
  8
7
100
AcDbLine
 10
0.1625924709618367
 20
5.787592142024877
 30
0.0
 11
0.0720412898594747
 21
5.787592142024877
 31
0.0
  0
LINE
  5
3A3F
330
1E
100
AcDbEntity
  8
7
100
AcDbLine
 10
0.0858208174185293
 20
5.506096079032751
 30
0.0
 11
0.0858208174185293
 21
5.472631512103617
 31
0.0
  0
LINE
  5
3A40
330
1E
100
AcDbEntity
  8
7
100
AcDbLine
 10
1.357474360725616
 20
5.506096079032751
 30
0.0
 11
1.530702707182308
 21
5.506096079032751
 31
0.0
  0
LINE
  5
3A41
330
1E
100
AcDbEntity
  8
7
100
AcDbLine
 10
1.357474360725616
 20
5.506096079032751
 30
0.0
 11
1.357474360725616
 21
5.472631512103617
 31
0.0
  0
LINE
  5
3A42
330
1E
100
AcDbEntity
  8
7
100
AcDbLine
 10
1.530702707182308
 20
5.506096079032751
 30
0.0
 11
1.530702707182308
 21
5.472631512103617
 31
0.0
  0
LINE
  5
3A43
330
1E
100
AcDbEntity
  8
7
100
AcDbLine
 10
0.8968444394657737
 20
5.506096079032751
 30
0.0
 11
0.8968444394657737
 21
5.472631512103617
 31
0.0
  0
LINE
  5
3A44
330
1E
100
AcDbEntity
  8
7
100
AcDbLine
 10
0.7216475890720729
 20
5.506096079032751
 30
0.0
 11
0.8968444394657737
 21
5.506096079032751
 31
0.0
  0
LINE
  5
3A45
330
1E
100
AcDbEntity
  8
7
100
AcDbLine
 10
0.7216475890720729
 20
5.506096079032751
 30
0.0
 11
0.7216475890720729
 21
5.472631512103617
 31
0.0
  0
LINE
  5
3A46
330
1E
100
AcDbEntity
  8
7
100
AcDbLine
 10
0.2610176678122302
 20
5.506096079032751
 30
0.0
 11
0.2610176678122302
 21
5.472631512103617
 31
0.0
  0
LINE
  5
3A47
330
1E
100
AcDbEntity
  8
7
100
AcDbLine
 10
0.0858208174185293
 20
5.506096079032751
 30
0.0
 11
0.2610176678122302
 21
5.506096079032751
 31
0.0
  0
LINE
  5
3A87
330
1E
100
AcDbEntity
  8
7
100
AcDbLine
 10
0.0858208174185293
 20
5.506096079032751
 30
0.0
 11
0.0720412898594747
 21
5.506096079032751
 31
0.0
  0
LINE
  5
3A88
330
1E
100
AcDbEntity
  8
7
100
AcDbLine
 10
1.814167274111443
 20
5.523812614465821
 30
0.0
 11
-0.1956752455735966
 21
5.523812614465821
 31
0.0
  0
LINE
  5
3A8E
330
1E
100
AcDbEntity
  8
7
100
AcDbLine
 10
-0.1956752455735966
 20
5.622237811316216
 30
0.0
 11
1.814167274111443
 21
5.622237811316216
 31
0.0
  0
LINE
  5
3A8F
330
1E
100
AcDbEntity
  8
7
100
AcDbLine
 10
1.546450738678371
 20
5.482474031788656
 30
0.0
 11
1.54841924261538
 21
5.508064582969758
 31
0.0
  0
LINE
  5
3A90
330
1E
100
AcDbEntity
  8
7
100
AcDbLine
 10
1.546450738678371
 20
5.506096079032751
 30
0.0
 11
1.54841924261538
 21
5.508064582969758
 31
0.0
  0
LINE
  5
3A91
330
1E
100
AcDbEntity
  8
7
100
AcDbLine
 10
1.546450738678371
 20
5.506096079032751
 30
0.0
 11
1.546450738678371
 21
5.482474031788656
 31
0.0
  0
LINE
  5
3A92
330
1E
100
AcDbEntity
  8
7
100
AcDbLine
 10
1.54841924261538
 20
5.508064582969758
 30
0.0
 11
1.339757825292545
 21
5.508064582969758
 31
0.0
  0
LINE
  5
3A93
330
1E
100
AcDbEntity
  8
7
100
AcDbLine
 10
1.341726329229553
 20
5.506096079032751
 30
0.0
 11
1.339757825292545
 21
5.508064582969758
 31
0.0
  0
LINE
  5
3A94
330
1E
100
AcDbEntity
  8
7
100
AcDbLine
 10
1.357474360725616
 20
5.506096079032751
 30
0.0
 11
1.341726329229553
 21
5.506096079032751
 31
0.0
  0
LINE
  5
3A95
330
1E
100
AcDbEntity
  8
7
100
AcDbLine
 10
1.546450738678371
 20
5.506096079032751
 30
0.0
 11
1.530702707182308
 21
5.506096079032751
 31
0.0
  0
LINE
  5
3A9B
330
1E
100
AcDbEntity
  8
7
100
AcDbLine
 10
0.9125924709618367
 20
5.506096079032751
 30
0.0
 11
0.8968444394657737
 21
5.506096079032751
 31
0.0
  0
LINE
  5
3A9C
330
1E
100
AcDbEntity
  8
7
100
AcDbLine
 10
1.341726329229553
 20
5.482474031788656
 30
0.0
 11
0.9125924709618367
 21
5.482474031788656
 31
0.0
  0
LINE
  5
3AA7
330
1E
100
AcDbEntity
  8
7
100
AcDbLine
 10
0.7058995575760099
 20
5.506096079032751
 30
0.0
 11
0.7058995575760099
 21
5.508064582969758
 31
0.0
  0
LINE
  5
3AA8
330
1E
100
AcDbEntity
  8
7
100
AcDbLine
 10
0.7216475890720729
 20
5.506096079032751
 30
0.0
 11
0.7058995575760099
 21
5.506096079032751
 31
0.0
  0
LINE
  5
3AAE
330
1E
100
AcDbEntity
  8
7
100
AcDbLine
 10
0.2767656993082932
 20
5.506096079032751
 30
0.0
 11
0.2610176678122302
 21
5.506096079032751
 31
0.0
  0
LINE
  5
3AAF
330
1E
100
AcDbEntity
  8
7
100
AcDbLine
 10
0.7058995575760099
 20
5.482474031788656
 30
0.0
 11
0.2767656993082932
 21
5.482474031788656
 31
0.0
  0
LINE
  5
3ABA
330
1E
100
AcDbEntity
  8
7
100
AcDbLine
 10
1.757080659938214
 20
5.482474031788656
 30
0.0
 11
1.546450738678371
 21
5.482474031788656
 31
0.0
  0
LINE
  5
3AC7
330
1E
100
AcDbEntity
  8
7
100
AcDbLine
 10
1.814167274111443
 20
5.622237811316216
 30
0.0
 11
1.827946801670497
 21
6.169481905804405
 31
0.0
  0
LINE
  5
3ACD
330
1E
100
AcDbEntity
  8
7
100
AcDbLine
 10
1.827946801670497
 20
4.852552771946136
 30
0.0
 11
1.814167274111443
 21
5.523812614465821
 31
0.0
  0
LINE
  5
3ACE
330
1E
100
AcDbEntity
  8
7
100
AcDbLine
 10
-0.1956752455735966
 20
5.523812614465821
 30
0.0
 11
-0.2094547731326521
 21
4.852552771946136
 31
0.0
  0
LINE
  5
3ACF
330
1E
100
AcDbEntity
  8
7
100
AcDbLine
 10
-0.2094547731326521
 20
6.169481905804405
 30
0.0
 11
-0.1956752455735966
 21
5.622237811316216
 31
0.0
  0
LINE
  5
3AD0
330
1E
100
AcDbEntity
  8
7
100
AcDbLine
 10
-0.2901634345499744
 20
5.569088205017003
 30
0.0
 11
-0.3000059542350133
 21
6.012001590843775
 31
0.0
  0
LINE
  5
3AD1
330
1E
100
AcDbEntity
  8
7
100
AcDbLine
 10
-0.3000059542350133
 20
5.031686630213853
 30
0.0
 11
-0.2901634345499744
 21
5.569088205017003
 31
0.0
  0
LINE
  5
3AD2
330
1E
100
AcDbEntity
  8
7
100
AcDbLine
 10
0.7039310536390016
 20
4.541529149898892
 30
0.0
 11
0.9145609748988441
 21
4.541529149898892
 31
0.0
  0
LINE
  5
3AD3
330
1E
100
AcDbEntity
  8
7
100
AcDbLine
 10
0.7039310536390016
 20
4.661607890056373
 30
0.0
 11
0.9145609748988441
 21
4.661607890056373
 31
0.0
  0
LINE
  5
3AD9
330
1E
100
AcDbEntity
  8
7
100
AcDbLine
 10
0.6783405024578997
 20
4.578930724702042
 30
0.0
 11
0.7039310536390016
 21
4.541529149898892
 31
0.0
  0
LINE
  5
3ADA
330
1E
100
AcDbEntity
  8
7
100
AcDbLine
 10
0.9047184552138052
 20
4.53365513415086
 30
0.0
 11
0.7137735733240414
 21
4.53365513415086
 31
0.0
  0
LINE
  5
3AE0
330
1E
100
AcDbEntity
  8
7
100
AcDbLine
 10
0.8692853843476635
 20
4.523812614465821
 30
0.0
 11
0.7492066441901831
 21
4.523812614465821
 31
0.0
  0
LINE
  5
3AE6
330
1E
100
AcDbEntity
  8
7
100
AcDbLine
 10
0.7039310536390016
 20
4.541529149898892
 30
0.0
 11
0.7137735733240414
 21
4.53365513415086
 31
0.0
  0
LINE
  5
3AE7
330
1E
100
AcDbEntity
  8
7
100
AcDbLine
 10
0.9047184552138052
 20
4.53365513415086
 30
0.0
 11
0.9145609748988441
 21
4.541529149898892
 31
0.0
  0
LINE
  5
3AF3
330
1E
100
AcDbEntity
  8
7
100
AcDbLine
 10
0.9145609748988441
 20
4.661607890056373
 30
0.0
 11
0.9047184552138052
 21
4.667513401867397
 31
0.0
  0
LINE
  5
3AFE
330
1E
100
AcDbEntity
  8
7
100
AcDbLine
 10
0.8692853843476635
 20
4.677355921552436
 30
0.0
 11
0.7492066441901831
 21
4.677355921552436
 31
0.0
  0
LINE
  5
3B08
330
1E
100
AcDbEntity
  8
7
100
AcDbLine
 10
0.8692853843476635
 20
4.523812614465821
 30
0.0
 11
0.7492066441901831
 21
4.523812614465821
 31
0.0
  0
LINE
  5
3B12
330
1E
100
AcDbEntity
  8
7
100
AcDbLine
 10
0.8692853843476635
 20
4.677355921552436
 30
0.0
 11
0.7492066441901831
 21
4.677355921552436
 31
0.0
  0
LINE
  5
3B13
330
1E
100
AcDbEntity
  8
7
100
AcDbLine
 10
0.7039310536390016
 20
7.941135449111492
 30
0.0
 11
0.9145609748988441
 21
7.941135449111492
 31
0.0
  0
LINE
  5
3B14
330
1E
100
AcDbEntity
  8
7
100
AcDbLine
 10
0.7039310536390016
 20
7.82105670895401
 30
0.0
 11
0.9145609748988441
 21
7.82105670895401
 31
0.0
  0
LINE
  5
3B15
330
1E
100
AcDbEntity
  8
7
100
AcDbLine
 10
0.9047184552138052
 20
7.815151197142986
 30
0.0
 11
0.7137735733240414
 21
7.815151197142986
 31
0.0
  0
LINE
  5
3B16
330
1E
100
AcDbEntity
  8
7
100
AcDbLine
 10
0.9145609748988441
 20
7.82105670895401
 30
0.0
 11
0.9047184552138052
 21
7.815151197142986
 31
0.0
  0
LINE
  5
3B17
330
1E
100
AcDbEntity
  8
7
100
AcDbLine
 10
0.7137735733240414
 20
7.815151197142986
 30
0.0
 11
0.7039310536390016
 21
7.82105670895401
 31
0.0
  0
LINE
  5
3B18
330
1E
100
AcDbEntity
  8
7
100
AcDbLine
 10
0.9047184552138052
 20
7.949009464859523
 30
0.0
 11
0.7137735733240414
 21
7.949009464859523
 31
0.0
  0
LINE
  5
3B1E
330
1E
100
AcDbEntity
  8
7
100
AcDbLine
 10
0.8692853843476635
 20
7.958851984544562
 30
0.0
 11
0.7492066441901831
 21
7.958851984544562
 31
0.0
  0
LINE
  5
3B24
330
1E
100
AcDbEntity
  8
7
100
AcDbLine
 10
0.9047184552138052
 20
7.949009464859523
 30
0.0
 11
0.9145609748988441
 21
7.941135449111492
 31
0.0
  0
LINE
  5
3B25
330
1E
100
AcDbEntity
  8
7
100
AcDbLine
 10
0.7039310536390016
 20
7.941135449111492
 30
0.0
 11
0.7137735733240414
 21
7.949009464859523
 31
0.0
  0
LINE
  5
3B2B
330
1E
100
AcDbEntity
  8
7
100
AcDbLine
 10
0.8692853843476635
 20
7.805308677457947
 30
0.0
 11
0.7492066441901831
 21
7.805308677457947
 31
0.0
  0
LINE
  5
3B46
330
1E
100
AcDbEntity
  8
7
100
AcDbLine
 10
0.8692853843476635
 20
7.958851984544562
 30
0.0
 11
0.7492066441901831
 21
7.958851984544562
 31
0.0
  0
LINE
  5
3B50
330
1E
100
AcDbEntity
  8
7
100
AcDbLine
 10
0.8692853843476635
 20
7.805308677457947
 30
0.0
 11
0.7492066441901831
 21
7.805308677457947
 31
0.0
  0
LINE
  5
3B51
330
1E
100
AcDbEntity
  8
7
100
AcDbLine
 10
0.0681042819854589
 20
5.118300803442199
 30
0.0
 11
0.0681042819854589
 21
5.137985842812279
 31
0.0
  0
LINE
  5
3B52
330
1E
100
AcDbEntity
  8
7
100
AcDbLine
 10
0.0681042819854589
 20
5.153733874308342
 30
0.0
 11
0.0681042819854589
 21
5.137985842812279
 31
0.0
  0
LINE
  5
3B58
330
1E
100
AcDbEntity
  8
7
100
AcDbLine
 10
0.0661357780484506
 20
5.179324425489443
 30
0.0
 11
0.0661357780484506
 21
5.177355921552436
 31
0.0
  0
LINE
  5
3B59
330
1E
100
AcDbEntity
  8
7
100
AcDbLine
 10
0.0661357780484506
 20
5.179324425489443
 30
0.0
 11
0.0661357780484506
 21
5.187198441237475
 31
0.0
  0
LINE
  5
3B5A
330
1E
100
AcDbEntity
  8
7
100
AcDbLine
 10
0.0681042819854589
 20
5.202946472733538
 30
0.0
 11
0.0661357780484506
 21
5.187198441237475
 31
0.0
  0
LINE
  5
3B62
330
1E
100
AcDbEntity
  8
7
100
AcDbLine
 10
0.2807027071823089
 20
5.153733874308342
 30
0.0
 11
0.2826712111193172
 21
5.175387417615429
 31
0.0
  0
LINE
  5
3B68
330
1E
100
AcDbEntity
  8
7
100
AcDbLine
 10
0.2807027071823089
 20
5.202946472733538
 30
0.0
 11
0.0681042819854589
 21
5.202946472733538
 31
0.0
  0
LINE
  5
3B69
330
1E
100
AcDbEntity
  8
7
100
AcDbLine
 10
0.0661357780484506
 20
5.187198441237475
 30
0.0
 11
0.2826712111193172
 21
5.187198441237475
 31
0.0
  0
LINE
  5
3B6A
330
1E
100
AcDbEntity
  8
7
100
AcDbLine
 10
0.2826712111193172
 20
5.179324425489443
 30
0.0
 11
0.0661357780484506
 21
5.179324425489443
 31
0.0
  0
LINE
  5
3B6B
330
1E
100
AcDbEntity
  8
7
100
AcDbLine
 10
0.0661357780484506
 20
5.177355921552436
 30
0.0
 11
0.2826712111193172
 21
5.177355921552436
 31
0.0
  0
LINE
  5
3B6C
330
1E
100
AcDbEntity
  8
7
100
AcDbLine
 10
0.2826712111193172
 20
5.175387417615429
 30
0.0
 11
0.0661357780484506
 21
5.175387417615429
 31
0.0
  0
LINE
  5
3B6D
330
1E
100
AcDbEntity
  8
7
100
AcDbLine
 10
0.2807027071823089
 20
5.153733874308342
 30
0.0
 11
0.0681042819854589
 21
5.153733874308342
 31
0.0
  0
LINE
  5
3B6E
330
1E
100
AcDbEntity
  8
7
100
AcDbLine
 10
0.0681042819854589
 20
5.137985842812279
 30
0.0
 11
0.2807027071823089
 21
5.137985842812279
 31
0.0
  0
LINE
  5
3B6F
330
1E
100
AcDbEntity
  8
7
100
AcDbLine
 10
0.7019625497019942
 20
5.118300803442199
 30
0.0
 11
0.7039310536390016
 21
5.137985842812279
 31
0.0
  0
LINE
  5
3B70
330
1E
100
AcDbEntity
  8
7
100
AcDbLine
 10
0.7019625497019942
 20
5.153733874308342
 30
0.0
 11
0.7039310536390016
 21
5.137985842812279
 31
0.0
  0
LINE
  5
3B76
330
1E
100
AcDbEntity
  8
7
100
AcDbLine
 10
0.7019625497019942
 20
5.179324425489443
 30
0.0
 11
0.7019625497019942
 21
5.177355921552436
 31
0.0
  0
LINE
  5
3B77
330
1E
100
AcDbEntity
  8
7
100
AcDbLine
 10
0.7019625497019942
 20
5.179324425489443
 30
0.0
 11
0.7019625497019942
 21
5.187198441237475
 31
0.0
  0
LINE
  5
3B78
330
1E
100
AcDbEntity
  8
7
100
AcDbLine
 10
0.7039310536390016
 20
5.202946472733538
 30
0.0
 11
0.7019625497019942
 21
5.187198441237475
 31
0.0
  0
LINE
  5
3B80
330
1E
100
AcDbEntity
  8
7
100
AcDbLine
 10
0.9165294788358524
 20
5.153733874308342
 30
0.0
 11
0.9165294788358524
 21
5.175387417615429
 31
0.0
  0
LINE
  5
3B86
330
1E
100
AcDbEntity
  8
7
100
AcDbLine
 10
0.9145609748988441
 20
5.202946472733538
 30
0.0
 11
0.7039310536390016
 21
5.202946472733538
 31
0.0
  0
LINE
  5
3B87
330
1E
100
AcDbEntity
  8
7
100
AcDbLine
 10
0.7019625497019942
 20
5.187198441237475
 30
0.0
 11
0.9165294788358524
 21
5.187198441237475
 31
0.0
  0
LINE
  5
3B88
330
1E
100
AcDbEntity
  8
7
100
AcDbLine
 10
0.9165294788358524
 20
5.179324425489443
 30
0.0
 11
0.7019625497019942
 21
5.179324425489443
 31
0.0
  0
LINE
  5
3B89
330
1E
100
AcDbEntity
  8
7
100
AcDbLine
 10
0.7019625497019942
 20
5.177355921552436
 30
0.0
 11
0.9165294788358524
 21
5.177355921552436
 31
0.0
  0
LINE
  5
3B8A
330
1E
100
AcDbEntity
  8
7
100
AcDbLine
 10
0.9165294788358524
 20
5.175387417615429
 30
0.0
 11
0.7019625497019942
 21
5.175387417615429
 31
0.0
  0
LINE
  5
3B8B
330
1E
100
AcDbEntity
  8
7
100
AcDbLine
 10
0.9165294788358524
 20
5.153733874308342
 30
0.0
 11
0.7019625497019942
 21
5.153733874308342
 31
0.0
  0
LINE
  5
3B8C
330
1E
100
AcDbEntity
  8
7
100
AcDbLine
 10
0.7039310536390016
 20
5.137985842812279
 30
0.0
 11
0.9145609748988441
 21
5.137985842812279
 31
0.0
  0
LINE
  5
3B98
330
1E
100
AcDbEntity
  8
7
100
AcDbLine
 10
0.0661357780484506
 20
6.677355921552436
 30
0.0
 11
0.0661357780484506
 21
6.685229937300467
 31
0.0
  0
LINE
  5
3B99
330
1E
100
AcDbEntity
  8
7
100
AcDbLine
 10
0.2826712111193172
 20
6.677355921552436
 30
0.0
 11
0.0661357780484506
 21
6.677355921552436
 31
0.0
  0
LINE
  5
3B9A
330
1E
100
AcDbEntity
  8
7
100
AcDbLine
 10
0.2826712111193172
 20
6.677355921552436
 30
0.0
 11
0.2826712111193172
 21
6.675387417615429
 31
0.0
  0
LINE
  5
3BA1
330
1E
100
AcDbEntity
  8
7
100
AcDbLine
 10
0.0661357780484506
 20
6.673418913678419
 30
0.0
 11
0.0661357780484506
 21
6.675387417615429
 31
0.0
  0
LINE
  5
3BA2
330
1E
100
AcDbEntity
  8
7
100
AcDbLine
 10
0.2826712111193172
 20
6.673418913678419
 30
0.0
 11
0.0661357780484506
 21
6.673418913678419
 31
0.0
  0
LINE
  5
3BA3
330
1E
100
AcDbEntity
  8
7
100
AcDbLine
 10
0.2807027071823089
 20
6.651765370371332
 30
0.0
 11
0.2826712111193172
 21
6.673418913678419
 31
0.0
  0
LINE
  5
3BA4
330
1E
100
AcDbEntity
  8
7
100
AcDbLine
 10
0.0681042819854589
 20
6.651765370371332
 30
0.0
 11
0.0661357780484506
 21
6.673418913678419
 31
0.0
  0
LINE
  5
3BB0
330
1E
100
AcDbEntity
  8
7
100
AcDbLine
 10
0.0681042819854589
 20
6.616332299505192
 30
0.0
 11
0.0681042819854589
 21
6.636017338875269
 31
0.0
  0
LINE
  5
3BBC
330
1E
100
AcDbEntity
  8
7
100
AcDbLine
 10
0.7019625497019942
 20
6.677355921552436
 30
0.0
 11
0.7019625497019942
 21
6.685229937300467
 31
0.0
  0
LINE
  5
3BBD
330
1E
100
AcDbEntity
  8
7
100
AcDbLine
 10
0.9165294788358524
 20
6.677355921552436
 30
0.0
 11
0.7019625497019942
 21
6.677355921552436
 31
0.0
  0
LINE
  5
3BBE
330
1E
100
AcDbEntity
  8
7
100
AcDbLine
 10
0.9165294788358524
 20
6.677355921552436
 30
0.0
 11
0.9165294788358524
 21
6.675387417615429
 31
0.0
  0
LINE
  5
3BC5
330
1E
100
AcDbEntity
  8
7
100
AcDbLine
 10
0.7019625497019942
 20
6.673418913678419
 30
0.0
 11
0.7019625497019942
 21
6.675387417615429
 31
0.0
  0
LINE
  5
3BC6
330
1E
100
AcDbEntity
  8
7
100
AcDbLine
 10
0.9165294788358524
 20
6.673418913678419
 30
0.0
 11
0.7019625497019942
 21
6.673418913678419
 31
0.0
  0
LINE
  5
3BC7
330
1E
100
AcDbEntity
  8
7
100
AcDbLine
 10
0.9165294788358524
 20
6.651765370371332
 30
0.0
 11
0.9165294788358524
 21
6.673418913678419
 31
0.0
  0
LINE
  5
3BC8
330
1E
100
AcDbEntity
  8
7
100
AcDbLine
 10
0.7019625497019942
 20
6.651765370371332
 30
0.0
 11
0.7019625497019942
 21
6.673418913678419
 31
0.0
  0
LINE
  5
3BD4
330
1E
100
AcDbEntity
  8
7
100
AcDbLine
 10
0.7019625497019942
 20
6.616332299505192
 30
0.0
 11
0.7039310536390016
 21
6.636017338875269
 31
0.0
  0
LINE
  5
3BD5
330
1E
100
AcDbEntity
  8
7
100
AcDbLine
 10
1.337789321355537
 20
5.118300803442199
 30
0.0
 11
1.337789321355537
 21
5.137985842812279
 31
0.0
  0
LINE
  5
3BD6
330
1E
100
AcDbEntity
  8
7
100
AcDbLine
 10
1.337789321355537
 20
5.153733874308342
 30
0.0
 11
1.337789321355537
 21
5.137985842812279
 31
0.0
  0
LINE
  5
3BDC
330
1E
100
AcDbEntity
  8
7
100
AcDbLine
 10
1.335820817418529
 20
5.179324425489443
 30
0.0
 11
1.335820817418529
 21
5.177355921552436
 31
0.0
  0
LINE
  5
3BDD
330
1E
100
AcDbEntity
  8
7
100
AcDbLine
 10
1.335820817418529
 20
5.179324425489443
 30
0.0
 11
1.335820817418529
 21
5.187198441237475
 31
0.0
  0
LINE
  5
3BDE
330
1E
100
AcDbEntity
  8
7
100
AcDbLine
 10
1.337789321355537
 20
5.202946472733538
 30
0.0
 11
1.335820817418529
 21
5.187198441237475
 31
0.0
  0
LINE
  5
3BE9
330
1E
100
AcDbEntity
  8
7
100
AcDbLine
 10
1.550387746552387
 20
5.153733874308342
 30
0.0
 11
1.552356250489395
 21
5.175387417615429
 31
0.0
  0
LINE
  5
3BEF
330
1E
100
AcDbEntity
  8
7
100
AcDbLine
 10
1.550387746552387
 20
5.202946472733538
 30
0.0
 11
1.337789321355537
 21
5.202946472733538
 31
0.0
  0
LINE
  5
3BF0
330
1E
100
AcDbEntity
  8
7
100
AcDbLine
 10
1.335820817418529
 20
5.187198441237475
 30
0.0
 11
1.552356250489395
 21
5.187198441237475
 31
0.0
  0
LINE
  5
3BF1
330
1E
100
AcDbEntity
  8
7
100
AcDbLine
 10
1.552356250489395
 20
5.179324425489443
 30
0.0
 11
1.335820817418529
 21
5.179324425489443
 31
0.0
  0
LINE
  5
3BF2
330
1E
100
AcDbEntity
  8
7
100
AcDbLine
 10
1.335820817418529
 20
5.177355921552436
 30
0.0
 11
1.552356250489395
 21
5.177355921552436
 31
0.0
  0
LINE
  5
3BF3
330
1E
100
AcDbEntity
  8
7
100
AcDbLine
 10
1.552356250489395
 20
5.175387417615429
 30
0.0
 11
1.335820817418529
 21
5.175387417615429
 31
0.0
  0
LINE
  5
3BF4
330
1E
100
AcDbEntity
  8
7
100
AcDbLine
 10
1.550387746552387
 20
5.153733874308342
 30
0.0
 11
1.337789321355537
 21
5.153733874308342
 31
0.0
  0
LINE
  5
3BF5
330
1E
100
AcDbEntity
  8
7
100
AcDbLine
 10
1.337789321355537
 20
5.137985842812279
 30
0.0
 11
1.550387746552387
 21
5.137985842812279
 31
0.0
  0
LINE
  5
3C01
330
1E
100
AcDbEntity
  8
7
100
AcDbLine
 10
1.335820817418529
 20
6.677355921552436
 30
0.0
 11
1.335820817418529
 21
6.685229937300467
 31
0.0
  0
LINE
  5
3C02
330
1E
100
AcDbEntity
  8
7
100
AcDbLine
 10
1.552356250489395
 20
6.677355921552436
 30
0.0
 11
1.335820817418529
 21
6.677355921552436
 31
0.0
  0
LINE
  5
3C03
330
1E
100
AcDbEntity
  8
7
100
AcDbLine
 10
1.552356250489395
 20
6.677355921552436
 30
0.0
 11
1.552356250489395
 21
6.675387417615429
 31
0.0
  0
LINE
  5
3C0A
330
1E
100
AcDbEntity
  8
7
100
AcDbLine
 10
1.335820817418529
 20
6.673418913678419
 30
0.0
 11
1.335820817418529
 21
6.675387417615429
 31
0.0
  0
LINE
  5
3C0B
330
1E
100
AcDbEntity
  8
7
100
AcDbLine
 10
1.552356250489395
 20
6.673418913678419
 30
0.0
 11
1.335820817418529
 21
6.673418913678419
 31
0.0
  0
LINE
  5
3C0C
330
1E
100
AcDbEntity
  8
7
100
AcDbLine
 10
1.550387746552387
 20
6.651765370371332
 30
0.0
 11
1.552356250489395
 21
6.673418913678419
 31
0.0
  0
LINE
  5
3C0D
330
1E
100
AcDbEntity
  8
7
100
AcDbLine
 10
1.337789321355537
 20
6.651765370371332
 30
0.0
 11
1.335820817418529
 21
6.673418913678419
 31
0.0
  0
LINE
  5
3C19
330
1E
100
AcDbEntity
  8
7
100
AcDbLine
 10
1.337789321355537
 20
6.616332299505192
 30
0.0
 11
1.337789321355537
 21
6.636017338875269
 31
0.0
  0
LINE
  5
3C7D
330
1E
100
AcDbEntity
  8
7
100
AcDbLine
 10
5.715742077261047
 20
8.427355921552436
 30
0.0
 11
5.715742077261047
 21
4.055308677457947
 31
0.0
  0
LINE
  5
3C7E
330
1E
100
AcDbEntity
  8
7
100
AcDbLine
 10
5.503143652064197
 20
4.218694504229601
 30
0.0
 11
5.503143652064197
 21
8.263970094780782
 31
0.0
  0
LINE
  5
3C8E
330
1E
100
AcDbEntity
  8
7
100
AcDbLine
 10
5.503143652064197
 20
4.218694504229601
 30
0.0
 11
5.509049163875221
 21
4.16357639399338
 31
0.0
  0
LINE
  5
3CA0
330
1E
100
AcDbEntity
  8
7
100
AcDbLine
 10
5.936214518205929
 20
5.118300803442199
 30
0.0
 11
5.776765699308292
 21
5.019875606591806
 31
0.0
  0
LINE
  5
3CA1
330
1E
100
AcDbEntity
  8
7
100
AcDbLine
 10
5.936214518205929
 20
6.616332299505192
 30
0.0
 11
5.776765699308292
 21
6.517907102654797
 31
0.0
  0
LINE
  5
3CA8
330
1E
100
AcDbEntity
  8
7
100
AcDbLine
 10
5.776765699308292
 20
4.051371669583932
 30
0.0
 11
5.776765699308292
 21
8.431292929426451
 31
0.0
  0
LINE
  5
3CAF
330
1E
100
AcDbEntity
  8
7
100
AcDbLine
 10
5.715742077261047
 20
8.48837954359968
 30
0.0
 11
5.776765699308292
 21
8.492316551473695
 31
0.0
  0
LINE
  5
3CB0
330
1E
100
AcDbEntity
  8
7
100
AcDbLine
 10
5.776765699308292
 20
3.992316551473695
 30
0.0
 11
5.715742077261047
 21
3.994285055410703
 31
0.0
  0
LINE
  5
3CB1
330
1E
100
AcDbEntity
  8
7
100
AcDbLine
 10
5.715742077261047
 20
4.055308677457947
 30
0.0
 11
5.776765699308292
 21
4.051371669583932
 31
0.0
  0
LINE
  5
3CB2
330
1E
100
AcDbEntity
  8
7
100
AcDbLine
 10
5.776765699308292
 20
8.431292929426451
 30
0.0
 11
5.715742077261047
 21
8.427355921552436
 31
0.0
  0
LINE
  5
3CC1
330
1E
100
AcDbEntity
  8
7
100
AcDbLine
 10
5.192120030016953
 20
7.067119701079995
 30
0.0
 11
5.503143652064197
 21
6.529718126276845
 31
0.0
  0
LINE
  5
3CC2
330
1E
100
AcDbEntity
  8
7
100
AcDbLine
 10
5.503143652064197
 20
6.350584268009129
 30
0.0
 11
5.115348376473646
 21
7.021844110528814
 31
0.0
  0
LINE
  5
3CC3
330
1E
100
AcDbEntity
  8
7
100
AcDbLine
 10
5.119285384347662
 20
7.120269307379206
 30
0.0
 11
5.503143652064197
 21
7.667513401867395
 31
0.0
  0
LINE
  5
3CC4
330
1E
100
AcDbEntity
  8
7
100
AcDbLine
 10
5.503143652064197
 20
7.510033086906766
 30
0.0
 11
5.192120030016953
 21
7.067119701079995
 31
0.0
  0
LINE
  5
3CD6
330
1E
100
AcDbEntity
  8
7
100
AcDbLine
 10
5.119285384347662
 20
5.622237811316216
 30
0.0
 11
5.503143652064197
 21
6.169481905804405
 31
0.0
  0
LINE
  5
3CDC
330
1E
100
AcDbEntity
  8
7
100
AcDbLine
 10
5.503143652064197
 20
4.852552771946136
 30
0.0
 11
5.115348376473646
 21
5.523812614465821
 31
0.0
  0
LINE
  5
3CEE
330
1E
100
AcDbEntity
  8
7
100
AcDbLine
 10
5.934246014268921
 20
5.153733874308342
 30
0.0
 11
5.906686959150812
 21
5.175387417615429
 31
0.0
  0
LINE
  5
3D03
330
1E
100
AcDbEntity
  8
7
100
AcDbLine
 10
5.934246014268921
 20
6.651765370371332
 30
0.0
 11
5.906686959150812
 21
6.673418913678419
 31
0.0
  0
LINE
  5
3D09
330
1E
100
AcDbEntity
  8
7
100
AcDbLine
 10
6.089757825292544
 20
6.628143323127238
 30
0.0
 11
6.103537352851599
 21
6.634048834938262
 31
0.0
  0
LINE
  5
3D0A
330
1E
100
AcDbEntity
  8
7
100
AcDbLine
 10
5.776765699308292
 20
6.417513401867395
 30
0.0
 11
6.089757825292544
 21
6.628143323127238
 31
0.0
  0
LINE
  5
4367
330
1E
100
AcDbEntity
  8
7
100
AcDbLine
 10
5.934246014268921
 20
6.651765370371332
 30
0.0
 11
5.942120030016953
 21
6.636017338875269
 31
0.0
  0
LINE
  5
4368
330
1E
100
AcDbEntity
  8
7
100
AcDbLine
 10
5.942120030016953
 20
6.636017338875269
 30
0.0
 11
5.936214518205929
 21
6.616332299505192
 31
0.0
  0
LINE
  5
4369
330
1E
100
AcDbEntity
  8
7
100
AcDbLine
 10
5.942120030016953
 20
6.70097796879653
 30
0.0
 11
5.904718455213803
 21
6.685229937300467
 31
0.0
  0
LINE
  5
436A
330
1E
100
AcDbEntity
  8
7
100
AcDbLine
 10
5.904718455213803
 20
6.685229937300467
 30
0.0
 11
5.902749951276796
 21
6.677355921552436
 31
0.0
  0
LINE
  5
436B
330
1E
100
AcDbEntity
  8
7
100
AcDbLine
 10
5.902749951276796
 20
6.677355921552436
 30
0.0
 11
5.904718455213803
 21
6.675387417615429
 31
0.0
  0
LINE
  5
436C
330
1E
100
AcDbEntity
  8
7
100
AcDbLine
 10
5.904718455213803
 20
6.675387417615429
 30
0.0
 11
5.906686959150812
 21
6.673418913678419
 31
0.0
  0
LINE
  5
436D
330
1E
100
AcDbEntity
  8
7
100
AcDbLine
 10
6.103537352851599
 20
6.634048834938262
 30
0.0
 11
6.17637199852089
 21
6.637985842812279
 31
0.0
  0
LINE
  5
436E
330
1E
100
AcDbEntity
  8
7
100
AcDbLine
 10
6.17637199852089
 20
6.637985842812279
 30
0.0
 11
6.192120030016953
 21
6.651765370371332
 31
0.0
  0
LINE
  5
436F
330
1E
100
AcDbEntity
  8
7
100
AcDbLine
 10
6.192120030016953
 20
6.651765370371332
 30
0.0
 11
6.192120030016953
 21
6.673418913678419
 31
0.0
  0
LINE
  5
4370
330
1E
100
AcDbEntity
  8
7
100
AcDbLine
 10
6.192120030016953
 20
6.673418913678419
 30
0.0
 11
6.17637199852089
 21
6.689166945174482
 31
0.0
  0
LINE
  5
4371
330
1E
100
AcDbEntity
  8
7
100
AcDbLine
 10
6.17637199852089
 20
6.689166945174482
 30
0.0
 11
5.942120030016953
 21
6.70097796879653
 31
0.0
  0
LINE
  5
4372
330
1E
100
AcDbEntity
  8
7
100
AcDbLine
 10
5.934246014268921
 20
5.153733874308342
 30
0.0
 11
5.942120030016953
 21
5.137985842812279
 31
0.0
  0
LINE
  5
4373
330
1E
100
AcDbEntity
  8
7
100
AcDbLine
 10
5.942120030016953
 20
5.137985842812279
 30
0.0
 11
5.936214518205929
 21
5.118300803442199
 31
0.0
  0
LINE
  5
4374
330
1E
100
AcDbEntity
  8
7
100
AcDbLine
 10
5.904718455213803
 20
5.187198441237475
 30
0.0
 11
5.902749951276796
 21
5.179324425489443
 31
0.0
  0
LINE
  5
4375
330
1E
100
AcDbEntity
  8
7
100
AcDbLine
 10
5.902749951276796
 20
5.179324425489443
 30
0.0
 11
5.904718455213803
 21
5.177355921552436
 31
0.0
  0
LINE
  5
4376
330
1E
100
AcDbEntity
  8
7
100
AcDbLine
 10
5.904718455213803
 20
5.177355921552436
 30
0.0
 11
5.906686959150812
 21
5.175387417615429
 31
0.0
  0
LINE
  5
4377
330
1E
100
AcDbEntity
  8
7
100
AcDbLine
 10
5.776765699308292
 20
4.919481905804405
 30
0.0
 11
6.089757825292544
 21
5.130111827064247
 31
0.0
  0
LINE
  5
4378
330
1E
100
AcDbEntity
  8
7
100
AcDbLine
 10
6.089757825292544
 20
5.130111827064247
 30
0.0
 11
6.103537352851599
 21
5.136017338875269
 31
0.0
  0
LINE
  5
4379
330
1E
100
AcDbEntity
  8
7
100
AcDbLine
 10
6.103537352851599
 20
5.136017338875269
 30
0.0
 11
6.17637199852089
 21
5.139954346749286
 31
0.0
  0
LINE
  5
437A
330
1E
100
AcDbEntity
  8
7
100
AcDbLine
 10
6.17637199852089
 20
5.139954346749286
 30
0.0
 11
6.192120030016953
 21
5.153733874308342
 31
0.0
  0
LINE
  5
437B
330
1E
100
AcDbEntity
  8
7
100
AcDbLine
 10
6.192120030016953
 20
5.153733874308342
 30
0.0
 11
6.192120030016953
 21
5.175387417615429
 31
0.0
  0
LINE
  5
437C
330
1E
100
AcDbEntity
  8
7
100
AcDbLine
 10
6.192120030016953
 20
5.175387417615429
 30
0.0
 11
6.17637199852089
 21
5.191135449111492
 31
0.0
  0
LINE
  5
437D
330
1E
100
AcDbEntity
  8
7
100
AcDbLine
 10
6.17637199852089
 20
5.191135449111492
 30
0.0
 11
5.942120030016953
 21
5.202946472733538
 31
0.0
  0
LINE
  5
437E
330
1E
100
AcDbEntity
  8
7
100
AcDbLine
 10
5.942120030016953
 20
5.202946472733538
 30
0.0
 11
5.904718455213803
 21
5.187198441237475
 31
0.0
  0
LINE
  5
437F
330
1E
100
AcDbEntity
  8
7
100
AcDbLine
 10
5.503143652064197
 20
6.012001590843775
 30
0.0
 11
5.192120030016953
 21
5.569088205017003
 31
0.0
  0
LINE
  5
4380
330
1E
100
AcDbEntity
  8
7
100
AcDbLine
 10
5.192120030016953
 20
5.569088205017003
 30
0.0
 11
5.503143652064197
 21
5.031686630213853
 31
0.0
  0
LINE
  5
4381
330
1E
100
AcDbEntity
  8
7
100
AcDbLine
 10
5.192120030016953
 20
5.569088205017003
 30
0.0
 11
5.152749951276796
 21
5.547434661709916
 31
0.0
  0
LINE
  5
4382
330
1E
100
AcDbEntity
  8
7
100
AcDbLine
 10
5.152749951276796
 20
5.547434661709916
 30
0.0
 11
5.125190896158686
 21
5.529718126276845
 31
0.0
  0
LINE
  5
4383
330
1E
100
AcDbEntity
  8
7
100
AcDbLine
 10
5.125190896158686
 20
5.529718126276845
 30
0.0
 11
5.115348376473646
 21
5.523812614465821
 31
0.0
  0
LINE
  5
4384
330
1E
100
AcDbEntity
  8
7
100
AcDbLine
 10
5.192120030016953
 20
5.569088205017003
 30
0.0
 11
5.154718455213803
 21
5.596647260135112
 31
0.0
  0
LINE
  5
4385
330
1E
100
AcDbEntity
  8
7
100
AcDbLine
 10
5.154718455213803
 20
5.596647260135112
 30
0.0
 11
5.129127904032701
 21
5.614363795568184
 31
0.0
  0
LINE
  5
4386
330
1E
100
AcDbEntity
  8
7
100
AcDbLine
 10
5.129127904032701
 20
5.614363795568184
 30
0.0
 11
5.119285384347662
 21
5.622237811316216
 31
0.0
  0
LINE
  5
4387
330
1E
100
AcDbEntity
  8
7
100
AcDbLine
 10
5.119285384347662
 20
5.622237811316216
 30
0.0
 11
5.103537352851599
 21
5.573025212891018
 31
0.0
  0
LINE
  5
4388
330
1E
100
AcDbEntity
  8
7
100
AcDbLine
 10
5.103537352851599
 20
5.573025212891018
 30
0.0
 11
5.115348376473646
 21
5.523812614465821
 31
0.0
  0
LINE
  5
4389
330
1E
100
AcDbEntity
  8
7
100
AcDbLine
 10
5.115348376473646
 20
7.021844110528814
 30
0.0
 11
5.125190896158686
 21
7.027749622339838
 31
0.0
  0
LINE
  5
438A
330
1E
100
AcDbEntity
  8
7
100
AcDbLine
 10
5.125190896158686
 20
7.027749622339838
 30
0.0
 11
5.152749951276796
 21
7.045466157772908
 31
0.0
  0
LINE
  5
438B
330
1E
100
AcDbEntity
  8
7
100
AcDbLine
 10
5.152749951276796
 20
7.045466157772908
 30
0.0
 11
5.192120030016953
 21
7.067119701079995
 31
0.0
  0
LINE
  5
438C
330
1E
100
AcDbEntity
  8
7
100
AcDbLine
 10
5.192120030016953
 20
7.067119701079995
 30
0.0
 11
5.154718455213803
 21
7.094678756198105
 31
0.0
  0
LINE
  5
438D
330
1E
100
AcDbEntity
  8
7
100
AcDbLine
 10
5.154718455213803
 20
7.094678756198105
 30
0.0
 11
5.129127904032701
 21
7.112395291631175
 31
0.0
  0
LINE
  5
438E
330
1E
100
AcDbEntity
  8
7
100
AcDbLine
 10
5.129127904032701
 20
7.112395291631175
 30
0.0
 11
5.119285384347662
 21
7.120269307379206
 31
0.0
  0
LINE
  5
438F
330
1E
100
AcDbEntity
  8
7
100
AcDbLine
 10
5.119285384347662
 20
7.120269307379206
 30
0.0
 11
5.103537352851599
 21
7.07105670895401
 31
0.0
  0
LINE
  5
4390
330
1E
100
AcDbEntity
  8
7
100
AcDbLine
 10
5.103537352851599
 20
7.07105670895401
 30
0.0
 11
5.115348376473646
 21
7.021844110528814
 31
0.0
  0
LINE
  5
4391
330
1E
100
AcDbEntity
  8
7
100
AcDbLine
 10
5.776765699308292
 20
4.051371669583932
 30
0.0
 11
5.776765699308292
 21
4.021844110528814
 31
0.0
  0
LINE
  5
4392
330
1E
100
AcDbEntity
  8
7
100
AcDbLine
 10
5.776765699308292
 20
4.021844110528814
 30
0.0
 11
5.776765699308292
 21
4.000190567221727
 31
0.0
  0
LINE
  5
4393
330
1E
100
AcDbEntity
  8
7
100
AcDbLine
 10
5.776765699308292
 20
4.000190567221727
 30
0.0
 11
5.776765699308292
 21
3.992316551473695
 31
0.0
  0
LINE
  5
4394
330
1E
100
AcDbEntity
  8
7
100
AcDbLine
 10
5.776765699308292
 20
8.492316551473695
 30
0.0
 11
5.776765699308292
 21
8.482474031788656
 31
0.0
  0
LINE
  5
4395
330
1E
100
AcDbEntity
  8
7
100
AcDbLine
 10
5.776765699308292
 20
8.482474031788656
 30
0.0
 11
5.776765699308292
 21
8.460820488481569
 31
0.0
  0
LINE
  5
4396
330
1E
100
AcDbEntity
  8
7
100
AcDbLine
 10
5.776765699308292
 20
8.460820488481569
 30
0.0
 11
5.776765699308292
 21
8.431292929426451
 31
0.0
  0
LINE
  5
4397
330
1E
100
AcDbEntity
  8
7
100
AcDbLine
 10
5.715742077261047
 20
8.48837954359968
 30
0.0
 11
5.65865546308782
 21
8.47853702391464
 31
0.0
  0
LINE
  5
4398
330
1E
100
AcDbEntity
  8
7
100
AcDbLine
 10
5.65865546308782
 20
8.47853702391464
 30
0.0
 11
5.607474360725614
 21
8.454914976670545
 31
0.0
  0
LINE
  5
4399
330
1E
100
AcDbEntity
  8
7
100
AcDbLine
 10
5.607474360725614
 20
8.454914976670545
 30
0.0
 11
5.564167274111442
 21
8.417513401867395
 31
0.0
  0
LINE
  5
439A
330
1E
100
AcDbEntity
  8
7
100
AcDbLine
 10
5.564167274111442
 20
8.417513401867395
 30
0.0
 11
5.530702707182307
 21
8.372237811316216
 31
0.0
  0
LINE
  5
439B
330
1E
100
AcDbEntity
  8
7
100
AcDbLine
 10
5.530702707182307
 20
8.372237811316216
 30
0.0
 11
5.509049163875221
 21
8.319088205017003
 31
0.0
  0
LINE
  5
439C
330
1E
100
AcDbEntity
  8
7
100
AcDbLine
 10
5.509049163875221
 20
8.319088205017003
 30
0.0
 11
5.503143652064197
 21
8.263970094780782
 31
0.0
  0
LINE
  5
439D
330
1E
100
AcDbEntity
  8
7
100
AcDbLine
 10
5.509049163875221
 20
4.16357639399338
 30
0.0
 11
5.530702707182307
 21
4.110426787694168
 31
0.0
  0
LINE
  5
439E
330
1E
100
AcDbEntity
  8
7
100
AcDbLine
 10
5.530702707182307
 20
4.110426787694168
 30
0.0
 11
5.564167274111442
 21
4.065151197142986
 31
0.0
  0
LINE
  5
439F
330
1E
100
AcDbEntity
  8
7
100
AcDbLine
 10
5.564167274111442
 20
4.065151197142986
 30
0.0
 11
5.607474360725614
 21
4.027749622339838
 31
0.0
  0
LINE
  5
43A0
330
1E
100
AcDbEntity
  8
7
100
AcDbLine
 10
5.607474360725614
 20
4.027749622339838
 30
0.0
 11
5.65865546308782
 21
4.004127575095743
 31
0.0
  0
LINE
  5
43A1
330
1E
100
AcDbEntity
  8
7
100
AcDbLine
 10
5.65865546308782
 20
4.004127575095743
 30
0.0
 11
5.715742077261047
 21
3.994285055410703
 31
0.0
  0
LINE
  5
43A2
330
1E
100
AcDbEntity
  8
7
100
AcDbLine
 10
5.715742077261047
 20
3.994285055410703
 30
0.0
 11
5.71377357332404
 21
4.002159071158734
 31
0.0
  0
LINE
  5
43A3
330
1E
100
AcDbEntity
  8
7
100
AcDbLine
 10
5.71377357332404
 20
4.002159071158734
 30
0.0
 11
5.71377357332404
 21
4.023812614465821
 31
0.0
  0
LINE
  5
43A4
330
1E
100
AcDbEntity
  8
7
100
AcDbLine
 10
5.71377357332404
 20
4.023812614465821
 30
0.0
 11
5.715742077261047
 21
4.055308677457947
 31
0.0
  0
LINE
  5
43A5
330
1E
100
AcDbEntity
  8
7
100
AcDbLine
 10
5.715742077261047
 20
3.994285055410703
 30
0.0
 11
5.65865546308782
 21
4.004127575095743
 31
0.0
  0
LINE
  5
43A6
330
1E
100
AcDbEntity
  8
7
100
AcDbLine
 10
5.65865546308782
 20
4.004127575095743
 30
0.0
 11
5.607474360725614
 21
4.027749622339838
 31
0.0
  0
LINE
  5
43A7
330
1E
100
AcDbEntity
  8
7
100
AcDbLine
 10
5.607474360725614
 20
4.027749622339838
 30
0.0
 11
5.564167274111442
 21
4.065151197142986
 31
0.0
  0
LINE
  5
43A8
330
1E
100
AcDbEntity
  8
7
100
AcDbLine
 10
5.564167274111442
 20
4.065151197142986
 30
0.0
 11
5.530702707182307
 21
4.110426787694168
 31
0.0
  0
LINE
  5
43A9
330
1E
100
AcDbEntity
  8
7
100
AcDbLine
 10
5.530702707182307
 20
4.110426787694168
 30
0.0
 11
5.509049163875221
 21
4.16357639399338
 31
0.0
  0
LINE
  5
43AA
330
1E
100
AcDbEntity
  8
7
100
AcDbLine
 10
5.509049163875221
 20
4.16357639399338
 30
0.0
 11
5.503143652064197
 21
4.218694504229601
 31
0.0
  0
LINE
  5
43AB
330
1E
100
AcDbEntity
  8
7
100
AcDbLine
 10
5.503143652064197
 20
4.218694504229601
 30
0.0
 11
5.509049163875221
 21
4.177355921552436
 31
0.0
  0
LINE
  5
43AC
330
1E
100
AcDbEntity
  8
7
100
AcDbLine
 10
5.509049163875221
 20
4.177355921552436
 30
0.0
 11
5.530702707182307
 21
4.139954346749286
 31
0.0
  0
LINE
  5
43AD
330
1E
100
AcDbEntity
  8
7
100
AcDbLine
 10
5.530702707182307
 20
4.139954346749286
 30
0.0
 11
5.564167274111442
 21
4.106489779820153
 31
0.0
  0
LINE
  5
43AE
330
1E
100
AcDbEntity
  8
7
100
AcDbLine
 10
5.564167274111442
 20
4.106489779820153
 30
0.0
 11
5.607474360725614
 21
4.078930724702042
 31
0.0
  0
LINE
  5
43AF
330
1E
100
AcDbEntity
  8
7
100
AcDbLine
 10
5.607474360725614
 20
4.078930724702042
 30
0.0
 11
5.65865546308782
 21
4.061214189268971
 31
0.0
  0
LINE
  5
43B0
330
1E
100
AcDbEntity
  8
7
100
AcDbLine
 10
5.65865546308782
 20
4.061214189268971
 30
0.0
 11
5.715742077261047
 21
4.055308677457947
 31
0.0
  0
LINE
  5
43B1
330
1E
100
AcDbEntity
  8
7
100
AcDbLine
 10
5.503143652064197
 20
8.263970094780782
 30
0.0
 11
5.509049163875221
 21
8.319088205017003
 31
0.0
  0
LINE
  5
43B2
330
1E
100
AcDbEntity
  8
7
100
AcDbLine
 10
5.509049163875221
 20
8.319088205017003
 30
0.0
 11
5.530702707182307
 21
8.372237811316216
 31
0.0
  0
LINE
  5
43B3
330
1E
100
AcDbEntity
  8
7
100
AcDbLine
 10
5.530702707182307
 20
8.372237811316216
 30
0.0
 11
5.564167274111442
 21
8.417513401867395
 31
0.0
  0
LINE
  5
43B4
330
1E
100
AcDbEntity
  8
7
100
AcDbLine
 10
5.564167274111442
 20
8.417513401867395
 30
0.0
 11
5.607474360725614
 21
8.454914976670545
 31
0.0
  0
LINE
  5
43B5
330
1E
100
AcDbEntity
  8
7
100
AcDbLine
 10
5.607474360725614
 20
8.454914976670545
 30
0.0
 11
5.65865546308782
 21
8.47853702391464
 31
0.0
  0
LINE
  5
43B6
330
1E
100
AcDbEntity
  8
7
100
AcDbLine
 10
5.65865546308782
 20
8.47853702391464
 30
0.0
 11
5.715742077261047
 21
8.48837954359968
 31
0.0
  0
LINE
  5
43B7
330
1E
100
AcDbEntity
  8
7
100
AcDbLine
 10
5.715742077261047
 20
8.427355921552436
 30
0.0
 11
5.71377357332404
 21
8.458851984544562
 31
0.0
  0
LINE
  5
43B8
330
1E
100
AcDbEntity
  8
7
100
AcDbLine
 10
5.71377357332404
 20
8.458851984544562
 30
0.0
 11
5.71377357332404
 21
8.480505527851649
 31
0.0
  0
LINE
  5
43B9
330
1E
100
AcDbEntity
  8
7
100
AcDbLine
 10
5.71377357332404
 20
8.480505527851649
 30
0.0
 11
5.715742077261047
 21
8.48837954359968
 31
0.0
  0
LINE
  5
43BA
330
1E
100
AcDbEntity
  8
7
100
AcDbLine
 10
5.530702707182307
 20
8.342710252261097
 30
0.0
 11
5.509049163875221
 21
8.305308677457947
 31
0.0
  0
LINE
  5
43BB
330
1E
100
AcDbEntity
  8
7
100
AcDbLine
 10
5.509049163875221
 20
8.305308677457947
 30
0.0
 11
5.503143652064197
 21
8.263970094780782
 31
0.0
  0
LINE
  5
43BC
330
1E
100
AcDbEntity
  8
7
100
AcDbLine
 10
5.715742077261047
 20
8.427355921552436
 30
0.0
 11
5.65865546308782
 21
8.421450409741412
 31
0.0
  0
LINE
  5
43BD
330
1E
100
AcDbEntity
  8
7
100
AcDbLine
 10
5.65865546308782
 20
8.421450409741412
 30
0.0
 11
5.607474360725614
 21
8.403733874308342
 31
0.0
  0
LINE
  5
43BE
330
1E
100
AcDbEntity
  8
7
100
AcDbLine
 10
5.607474360725614
 20
8.403733874308342
 30
0.0
 11
5.564167274111442
 21
8.37617481919023
 31
0.0
  0
LINE
  5
43BF
330
1E
100
AcDbEntity
  8
7
100
AcDbLine
 10
5.564167274111442
 20
8.37617481919023
 30
0.0
 11
5.530702707182307
 21
8.342710252261097
 31
0.0
  0
LINE
  5
43DE
330
1E
100
AcDbEntity
  8
7
100
AcDbLine
 10
1.550387746552387
 20
6.651765370371332
 30
0.0
 11
1.550387746552387
 21
6.636017338875269
 31
0.0
  0
LINE
  5
43DF
330
1E
100
AcDbEntity
  8
7
100
AcDbLine
 10
1.550387746552387
 20
6.636017338875269
 30
0.0
 11
1.550387746552387
 21
6.616332299505192
 31
0.0
  0
LINE
  5
43E0
330
1E
100
AcDbEntity
  8
7
100
AcDbLine
 10
1.550387746552387
 20
6.651765370371332
 30
0.0
 11
1.337789321355537
 21
6.651765370371332
 31
0.0
  0
LINE
  5
43E1
330
1E
100
AcDbEntity
  8
7
100
AcDbLine
 10
1.337789321355537
 20
6.651765370371332
 30
0.0
 11
1.337789321355537
 21
6.636017338875269
 31
0.0
  0
LINE
  5
43E2
330
1E
100
AcDbEntity
  8
7
100
AcDbLine
 10
1.337789321355537
 20
6.636017338875269
 30
0.0
 11
1.550387746552387
 21
6.636017338875269
 31
0.0
  0
LINE
  5
43E3
330
1E
100
AcDbEntity
  8
7
100
AcDbLine
 10
1.335820817418529
 20
6.677355921552436
 30
0.0
 11
1.335820817418529
 21
6.675387417615429
 31
0.0
  0
LINE
  5
43E4
330
1E
100
AcDbEntity
  8
7
100
AcDbLine
 10
1.335820817418529
 20
6.675387417615429
 30
0.0
 11
1.552356250489395
 21
6.675387417615429
 31
0.0
  0
LINE
  5
43E5
330
1E
100
AcDbEntity
  8
7
100
AcDbLine
 10
1.552356250489395
 20
6.675387417615429
 30
0.0
 11
1.552356250489395
 21
6.673418913678419
 31
0.0
  0
LINE
  5
43E6
330
1E
100
AcDbEntity
  8
7
100
AcDbLine
 10
1.550387746552387
 20
6.70097796879653
 30
0.0
 11
1.552356250489395
 21
6.685229937300467
 31
0.0
  0
LINE
  5
43E7
330
1E
100
AcDbEntity
  8
7
100
AcDbLine
 10
1.552356250489395
 20
6.685229937300467
 30
0.0
 11
1.552356250489395
 21
6.677355921552436
 31
0.0
  0
LINE
  5
43E8
330
1E
100
AcDbEntity
  8
7
100
AcDbLine
 10
1.550387746552387
 20
6.70097796879653
 30
0.0
 11
1.337789321355537
 21
6.70097796879653
 31
0.0
  0
LINE
  5
43E9
330
1E
100
AcDbEntity
  8
7
100
AcDbLine
 10
1.337789321355537
 20
6.70097796879653
 30
0.0
 11
1.335820817418529
 21
6.685229937300467
 31
0.0
  0
LINE
  5
43EA
330
1E
100
AcDbEntity
  8
7
100
AcDbLine
 10
1.335820817418529
 20
6.685229937300467
 30
0.0
 11
1.552356250489395
 21
6.685229937300467
 31
0.0
  0
LINE
  5
43EB
330
1E
100
AcDbEntity
  8
7
100
AcDbLine
 10
1.550387746552387
 20
5.153733874308342
 30
0.0
 11
1.550387746552387
 21
5.137985842812279
 31
0.0
  0
LINE
  5
43EC
330
1E
100
AcDbEntity
  8
7
100
AcDbLine
 10
1.550387746552387
 20
5.137985842812279
 30
0.0
 11
1.550387746552387
 21
5.118300803442199
 31
0.0
  0
LINE
  5
43ED
330
1E
100
AcDbEntity
  8
7
100
AcDbLine
 10
1.552356250489395
 20
5.179324425489443
 30
0.0
 11
1.552356250489395
 21
5.177355921552436
 31
0.0
  0
LINE
  5
43EE
330
1E
100
AcDbEntity
  8
7
100
AcDbLine
 10
1.552356250489395
 20
5.177355921552436
 30
0.0
 11
1.552356250489395
 21
5.175387417615429
 31
0.0
  0
LINE
  5
43EF
330
1E
100
AcDbEntity
  8
7
100
AcDbLine
 10
1.550387746552387
 20
5.202946472733538
 30
0.0
 11
1.552356250489395
 21
5.187198441237475
 31
0.0
  0
LINE
  5
43F0
330
1E
100
AcDbEntity
  8
7
100
AcDbLine
 10
1.552356250489395
 20
5.187198441237475
 30
0.0
 11
1.552356250489395
 21
5.179324425489443
 31
0.0
  0
LINE
  5
43F1
330
1E
100
AcDbEntity
  8
7
100
AcDbLine
 10
1.337789321355537
 20
5.153733874308342
 30
0.0
 11
1.335820817418529
 21
5.175387417615429
 31
0.0
  0
LINE
  5
43F2
330
1E
100
AcDbEntity
  8
7
100
AcDbLine
 10
1.335820817418529
 20
5.175387417615429
 30
0.0
 11
1.335820817418529
 21
5.177355921552436
 31
0.0
  0
LINE
  5
43F3
330
1E
100
AcDbEntity
  8
7
100
AcDbLine
 10
0.9165294788358524
 20
6.651765370371332
 30
0.0
 11
0.9145609748988441
 21
6.636017338875269
 31
0.0
  0
LINE
  5
43F4
330
1E
100
AcDbEntity
  8
7
100
AcDbLine
 10
0.9145609748988441
 20
6.636017338875269
 30
0.0
 11
0.9145609748988441
 21
6.616332299505192
 31
0.0
  0
LINE
  5
43F5
330
1E
100
AcDbEntity
  8
7
100
AcDbLine
 10
0.9165294788358524
 20
6.651765370371332
 30
0.0
 11
0.7019625497019942
 21
6.651765370371332
 31
0.0
  0
LINE
  5
43F6
330
1E
100
AcDbEntity
  8
7
100
AcDbLine
 10
0.7019625497019942
 20
6.651765370371332
 30
0.0
 11
0.7039310536390016
 21
6.636017338875269
 31
0.0
  0
LINE
  5
43F7
330
1E
100
AcDbEntity
  8
7
100
AcDbLine
 10
0.7039310536390016
 20
6.636017338875269
 30
0.0
 11
0.9145609748988441
 21
6.636017338875269
 31
0.0
  0
LINE
  5
43F8
330
1E
100
AcDbEntity
  8
7
100
AcDbLine
 10
0.7019625497019942
 20
6.677355921552436
 30
0.0
 11
0.7019625497019942
 21
6.675387417615429
 31
0.0
  0
LINE
  5
43F9
330
1E
100
AcDbEntity
  8
7
100
AcDbLine
 10
0.7019625497019942
 20
6.675387417615429
 30
0.0
 11
0.9165294788358524
 21
6.675387417615429
 31
0.0
  0
LINE
  5
43FA
330
1E
100
AcDbEntity
  8
7
100
AcDbLine
 10
0.9165294788358524
 20
6.675387417615429
 30
0.0
 11
0.9165294788358524
 21
6.673418913678419
 31
0.0
  0
LINE
  5
43FB
330
1E
100
AcDbEntity
  8
7
100
AcDbLine
 10
0.9145609748988441
 20
6.70097796879653
 30
0.0
 11
0.9165294788358524
 21
6.685229937300467
 31
0.0
  0
LINE
  5
43FC
330
1E
100
AcDbEntity
  8
7
100
AcDbLine
 10
0.9165294788358524
 20
6.685229937300467
 30
0.0
 11
0.9165294788358524
 21
6.677355921552436
 31
0.0
  0
LINE
  5
43FD
330
1E
100
AcDbEntity
  8
7
100
AcDbLine
 10
0.9145609748988441
 20
6.70097796879653
 30
0.0
 11
0.7039310536390016
 21
6.70097796879653
 31
0.0
  0
LINE
  5
43FE
330
1E
100
AcDbEntity
  8
7
100
AcDbLine
 10
0.7039310536390016
 20
6.70097796879653
 30
0.0
 11
0.7019625497019942
 21
6.685229937300467
 31
0.0
  0
LINE
  5
43FF
330
1E
100
AcDbEntity
  8
7
100
AcDbLine
 10
0.7019625497019942
 20
6.685229937300467
 30
0.0
 11
0.9165294788358524
 21
6.685229937300467
 31
0.0
  0
LINE
  5
4400
330
1E
100
AcDbEntity
  8
7
100
AcDbLine
 10
0.2807027071823089
 20
6.651765370371332
 30
0.0
 11
0.2807027071823089
 21
6.636017338875269
 31
0.0
  0
LINE
  5
4401
330
1E
100
AcDbEntity
  8
7
100
AcDbLine
 10
0.2807027071823089
 20
6.636017338875269
 30
0.0
 11
0.2807027071823089
 21
6.616332299505192
 31
0.0
  0
LINE
  5
4402
330
1E
100
AcDbEntity
  8
7
100
AcDbLine
 10
0.2807027071823089
 20
6.651765370371332
 30
0.0
 11
0.0681042819854589
 21
6.651765370371332
 31
0.0
  0
LINE
  5
4403
330
1E
100
AcDbEntity
  8
7
100
AcDbLine
 10
0.0681042819854589
 20
6.651765370371332
 30
0.0
 11
0.0681042819854589
 21
6.636017338875269
 31
0.0
  0
LINE
  5
4404
330
1E
100
AcDbEntity
  8
7
100
AcDbLine
 10
0.0681042819854589
 20
6.636017338875269
 30
0.0
 11
0.2807027071823089
 21
6.636017338875269
 31
0.0
  0
LINE
  5
4405
330
1E
100
AcDbEntity
  8
7
100
AcDbLine
 10
0.0661357780484506
 20
6.677355921552436
 30
0.0
 11
0.0661357780484506
 21
6.675387417615429
 31
0.0
  0
LINE
  5
4406
330
1E
100
AcDbEntity
  8
7
100
AcDbLine
 10
0.0661357780484506
 20
6.675387417615429
 30
0.0
 11
0.2826712111193172
 21
6.675387417615429
 31
0.0
  0
LINE
  5
4407
330
1E
100
AcDbEntity
  8
7
100
AcDbLine
 10
0.2826712111193172
 20
6.675387417615429
 30
0.0
 11
0.2826712111193172
 21
6.673418913678419
 31
0.0
  0
LINE
  5
4408
330
1E
100
AcDbEntity
  8
7
100
AcDbLine
 10
0.2807027071823089
 20
6.70097796879653
 30
0.0
 11
0.2826712111193172
 21
6.685229937300467
 31
0.0
  0
LINE
  5
4409
330
1E
100
AcDbEntity
  8
7
100
AcDbLine
 10
0.2826712111193172
 20
6.685229937300467
 30
0.0
 11
0.2826712111193172
 21
6.677355921552436
 31
0.0
  0
LINE
  5
440A
330
1E
100
AcDbEntity
  8
7
100
AcDbLine
 10
0.2807027071823089
 20
6.70097796879653
 30
0.0
 11
0.0681042819854589
 21
6.70097796879653
 31
0.0
  0
LINE
  5
440B
330
1E
100
AcDbEntity
  8
7
100
AcDbLine
 10
0.0681042819854589
 20
6.70097796879653
 30
0.0
 11
0.0661357780484506
 21
6.685229937300467
 31
0.0
  0
LINE
  5
440C
330
1E
100
AcDbEntity
  8
7
100
AcDbLine
 10
0.0661357780484506
 20
6.685229937300467
 30
0.0
 11
0.2826712111193172
 21
6.685229937300467
 31
0.0
  0
LINE
  5
440D
330
1E
100
AcDbEntity
  8
7
100
AcDbLine
 10
0.9165294788358524
 20
5.153733874308342
 30
0.0
 11
0.9145609748988441
 21
5.137985842812279
 31
0.0
  0
LINE
  5
440E
330
1E
100
AcDbEntity
  8
7
100
AcDbLine
 10
0.9145609748988441
 20
5.137985842812279
 30
0.0
 11
0.9145609748988441
 21
5.118300803442199
 31
0.0
  0
LINE
  5
440F
330
1E
100
AcDbEntity
  8
7
100
AcDbLine
 10
0.9145609748988441
 20
5.202946472733538
 30
0.0
 11
0.9165294788358524
 21
5.187198441237475
 31
0.0
  0
LINE
  5
4410
330
1E
100
AcDbEntity
  8
7
100
AcDbLine
 10
0.9165294788358524
 20
5.187198441237475
 30
0.0
 11
0.9165294788358524
 21
5.179324425489443
 31
0.0
  0
LINE
  5
4411
330
1E
100
AcDbEntity
  8
7
100
AcDbLine
 10
0.9165294788358524
 20
5.179324425489443
 30
0.0
 11
0.9165294788358524
 21
5.177355921552436
 31
0.0
  0
LINE
  5
4412
330
1E
100
AcDbEntity
  8
7
100
AcDbLine
 10
0.9165294788358524
 20
5.177355921552436
 30
0.0
 11
0.9165294788358524
 21
5.175387417615429
 31
0.0
  0
LINE
  5
4413
330
1E
100
AcDbEntity
  8
7
100
AcDbLine
 10
0.7019625497019942
 20
5.153733874308342
 30
0.0
 11
0.7019625497019942
 21
5.175387417615429
 31
0.0
  0
LINE
  5
4414
330
1E
100
AcDbEntity
  8
7
100
AcDbLine
 10
0.7019625497019942
 20
5.175387417615429
 30
0.0
 11
0.7019625497019942
 21
5.177355921552436
 31
0.0
  0
LINE
  5
4415
330
1E
100
AcDbEntity
  8
7
100
AcDbLine
 10
0.2807027071823089
 20
5.153733874308342
 30
0.0
 11
0.2807027071823089
 21
5.137985842812279
 31
0.0
  0
LINE
  5
4416
330
1E
100
AcDbEntity
  8
7
100
AcDbLine
 10
0.2807027071823089
 20
5.137985842812279
 30
0.0
 11
0.2807027071823089
 21
5.118300803442199
 31
0.0
  0
LINE
  5
4417
330
1E
100
AcDbEntity
  8
7
100
AcDbLine
 10
0.2807027071823089
 20
5.202946472733538
 30
0.0
 11
0.2826712111193172
 21
5.187198441237475
 31
0.0
  0
LINE
  5
4418
330
1E
100
AcDbEntity
  8
7
100
AcDbLine
 10
0.2826712111193172
 20
5.187198441237475
 30
0.0
 11
0.2826712111193172
 21
5.179324425489443
 31
0.0
  0
LINE
  5
4419
330
1E
100
AcDbEntity
  8
7
100
AcDbLine
 10
0.2826712111193172
 20
5.179324425489443
 30
0.0
 11
0.2826712111193172
 21
5.177355921552436
 31
0.0
  0
LINE
  5
441A
330
1E
100
AcDbEntity
  8
7
100
AcDbLine
 10
0.2826712111193172
 20
5.177355921552436
 30
0.0
 11
0.2826712111193172
 21
5.175387417615429
 31
0.0
  0
LINE
  5
441B
330
1E
100
AcDbEntity
  8
7
100
AcDbLine
 10
0.0681042819854589
 20
5.153733874308342
 30
0.0
 11
0.0661357780484506
 21
5.175387417615429
 31
0.0
  0
LINE
  5
441C
330
1E
100
AcDbEntity
  8
7
100
AcDbLine
 10
0.0661357780484506
 20
5.175387417615429
 30
0.0
 11
0.0661357780484506
 21
5.177355921552436
 31
0.0
  0
LINE
  5
441D
330
1E
100
AcDbEntity
  8
7
100
AcDbLine
 10
0.7492066441901831
 20
7.956883480607555
 30
0.0
 11
0.7118050693870331
 21
7.947040960922514
 31
0.0
  0
LINE
  5
441E
330
1E
100
AcDbEntity
  8
7
100
AcDbLine
 10
0.7118050693870331
 20
7.947040960922514
 30
0.0
 11
0.6842460142689229
 21
7.919481905804405
 31
0.0
  0
LINE
  5
441F
330
1E
100
AcDbEntity
  8
7
100
AcDbLine
 10
0.6842460142689229
 20
7.919481905804405
 30
0.0
 11
0.674403494583884
 21
7.882080331001255
 31
0.0
  0
LINE
  5
4420
330
1E
100
AcDbEntity
  8
7
100
AcDbLine
 10
0.674403494583884
 20
7.882080331001255
 30
0.0
 11
0.6842460142689229
 21
7.844678756198105
 31
0.0
  0
LINE
  5
4421
330
1E
100
AcDbEntity
  8
7
100
AcDbLine
 10
0.6842460142689229
 20
7.844678756198105
 30
0.0
 11
0.7118050693870331
 21
7.817119701079995
 31
0.0
  0
LINE
  5
4422
330
1E
100
AcDbEntity
  8
7
100
AcDbLine
 10
0.7118050693870331
 20
7.817119701079995
 30
0.0
 11
0.7492066441901831
 21
7.807277181394955
 31
0.0
  0
LINE
  5
4423
330
1E
100
AcDbEntity
  8
7
100
AcDbLine
 10
0.8692853843476635
 20
7.807277181394955
 30
0.0
 11
0.9066869591508126
 21
7.817119701079995
 31
0.0
  0
LINE
  5
4424
330
1E
100
AcDbEntity
  8
7
100
AcDbLine
 10
0.9066869591508126
 20
7.817119701079995
 30
0.0
 11
0.9342460142689228
 21
7.844678756198105
 31
0.0
  0
LINE
  5
4425
330
1E
100
AcDbEntity
  8
7
100
AcDbLine
 10
0.9342460142689228
 20
7.844678756198105
 30
0.0
 11
0.9440885339539626
 21
7.882080331001255
 31
0.0
  0
LINE
  5
4426
330
1E
100
AcDbEntity
  8
7
100
AcDbLine
 10
0.9440885339539626
 20
7.882080331001255
 30
0.0
 11
0.9342460142689228
 21
7.919481905804405
 31
0.0
  0
LINE
  5
4427
330
1E
100
AcDbEntity
  8
7
100
AcDbLine
 10
0.9342460142689228
 20
7.919481905804405
 30
0.0
 11
0.9066869591508126
 21
7.947040960922514
 31
0.0
  0
LINE
  5
4428
330
1E
100
AcDbEntity
  8
7
100
AcDbLine
 10
0.9066869591508126
 20
7.947040960922514
 30
0.0
 11
0.8692853843476635
 21
7.956883480607555
 31
0.0
  0
LINE
  5
4429
330
1E
100
AcDbEntity
  8
7
100
AcDbLine
 10
0.9145609748988441
 20
7.823025212891018
 30
0.0
 11
0.9401515260799468
 21
7.860426787694168
 31
0.0
  0
LINE
  5
442A
330
1E
100
AcDbEntity
  8
7
100
AcDbLine
 10
0.9401515260799468
 20
7.860426787694168
 30
0.0
 11
0.9401515260799468
 21
7.903733874308342
 31
0.0
  0
LINE
  5
442B
330
1E
100
AcDbEntity
  8
7
100
AcDbLine
 10
0.9401515260799468
 20
7.903733874308342
 30
0.0
 11
0.9145609748988441
 21
7.941135449111492
 31
0.0
  0
LINE
  5
442C
330
1E
100
AcDbEntity
  8
7
100
AcDbLine
 10
0.7039310536390016
 20
7.941135449111492
 30
0.0
 11
0.6783405024578997
 21
7.903733874308342
 31
0.0
  0
LINE
  5
442D
330
1E
100
AcDbEntity
  8
7
100
AcDbLine
 10
0.6783405024578997
 20
7.903733874308342
 30
0.0
 11
0.6783405024578997
 21
7.860426787694168
 31
0.0
  0
LINE
  5
442E
330
1E
100
AcDbEntity
  8
7
100
AcDbLine
 10
0.6783405024578997
 20
7.860426787694168
 30
0.0
 11
0.7039310536390016
 21
7.823025212891018
 31
0.0
  0
LINE
  5
442F
330
1E
100
AcDbEntity
  8
7
100
AcDbLine
 10
0.8692853843476635
 20
7.807277181394955
 30
0.0
 11
0.8870019197807339
 21
7.809245685331964
 31
0.0
  0
LINE
  5
4430
330
1E
100
AcDbEntity
  8
7
100
AcDbLine
 10
0.8870019197807339
 20
7.809245685331964
 30
0.0
 11
0.9047184552138052
 21
7.817119701079995
 31
0.0
  0
LINE
  5
4431
330
1E
100
AcDbEntity
  8
7
100
AcDbLine
 10
0.7137735733240414
 20
7.817119701079995
 30
0.0
 11
0.7314901087571118
 21
7.809245685331964
 31
0.0
  0
LINE
  5
4432
330
1E
100
AcDbEntity
  8
7
100
AcDbLine
 10
0.7314901087571118
 20
7.809245685331964
 30
0.0
 11
0.7492066441901831
 21
7.807277181394955
 31
0.0
  0
LINE
  5
4433
330
1E
100
AcDbEntity
  8
7
100
AcDbLine
 10
0.7492066441901831
 20
7.956883480607555
 30
0.0
 11
0.7314901087571118
 21
7.954914976670545
 31
0.0
  0
LINE
  5
4434
330
1E
100
AcDbEntity
  8
7
100
AcDbLine
 10
0.7314901087571118
 20
7.954914976670545
 30
0.0
 11
0.7137735733240414
 21
7.947040960922514
 31
0.0
  0
LINE
  5
4435
330
1E
100
AcDbEntity
  8
7
100
AcDbLine
 10
0.9047184552138052
 20
7.947040960922514
 30
0.0
 11
0.8870019197807339
 21
7.954914976670545
 31
0.0
  0
LINE
  5
4436
330
1E
100
AcDbEntity
  8
7
100
AcDbLine
 10
0.8870019197807339
 20
7.954914976670545
 30
0.0
 11
0.8692853843476635
 21
7.956883480607555
 31
0.0
  0
LINE
  5
4437
330
1E
100
AcDbEntity
  8
7
100
AcDbLine
 10
0.8692853843476635
 20
4.525781118402829
 30
0.0
 11
0.9066869591508126
 21
4.535623638087869
 31
0.0
  0
LINE
  5
4438
330
1E
100
AcDbEntity
  8
7
100
AcDbLine
 10
0.9066869591508126
 20
4.535623638087869
 30
0.0
 11
0.9342460142689228
 21
4.563182693205979
 31
0.0
  0
LINE
  5
4439
330
1E
100
AcDbEntity
  8
7
100
AcDbLine
 10
0.9342460142689228
 20
4.563182693205979
 30
0.0
 11
0.9440885339539626
 21
4.600584268009129
 31
0.0
  0
LINE
  5
443A
330
1E
100
AcDbEntity
  8
7
100
AcDbLine
 10
0.9440885339539626
 20
4.600584268009129
 30
0.0
 11
0.9342460142689228
 21
4.637985842812279
 31
0.0
  0
LINE
  5
443B
330
1E
100
AcDbEntity
  8
7
100
AcDbLine
 10
0.9342460142689228
 20
4.637985842812279
 30
0.0
 11
0.9066869591508126
 21
4.665544897930388
 31
0.0
  0
LINE
  5
443C
330
1E
100
AcDbEntity
  8
7
100
AcDbLine
 10
0.9066869591508126
 20
4.665544897930388
 30
0.0
 11
0.8692853843476635
 21
4.675387417615429
 31
0.0
  0
LINE
  5
443D
330
1E
100
AcDbEntity
  8
7
100
AcDbLine
 10
0.7492066441901831
 20
4.675387417615429
 30
0.0
 11
0.7118050693870331
 21
4.665544897930388
 31
0.0
  0
LINE
  5
443E
330
1E
100
AcDbEntity
  8
7
100
AcDbLine
 10
0.7118050693870331
 20
4.665544897930388
 30
0.0
 11
0.6842460142689229
 21
4.637985842812279
 31
0.0
  0
LINE
  5
443F
330
1E
100
AcDbEntity
  8
7
100
AcDbLine
 10
0.6842460142689229
 20
4.637985842812279
 30
0.0
 11
0.674403494583884
 21
4.600584268009129
 31
0.0
  0
LINE
  5
4440
330
1E
100
AcDbEntity
  8
7
100
AcDbLine
 10
0.674403494583884
 20
4.600584268009129
 30
0.0
 11
0.6842460142689229
 21
4.563182693205979
 31
0.0
  0
LINE
  5
4441
330
1E
100
AcDbEntity
  8
7
100
AcDbLine
 10
0.6842460142689229
 20
4.563182693205979
 30
0.0
 11
0.7118050693870331
 21
4.535623638087869
 31
0.0
  0
LINE
  5
4442
330
1E
100
AcDbEntity
  8
7
100
AcDbLine
 10
0.7118050693870331
 20
4.535623638087869
 30
0.0
 11
0.7492066441901831
 21
4.525781118402829
 31
0.0
  0
LINE
  5
4443
330
1E
100
AcDbEntity
  8
7
100
AcDbLine
 10
0.9047184552138052
 20
4.665544897930388
 30
0.0
 11
0.8870019197807339
 21
4.673418913678419
 31
0.0
  0
LINE
  5
4444
330
1E
100
AcDbEntity
  8
7
100
AcDbLine
 10
0.8870019197807339
 20
4.673418913678419
 30
0.0
 11
0.8692853843476635
 21
4.675387417615429
 31
0.0
  0
LINE
  5
4445
330
1E
100
AcDbEntity
  8
7
100
AcDbLine
 10
0.7492066441901831
 20
4.675387417615429
 30
0.0
 11
0.7314901087571118
 21
4.673418913678419
 31
0.0
  0
LINE
  5
4446
330
1E
100
AcDbEntity
  8
7
100
AcDbLine
 10
0.7314901087571118
 20
4.673418913678419
 30
0.0
 11
0.7137735733240414
 21
4.665544897930388
 31
0.0
  0
LINE
  5
4447
330
1E
100
AcDbEntity
  8
7
100
AcDbLine
 10
0.9047184552138052
 20
4.667513401867397
 30
0.0
 11
0.7137735733240414
 21
4.667513401867397
 31
0.0
  0
LINE
  5
4448
330
1E
100
AcDbEntity
  8
7
100
AcDbLine
 10
0.7137735733240414
 20
4.667513401867397
 30
0.0
 11
0.7039310536390016
 21
4.661607890056373
 31
0.0
  0
LINE
  5
4449
330
1E
100
AcDbEntity
  8
7
100
AcDbLine
 10
0.9145609748988441
 20
4.541529149898892
 30
0.0
 11
0.9401515260799468
 21
4.578930724702042
 31
0.0
  0
LINE
  5
444A
330
1E
100
AcDbEntity
  8
7
100
AcDbLine
 10
0.9401515260799468
 20
4.578930724702042
 30
0.0
 11
0.9401515260799468
 21
4.622237811316216
 31
0.0
  0
LINE
  5
444B
330
1E
100
AcDbEntity
  8
7
100
AcDbLine
 10
0.9401515260799468
 20
4.622237811316216
 30
0.0
 11
0.9145609748988441
 21
4.659639386119366
 31
0.0
  0
LINE
  5
444C
330
1E
100
AcDbEntity
  8
7
100
AcDbLine
 10
0.8692853843476635
 20
4.525781118402829
 30
0.0
 11
0.8870019197807339
 21
4.527749622339838
 31
0.0
  0
LINE
  5
444D
330
1E
100
AcDbEntity
  8
7
100
AcDbLine
 10
0.8870019197807339
 20
4.527749622339838
 30
0.0
 11
0.9047184552138052
 21
4.535623638087869
 31
0.0
  0
LINE
  5
444E
330
1E
100
AcDbEntity
  8
7
100
AcDbLine
 10
0.7137735733240414
 20
4.535623638087869
 30
0.0
 11
0.7314901087571118
 21
4.527749622339838
 31
0.0
  0
LINE
  5
444F
330
1E
100
AcDbEntity
  8
7
100
AcDbLine
 10
0.7314901087571118
 20
4.527749622339838
 30
0.0
 11
0.7492066441901831
 21
4.525781118402829
 31
0.0
  0
LINE
  5
4450
330
1E
100
AcDbEntity
  8
7
100
AcDbLine
 10
0.7039310536390016
 20
4.659639386119366
 30
0.0
 11
0.6783405024578997
 21
4.622237811316216
 31
0.0
  0
LINE
  5
4451
330
1E
100
AcDbEntity
  8
7
100
AcDbLine
 10
0.6783405024578997
 20
4.622237811316216
 30
0.0
 11
0.6783405024578997
 21
4.578930724702042
 31
0.0
  0
LINE
  5
4452
330
1E
100
AcDbEntity
  8
7
100
AcDbLine
 10
1.918497982772859
 20
6.012001590843775
 30
0.0
 11
1.90865546308782
 21
5.569088205017003
 31
0.0
  0
LINE
  5
4453
330
1E
100
AcDbEntity
  8
7
100
AcDbLine
 10
1.90865546308782
 20
5.569088205017003
 30
0.0
 11
1.918497982772859
 21
5.031686630213853
 31
0.0
  0
LINE
  5
4454
330
1E
100
AcDbEntity
  8
7
100
AcDbLine
 10
1.90865546308782
 20
5.569088205017003
 30
0.0
 11
1.894875935528765
 21
5.547434661709916
 31
0.0
  0
LINE
  5
4455
330
1E
100
AcDbEntity
  8
7
100
AcDbLine
 10
1.894875935528765
 20
5.547434661709916
 30
0.0
 11
1.861411368599632
 21
5.529718126276845
 31
0.0
  0
LINE
  5
4456
330
1E
100
AcDbEntity
  8
7
100
AcDbLine
 10
1.861411368599632
 20
5.529718126276845
 30
0.0
 11
1.814167274111443
 21
5.523812614465821
 31
0.0
  0
LINE
  5
4457
330
1E
100
AcDbEntity
  8
7
100
AcDbLine
 10
1.90865546308782
 20
5.569088205017003
 30
0.0
 11
1.894875935528765
 21
5.596647260135112
 31
0.0
  0
LINE
  5
4458
330
1E
100
AcDbEntity
  8
7
100
AcDbLine
 10
1.894875935528765
 20
5.596647260135112
 30
0.0
 11
1.861411368599632
 21
5.614363795568184
 31
0.0
  0
LINE
  5
4459
330
1E
100
AcDbEntity
  8
7
100
AcDbLine
 10
1.861411368599632
 20
5.614363795568184
 30
0.0
 11
1.814167274111443
 21
5.622237811316216
 31
0.0
  0
LINE
  5
445A
330
1E
100
AcDbEntity
  8
7
100
AcDbLine
 10
0.2767656993082932
 20
5.506096079032751
 30
0.0
 11
0.2767656993082932
 21
5.508064582969758
 31
0.0
  0
LINE
  5
445B
330
1E
100
AcDbEntity
  8
7
100
AcDbLine
 10
0.2767656993082932
 20
5.508064582969758
 30
0.0
 11
0.0700727859224664
 21
5.508064582969758
 31
0.0
  0
LINE
  5
445C
330
1E
100
AcDbEntity
  8
7
100
AcDbLine
 10
0.2767656993082932
 20
5.506096079032751
 30
0.0
 11
0.2767656993082932
 21
5.482474031788656
 31
0.0
  0
LINE
  5
445D
330
1E
100
AcDbEntity
  8
7
100
AcDbLine
 10
0.2767656993082932
 20
5.482474031788656
 30
0.0
 11
0.2767656993082932
 21
5.508064582969758
 31
0.0
  0
LINE
  5
445E
330
1E
100
AcDbEntity
  8
7
100
AcDbLine
 10
0.7058995575760099
 20
5.508064582969758
 30
0.0
 11
0.7058995575760099
 21
5.482474031788656
 31
0.0
  0
LINE
  5
445F
330
1E
100
AcDbEntity
  8
7
100
AcDbLine
 10
0.7058995575760099
 20
5.482474031788656
 30
0.0
 11
0.7058995575760099
 21
5.506096079032751
 31
0.0
  0
LINE
  5
4460
330
1E
100
AcDbEntity
  8
7
100
AcDbLine
 10
0.9125924709618367
 20
5.506096079032751
 30
0.0
 11
0.9125924709618367
 21
5.508064582969758
 31
0.0
  0
LINE
  5
4461
330
1E
100
AcDbEntity
  8
7
100
AcDbLine
 10
0.9125924709618367
 20
5.508064582969758
 30
0.0
 11
0.7058995575760099
 21
5.508064582969758
 31
0.0
  0
LINE
  5
4462
330
1E
100
AcDbEntity
  8
7
100
AcDbLine
 10
0.9125924709618367
 20
5.506096079032751
 30
0.0
 11
0.9125924709618367
 21
5.482474031788656
 31
0.0
  0
LINE
  5
4463
330
1E
100
AcDbEntity
  8
7
100
AcDbLine
 10
0.9125924709618367
 20
5.482474031788656
 30
0.0
 11
0.9125924709618367
 21
5.508064582969758
 31
0.0
  0
LINE
  5
4464
330
1E
100
AcDbEntity
  8
7
100
AcDbLine
 10
1.339757825292545
 20
5.508064582969758
 30
0.0
 11
1.341726329229553
 21
5.482474031788656
 31
0.0
  0
LINE
  5
4465
330
1E
100
AcDbEntity
  8
7
100
AcDbLine
 10
1.341726329229553
 20
5.482474031788656
 30
0.0
 11
1.341726329229553
 21
5.506096079032751
 31
0.0
  0
LINE
  5
4466
330
1E
100
AcDbEntity
  8
7
100
AcDbLine
 10
1.814167274111443
 20
5.622237811316216
 30
0.0
 11
1.814167274111443
 21
5.573025212891018
 31
0.0
  0
LINE
  5
4467
330
1E
100
AcDbEntity
  8
7
100
AcDbLine
 10
1.814167274111443
 20
5.573025212891018
 30
0.0
 11
1.814167274111443
 21
5.523812614465821
 31
0.0
  0
LINE
  5
4468
330
1E
100
AcDbEntity
  8
7
100
AcDbLine
 10
0.0700727859224664
 20
5.482474031788656
 30
0.0
 11
0.0720412898594747
 21
5.506096079032751
 31
0.0
  0
LINE
  5
4469
330
1E
100
AcDbEntity
  8
7
100
AcDbLine
 10
0.0720412898594747
 20
5.506096079032751
 30
0.0
 11
0.0700727859224664
 21
5.508064582969758
 31
0.0
  0
LINE
  5
446A
330
1E
100
AcDbEntity
  8
7
100
AcDbLine
 10
0.0700727859224664
 20
5.508064582969758
 30
0.0
 11
0.0700727859224664
 21
5.482474031788656
 31
0.0
  0
LINE
  5
446B
330
1E
100
AcDbEntity
  8
7
100
AcDbLine
 10
0.0700727859224664
 20
5.482474031788656
 30
0.0
 11
-0.1385886314003688
 21
5.482474031788656
 31
0.0
  0
LINE
  5
446C
330
1E
100
AcDbEntity
  8
7
100
AcDbLine
 10
0.0720412898594747
 20
5.813182693205979
 30
0.0
 11
0.0720412898594747
 21
5.740348047536688
 31
0.0
  0
LINE
  5
446D
330
1E
100
AcDbEntity
  8
7
100
AcDbLine
 10
0.0720412898594747
 20
5.740348047536688
 30
0.0
 11
0.1625924709618367
 21
5.740348047536688
 31
0.0
  0
LINE
  5
446E
330
1E
100
AcDbEntity
  8
7
100
AcDbLine
 10
0.1625924709618367
 20
5.740348047536688
 30
0.0
 11
0.1625924709618367
 21
5.813182693205979
 31
0.0
  0
LINE
  5
446F
330
1E
100
AcDbEntity
  8
7
100
AcDbLine
 10
0.1625924709618367
 20
5.813182693205979
 30
0.0
 11
0.0720412898594747
 21
5.813182693205979
 31
0.0
  0
LINE
  5
4470
330
1E
100
AcDbEntity
  8
7
100
AcDbLine
 10
0.7078680615130173
 20
5.813182693205979
 30
0.0
 11
0.7078680615130173
 21
5.740348047536688
 31
0.0
  0
LINE
  5
4471
330
1E
100
AcDbEntity
  8
7
100
AcDbLine
 10
0.7078680615130173
 20
5.740348047536688
 30
0.0
 11
0.7964507386783719
 21
5.740348047536688
 31
0.0
  0
LINE
  5
4472
330
1E
100
AcDbEntity
  8
7
100
AcDbLine
 10
0.7964507386783719
 20
5.740348047536688
 30
0.0
 11
0.7964507386783719
 21
5.813182693205979
 31
0.0
  0
LINE
  5
4473
330
1E
100
AcDbEntity
  8
7
100
AcDbLine
 10
0.7964507386783719
 20
5.813182693205979
 30
0.0
 11
0.7078680615130173
 21
5.813182693205979
 31
0.0
  0
LINE
  5
4474
330
1E
100
AcDbEntity
  8
7
100
AcDbLine
 10
0.1862145182059311
 20
5.740348047536688
 30
0.0
 11
0.2767656993082932
 21
5.740348047536688
 31
0.0
  0
LINE
  5
4475
330
1E
100
AcDbEntity
  8
7
100
AcDbLine
 10
0.2767656993082932
 20
5.740348047536688
 30
0.0
 11
0.2767656993082932
 21
5.813182693205979
 31
0.0
  0
LINE
  5
4476
330
1E
100
AcDbEntity
  8
7
100
AcDbLine
 10
0.2767656993082932
 20
5.813182693205979
 30
0.0
 11
0.1862145182059311
 21
5.813182693205979
 31
0.0
  0
LINE
  5
4477
330
1E
100
AcDbEntity
  8
7
100
AcDbLine
 10
0.1862145182059311
 20
5.813182693205979
 30
0.0
 11
0.1862145182059311
 21
5.740348047536688
 31
0.0
  0
LINE
  5
4478
330
1E
100
AcDbEntity
  8
7
100
AcDbLine
 10
1.341726329229553
 20
5.813182693205979
 30
0.0
 11
1.341726329229553
 21
5.740348047536688
 31
0.0
  0
LINE
  5
4479
330
1E
100
AcDbEntity
  8
7
100
AcDbLine
 10
1.341726329229553
 20
5.740348047536688
 30
0.0
 11
1.432277510331915
 21
5.740348047536688
 31
0.0
  0
LINE
  5
447A
330
1E
100
AcDbEntity
  8
7
100
AcDbLine
 10
1.432277510331915
 20
5.740348047536688
 30
0.0
 11
1.432277510331915
 21
5.813182693205979
 31
0.0
  0
LINE
  5
447B
330
1E
100
AcDbEntity
  8
7
100
AcDbLine
 10
1.432277510331915
 20
5.813182693205979
 30
0.0
 11
1.341726329229553
 21
5.813182693205979
 31
0.0
  0
LINE
  5
447C
330
1E
100
AcDbEntity
  8
7
100
AcDbLine
 10
0.8220412898594746
 20
5.740348047536688
 30
0.0
 11
0.9106239670248283
 21
5.740348047536688
 31
0.0
  0
LINE
  5
447D
330
1E
100
AcDbEntity
  8
7
100
AcDbLine
 10
0.9106239670248283
 20
5.740348047536688
 30
0.0
 11
0.9106239670248283
 21
5.813182693205979
 31
0.0
  0
LINE
  5
447E
330
1E
100
AcDbEntity
  8
7
100
AcDbLine
 10
0.9106239670248283
 20
5.813182693205979
 30
0.0
 11
0.8220412898594746
 21
5.813182693205979
 31
0.0
  0
LINE
  5
447F
330
1E
100
AcDbEntity
  8
7
100
AcDbLine
 10
0.8220412898594746
 20
5.813182693205979
 30
0.0
 11
0.8220412898594746
 21
5.740348047536688
 31
0.0
  0
LINE
  5
4480
330
1E
100
AcDbEntity
  8
7
100
AcDbLine
 10
1.455899557576009
 20
5.740348047536688
 30
0.0
 11
1.546450738678371
 21
5.740348047536688
 31
0.0
  0
LINE
  5
4481
330
1E
100
AcDbEntity
  8
7
100
AcDbLine
 10
1.546450738678371
 20
5.740348047536688
 30
0.0
 11
1.546450738678371
 21
5.813182693205979
 31
0.0
  0
LINE
  5
4482
330
1E
100
AcDbEntity
  8
7
100
AcDbLine
 10
1.546450738678371
 20
5.813182693205979
 30
0.0
 11
1.455899557576009
 21
5.813182693205979
 31
0.0
  0
LINE
  5
4483
330
1E
100
AcDbEntity
  8
7
100
AcDbLine
 10
1.455899557576009
 20
5.813182693205979
 30
0.0
 11
1.455899557576009
 21
5.740348047536688
 31
0.0
  0
LINE
  5
4484
330
1E
100
AcDbEntity
  8
7
100
AcDbLine
 10
-0.1956752455735966
 20
5.622237811316216
 30
0.0
 11
-0.1956752455735966
 21
5.573025212891018
 31
0.0
  0
LINE
  5
4485
330
1E
100
AcDbEntity
  8
7
100
AcDbLine
 10
-0.1956752455735966
 20
5.573025212891018
 30
0.0
 11
-0.1956752455735966
 21
5.523812614465821
 31
0.0
  0
LINE
  5
4486
330
1E
100
AcDbEntity
  8
7
100
AcDbLine
 10
-0.1956752455735966
 20
5.622237811316216
 30
0.0
 11
-0.2429193400617855
 21
5.614363795568184
 31
0.0
  0
LINE
  5
4487
330
1E
100
AcDbEntity
  8
7
100
AcDbLine
 10
-0.2429193400617855
 20
5.614363795568184
 30
0.0
 11
-0.2763839069909189
 21
5.596647260135112
 31
0.0
  0
LINE
  5
4488
330
1E
100
AcDbEntity
  8
7
100
AcDbLine
 10
-0.2763839069909189
 20
5.596647260135112
 30
0.0
 11
-0.2901634345499744
 21
5.569088205017003
 31
0.0
  0
LINE
  5
4489
330
1E
100
AcDbEntity
  8
7
100
AcDbLine
 10
-0.2901634345499744
 20
5.569088205017003
 30
0.0
 11
-0.2763839069909189
 21
5.547434661709916
 31
0.0
  0
LINE
  5
448A
330
1E
100
AcDbEntity
  8
7
100
AcDbLine
 10
-0.2763839069909189
 20
5.547434661709916
 30
0.0
 11
-0.2429193400617855
 21
5.529718126276845
 31
0.0
  0
LINE
  5
448B
330
1E
100
AcDbEntity
  8
7
100
AcDbLine
 10
-0.2429193400617855
 20
5.529718126276845
 30
0.0
 11
-0.1956752455735966
 21
5.523812614465821
 31
0.0
  0
LINE
  5
448C
330
1E
100
AcDbEntity
  8
7
100
AcDbLine
 10
1.814167274111443
 20
7.021844110528814
 30
0.0
 11
1.861411368599632
 21
7.027749622339838
 31
0.0
  0
LINE
  5
448D
330
1E
100
AcDbEntity
  8
7
100
AcDbLine
 10
1.861411368599632
 20
7.027749622339838
 30
0.0
 11
1.894875935528765
 21
7.045466157772908
 31
0.0
  0
LINE
  5
448E
330
1E
100
AcDbEntity
  8
7
100
AcDbLine
 10
1.894875935528765
 20
7.045466157772908
 30
0.0
 11
1.90865546308782
 21
7.067119701079995
 31
0.0
  0
LINE
  5
448F
330
1E
100
AcDbEntity
  8
7
100
AcDbLine
 10
1.90865546308782
 20
7.067119701079995
 30
0.0
 11
1.894875935528765
 21
7.094678756198105
 31
0.0
  0
LINE
  5
4490
330
1E
100
AcDbEntity
  8
7
100
AcDbLine
 10
1.894875935528765
 20
7.094678756198105
 30
0.0
 11
1.861411368599632
 21
7.112395291631175
 31
0.0
  0
LINE
  5
4491
330
1E
100
AcDbEntity
  8
7
100
AcDbLine
 10
1.861411368599632
 20
7.112395291631175
 30
0.0
 11
1.814167274111443
 21
7.120269307379206
 31
0.0
  0
LINE
  5
4492
330
1E
100
AcDbEntity
  8
7
100
AcDbLine
 10
0.2767656993082932
 20
7.004127575095743
 30
0.0
 11
0.2767656993082932
 21
7.006096079032751
 31
0.0
  0
LINE
  5
4493
330
1E
100
AcDbEntity
  8
7
100
AcDbLine
 10
0.2767656993082932
 20
7.006096079032751
 30
0.0
 11
0.0700727859224664
 21
7.006096079032751
 31
0.0
  0
LINE
  5
4494
330
1E
100
AcDbEntity
  8
7
100
AcDbLine
 10
0.7058995575760099
 20
7.006096079032751
 30
0.0
 11
0.7058995575760099
 21
6.980505527851649
 31
0.0
  0
LINE
  5
4495
330
1E
100
AcDbEntity
  8
7
100
AcDbLine
 10
0.7058995575760099
 20
6.980505527851649
 30
0.0
 11
0.7058995575760099
 21
7.004127575095743
 31
0.0
  0
LINE
  5
4496
330
1E
100
AcDbEntity
  8
7
100
AcDbLine
 10
0.9125924709618367
 20
7.004127575095743
 30
0.0
 11
0.9125924709618367
 21
7.006096079032751
 31
0.0
  0
LINE
  5
4497
330
1E
100
AcDbEntity
  8
7
100
AcDbLine
 10
0.9125924709618367
 20
7.006096079032751
 30
0.0
 11
0.7058995575760099
 21
7.006096079032751
 31
0.0
  0
LINE
  5
4498
330
1E
100
AcDbEntity
  8
7
100
AcDbLine
 10
1.339757825292545
 20
7.006096079032751
 30
0.0
 11
1.341726329229553
 21
6.980505527851649
 31
0.0
  0
LINE
  5
4499
330
1E
100
AcDbEntity
  8
7
100
AcDbLine
 10
1.341726329229553
 20
6.980505527851649
 30
0.0
 11
1.341726329229553
 21
7.004127575095743
 31
0.0
  0
LINE
  5
449A
330
1E
100
AcDbEntity
  8
7
100
AcDbLine
 10
1.814167274111443
 20
7.021844110528814
 30
0.0
 11
1.814167274111443
 21
7.07105670895401
 31
0.0
  0
LINE
  5
449B
330
1E
100
AcDbEntity
  8
7
100
AcDbLine
 10
1.814167274111443
 20
7.07105670895401
 30
0.0
 11
1.814167274111443
 21
7.120269307379206
 31
0.0
  0
LINE
  5
449C
330
1E
100
AcDbEntity
  8
7
100
AcDbLine
 10
0.0700727859224664
 20
7.006096079032751
 30
0.0
 11
0.0700727859224664
 21
6.980505527851649
 31
0.0
  0
LINE
  5
449D
330
1E
100
AcDbEntity
  8
7
100
AcDbLine
 10
0.0700727859224664
 20
6.980505527851649
 30
0.0
 11
0.0720412898594747
 21
7.004127575095743
 31
0.0
  0
LINE
  5
449E
330
1E
100
AcDbEntity
  8
7
100
AcDbLine
 10
0.0720412898594747
 20
7.004127575095743
 30
0.0
 11
0.0700727859224664
 21
7.006096079032751
 31
0.0
  0
LINE
  5
449F
330
1E
100
AcDbEntity
  8
7
100
AcDbLine
 10
0.0720412898594747
 20
7.311214189268971
 30
0.0
 11
0.0720412898594747
 21
7.23837954359968
 31
0.0
  0
LINE
  5
44A0
330
1E
100
AcDbEntity
  8
7
100
AcDbLine
 10
0.0720412898594747
 20
7.23837954359968
 30
0.0
 11
0.1625924709618367
 21
7.23837954359968
 31
0.0
  0
LINE
  5
44A1
330
1E
100
AcDbEntity
  8
7
100
AcDbLine
 10
0.1625924709618367
 20
7.23837954359968
 30
0.0
 11
0.1625924709618367
 21
7.311214189268971
 31
0.0
  0
LINE
  5
44A2
330
1E
100
AcDbEntity
  8
7
100
AcDbLine
 10
0.1625924709618367
 20
7.311214189268971
 30
0.0
 11
0.0720412898594747
 21
7.311214189268971
 31
0.0
  0
LINE
  5
44A3
330
1E
100
AcDbEntity
  8
7
100
AcDbLine
 10
1.455899557576009
 20
7.23837954359968
 30
0.0
 11
1.546450738678371
 21
7.23837954359968
 31
0.0
  0
LINE
  5
44A4
330
1E
100
AcDbEntity
  8
7
100
AcDbLine
 10
1.546450738678371
 20
7.23837954359968
 30
0.0
 11
1.546450738678371
 21
7.311214189268971
 31
0.0
  0
LINE
  5
44A5
330
1E
100
AcDbEntity
  8
7
100
AcDbLine
 10
1.546450738678371
 20
7.311214189268971
 30
0.0
 11
1.455899557576009
 21
7.311214189268971
 31
0.0
  0
LINE
  5
44A6
330
1E
100
AcDbEntity
  8
7
100
AcDbLine
 10
1.455899557576009
 20
7.311214189268971
 30
0.0
 11
1.455899557576009
 21
7.23837954359968
 31
0.0
  0
LINE
  5
44A7
330
1E
100
AcDbEntity
  8
7
100
AcDbLine
 10
1.341726329229553
 20
7.311214189268971
 30
0.0
 11
1.341726329229553
 21
7.23837954359968
 31
0.0
  0
LINE
  5
44A8
330
1E
100
AcDbEntity
  8
7
100
AcDbLine
 10
1.341726329229553
 20
7.23837954359968
 30
0.0
 11
1.432277510331915
 21
7.23837954359968
 31
0.0
  0
LINE
  5
44A9
330
1E
100
AcDbEntity
  8
7
100
AcDbLine
 10
1.432277510331915
 20
7.23837954359968
 30
0.0
 11
1.432277510331915
 21
7.311214189268971
 31
0.0
  0
LINE
  5
44AA
330
1E
100
AcDbEntity
  8
7
100
AcDbLine
 10
1.432277510331915
 20
7.311214189268971
 30
0.0
 11
1.341726329229553
 21
7.311214189268971
 31
0.0
  0
LINE
  5
44AB
330
1E
100
AcDbEntity
  8
7
100
AcDbLine
 10
0.8220412898594746
 20
7.23837954359968
 30
0.0
 11
0.9106239670248283
 21
7.23837954359968
 31
0.0
  0
LINE
  5
44AC
330
1E
100
AcDbEntity
  8
7
100
AcDbLine
 10
0.9106239670248283
 20
7.23837954359968
 30
0.0
 11
0.9106239670248283
 21
7.311214189268971
 31
0.0
  0
LINE
  5
44AD
330
1E
100
AcDbEntity
  8
7
100
AcDbLine
 10
0.9106239670248283
 20
7.311214189268971
 30
0.0
 11
0.8220412898594746
 21
7.311214189268971
 31
0.0
  0
LINE
  5
44AE
330
1E
100
AcDbEntity
  8
7
100
AcDbLine
 10
0.8220412898594746
 20
7.311214189268971
 30
0.0
 11
0.8220412898594746
 21
7.23837954359968
 31
0.0
  0
LINE
  5
44AF
330
1E
100
AcDbEntity
  8
7
100
AcDbLine
 10
0.7078680615130173
 20
7.311214189268971
 30
0.0
 11
0.7078680615130173
 21
7.23837954359968
 31
0.0
  0
LINE
  5
44B0
330
1E
100
AcDbEntity
  8
7
100
AcDbLine
 10
0.7078680615130173
 20
7.23837954359968
 30
0.0
 11
0.7964507386783719
 21
7.23837954359968
 31
0.0
  0
LINE
  5
44B1
330
1E
100
AcDbEntity
  8
7
100
AcDbLine
 10
0.7964507386783719
 20
7.23837954359968
 30
0.0
 11
0.7964507386783719
 21
7.311214189268971
 31
0.0
  0
LINE
  5
44B2
330
1E
100
AcDbEntity
  8
7
100
AcDbLine
 10
0.7964507386783719
 20
7.311214189268971
 30
0.0
 11
0.7078680615130173
 21
7.311214189268971
 31
0.0
  0
LINE
  5
44B3
330
1E
100
AcDbEntity
  8
7
100
AcDbLine
 10
0.1862145182059311
 20
7.23837954359968
 30
0.0
 11
0.2767656993082932
 21
7.23837954359968
 31
0.0
  0
LINE
  5
44B4
330
1E
100
AcDbEntity
  8
7
100
AcDbLine
 10
0.2767656993082932
 20
7.23837954359968
 30
0.0
 11
0.2767656993082932
 21
7.311214189268971
 31
0.0
  0
LINE
  5
44B5
330
1E
100
AcDbEntity
  8
7
100
AcDbLine
 10
0.2767656993082932
 20
7.311214189268971
 30
0.0
 11
0.1862145182059311
 21
7.311214189268971
 31
0.0
  0
LINE
  5
44B6
330
1E
100
AcDbEntity
  8
7
100
AcDbLine
 10
0.1862145182059311
 20
7.311214189268971
 30
0.0
 11
0.1862145182059311
 21
7.23837954359968
 31
0.0
  0
LINE
  5
44B7
330
1E
100
AcDbEntity
  8
7
100
AcDbLine
 10
-0.1956752455735966
 20
7.021844110528814
 30
0.0
 11
-0.2429193400617855
 21
7.027749622339838
 31
0.0
  0
LINE
  5
44B8
330
1E
100
AcDbEntity
  8
7
100
AcDbLine
 10
-0.2429193400617855
 20
7.027749622339838
 30
0.0
 11
-0.2763839069909189
 21
7.045466157772908
 31
0.0
  0
LINE
  5
44B9
330
1E
100
AcDbEntity
  8
7
100
AcDbLine
 10
-0.2763839069909189
 20
7.045466157772908
 30
0.0
 11
-0.2901634345499744
 21
7.067119701079995
 31
0.0
  0
LINE
  5
44BA
330
1E
100
AcDbEntity
  8
7
100
AcDbLine
 10
-0.1956752455735966
 20
7.021844110528814
 30
0.0
 11
-0.1956752455735966
 21
7.07105670895401
 31
0.0
  0
LINE
  5
44BB
330
1E
100
AcDbEntity
  8
7
100
AcDbLine
 10
-0.1956752455735966
 20
7.07105670895401
 30
0.0
 11
-0.1956752455735966
 21
7.120269307379206
 31
0.0
  0
LINE
  5
44BC
330
1E
100
AcDbEntity
  8
7
100
AcDbLine
 10
-0.1956752455735966
 20
7.120269307379206
 30
0.0
 11
-0.2429193400617855
 21
7.112395291631175
 31
0.0
  0
LINE
  5
44BD
330
1E
100
AcDbEntity
  8
7
100
AcDbLine
 10
-0.2429193400617855
 20
7.112395291631175
 30
0.0
 11
-0.2763839069909189
 21
7.094678756198105
 31
0.0
  0
LINE
  5
44BE
330
1E
100
AcDbEntity
  8
7
100
AcDbLine
 10
-0.2763839069909189
 20
7.094678756198105
 30
0.0
 11
-0.2901634345499744
 21
7.067119701079995
 31
0.0
  0
LINE
  5
44BF
330
1E
100
AcDbEntity
  8
7
100
AcDbLine
 10
-0.5657539857310763
 20
8.431292929426451
 30
0.0
 11
-0.5578799699830448
 21
8.460820488481569
 31
0.0
  0
LINE
  5
44C0
330
1E
100
AcDbEntity
  8
7
100
AcDbLine
 10
-0.5578799699830448
 20
8.460820488481569
 30
0.0
 11
-0.5362264266759587
 21
8.482474031788656
 31
0.0
  0
LINE
  5
44C1
330
1E
100
AcDbEntity
  8
7
100
AcDbLine
 10
-0.5362264266759587
 20
8.482474031788656
 30
0.0
 11
-0.5066988676208411
 21
8.492316551473695
 31
0.0
  0
LINE
  5
44C2
330
1E
100
AcDbEntity
  8
7
100
AcDbLine
 10
-0.5066988676208411
 20
3.992316551473695
 30
0.0
 11
-0.5362264266759587
 21
4.000190567221727
 31
0.0
  0
LINE
  5
44C3
330
1E
100
AcDbEntity
  8
7
100
AcDbLine
 10
-0.5362264266759587
 20
4.000190567221727
 30
0.0
 11
-0.5578799699830448
 21
4.021844110528814
 31
0.0
  0
LINE
  5
44C4
330
1E
100
AcDbEntity
  8
7
100
AcDbLine
 10
-0.5578799699830448
 20
4.021844110528814
 30
0.0
 11
-0.5657539857310763
 21
4.051371669583932
 31
0.0
  0
LINE
  5
44C5
330
1E
100
AcDbEntity
  8
7
100
AcDbLine
 10
2.184246014268922
 20
4.051371669583932
 30
0.0
 11
2.176371998520891
 21
4.021844110528814
 31
0.0
  0
LINE
  5
44C6
330
1E
100
AcDbEntity
  8
7
100
AcDbLine
 10
2.176371998520891
 20
4.021844110528814
 30
0.0
 11
2.154718455213805
 21
4.000190567221727
 31
0.0
  0
LINE
  5
44C7
330
1E
100
AcDbEntity
  8
7
100
AcDbLine
 10
2.154718455213805
 20
4.000190567221727
 30
0.0
 11
2.125190896158686
 21
3.992316551473695
 31
0.0
  0
LINE
  5
44C8
330
1E
100
AcDbEntity
  8
7
100
AcDbLine
 10
2.125190896158686
 20
8.492316551473695
 30
0.0
 11
2.154718455213805
 21
8.482474031788656
 31
0.0
  0
LINE
  5
44C9
330
1E
100
AcDbEntity
  8
7
100
AcDbLine
 10
2.154718455213805
 20
8.482474031788656
 30
0.0
 11
2.176371998520891
 21
8.460820488481569
 31
0.0
  0
LINE
  5
44CA
330
1E
100
AcDbEntity
  8
7
100
AcDbLine
 10
2.176371998520891
 20
8.460820488481569
 30
0.0
 11
2.184246014268922
 21
8.431292929426451
 31
0.0
  0
LINE
  5
44CB
330
1E
100
AcDbEntity
  8
7
100
AcDbLine
 10
0.7492066441901831
 20
4.750190567221727
 30
0.0
 11
0.6980255418279784
 21
4.740348047536688
 31
0.0
  0
LINE
  5
44CC
330
1E
100
AcDbEntity
  8
7
100
AcDbLine
 10
0.6980255418279784
 20
4.740348047536688
 30
0.0
 11
0.652749951276797
 21
4.714757496355586
 31
0.0
  0
LINE
  5
44CD
330
1E
100
AcDbEntity
  8
7
100
AcDbLine
 10
0.652749951276797
 20
4.714757496355586
 30
0.0
 11
0.6192853843476636
 21
4.675387417615429
 31
0.0
  0
LINE
  5
44CE
330
1E
100
AcDbEntity
  8
7
100
AcDbLine
 10
0.6192853843476636
 20
4.675387417615429
 30
0.0
 11
0.6015688489145923
 21
4.62617481919023
 31
0.0
  0
LINE
  5
44CF
330
1E
100
AcDbEntity
  8
7
100
AcDbLine
 10
0.6015688489145923
 20
4.62617481919023
 30
0.0
 11
0.6015688489145923
 21
4.574993716828027
 31
0.0
  0
LINE
  5
44D0
330
1E
100
AcDbEntity
  8
7
100
AcDbLine
 10
0.6015688489145923
 20
4.574993716828027
 30
0.0
 11
0.6192853843476636
 21
4.525781118402829
 31
0.0
  0
LINE
  5
44D1
330
1E
100
AcDbEntity
  8
7
100
AcDbLine
 10
0.6192853843476636
 20
4.525781118402829
 30
0.0
 11
0.652749951276797
 21
4.486411039662671
 31
0.0
  0
LINE
  5
44D2
330
1E
100
AcDbEntity
  8
7
100
AcDbLine
 10
0.652749951276797
 20
4.486411039662671
 30
0.0
 11
0.6980255418279784
 21
4.460820488481569
 31
0.0
  0
LINE
  5
44D3
330
1E
100
AcDbEntity
  8
7
100
AcDbLine
 10
0.6980255418279784
 20
4.460820488481569
 30
0.0
 11
0.7492066441901831
 21
4.45097796879653
 31
0.0
  0
LINE
  5
44D4
330
1E
100
AcDbEntity
  8
7
100
AcDbLine
 10
0.8692853843476635
 20
4.449009464859523
 30
0.0
 11
0.8692853843476635
 21
4.45097796879653
 31
0.0
  0
LINE
  5
44D5
330
1E
100
AcDbEntity
  8
7
100
AcDbLine
 10
0.8692853843476635
 20
4.45097796879653
 30
0.0
 11
0.7492066441901831
 21
4.45097796879653
 31
0.0
  0
LINE
  5
44D6
330
1E
100
AcDbEntity
  8
7
100
AcDbLine
 10
0.7492066441901831
 20
4.45097796879653
 30
0.0
 11
0.7492066441901831
 21
4.449009464859523
 31
0.0
  0
LINE
  5
44D7
330
1E
100
AcDbEntity
  8
7
100
AcDbLine
 10
0.8692853843476635
 20
4.45097796879653
 30
0.0
 11
0.9204664867098681
 21
4.460820488481569
 31
0.0
  0
LINE
  5
44D8
330
1E
100
AcDbEntity
  8
7
100
AcDbLine
 10
0.9204664867098681
 20
4.460820488481569
 30
0.0
 11
0.9657420772610487
 21
4.486411039662671
 31
0.0
  0
LINE
  5
44D9
330
1E
100
AcDbEntity
  8
7
100
AcDbLine
 10
0.9657420772610487
 20
4.486411039662671
 30
0.0
 11
0.999206644190183
 21
4.525781118402829
 31
0.0
  0
LINE
  5
44DA
330
1E
100
AcDbEntity
  8
7
100
AcDbLine
 10
0.999206644190183
 20
4.525781118402829
 30
0.0
 11
1.016923179623253
 21
4.574993716828027
 31
0.0
  0
LINE
  5
44DB
330
1E
100
AcDbEntity
  8
7
100
AcDbLine
 10
1.016923179623253
 20
4.574993716828027
 30
0.0
 11
1.016923179623253
 21
4.62617481919023
 31
0.0
  0
LINE
  5
44DC
330
1E
100
AcDbEntity
  8
7
100
AcDbLine
 10
1.016923179623253
 20
4.62617481919023
 30
0.0
 11
0.999206644190183
 21
4.675387417615429
 31
0.0
  0
LINE
  5
44DD
330
1E
100
AcDbEntity
  8
7
100
AcDbLine
 10
0.999206644190183
 20
4.675387417615429
 30
0.0
 11
0.9657420772610487
 21
4.714757496355586
 31
0.0
  0
LINE
  5
44DE
330
1E
100
AcDbEntity
  8
7
100
AcDbLine
 10
0.9657420772610487
 20
4.714757496355586
 30
0.0
 11
0.9204664867098681
 21
4.740348047536688
 31
0.0
  0
LINE
  5
44DF
330
1E
100
AcDbEntity
  8
7
100
AcDbLine
 10
0.9204664867098681
 20
4.740348047536688
 30
0.0
 11
0.8692853843476635
 21
4.750190567221727
 31
0.0
  0
LINE
  5
44E0
330
1E
100
AcDbEntity
  8
7
100
AcDbLine
 10
0.7492066441901831
 20
4.752159071158734
 30
0.0
 11
0.7492066441901831
 21
4.750190567221727
 31
0.0
  0
LINE
  5
44E1
330
1E
100
AcDbEntity
  8
7
100
AcDbLine
 10
0.7492066441901831
 20
4.750190567221727
 30
0.0
 11
0.8692853843476635
 21
4.750190567221727
 31
0.0
  0
LINE
  5
44E2
330
1E
100
AcDbEntity
  8
7
100
AcDbLine
 10
0.8692853843476635
 20
4.750190567221727
 30
0.0
 11
0.8692853843476635
 21
4.752159071158734
 31
0.0
  0
LINE
  5
44E3
330
1E
100
AcDbEntity
  8
7
100
AcDbLine
 10
0.6980255418279784
 20
4.742316551473695
 30
0.0
 11
0.652749951276797
 21
4.716726000292593
 31
0.0
  0
LINE
  5
44E4
330
1E
100
AcDbEntity
  8
7
100
AcDbLine
 10
0.652749951276797
 20
4.716726000292593
 30
0.0
 11
0.6173168804106553
 21
4.677355921552436
 31
0.0
  0
LINE
  5
44E5
330
1E
100
AcDbEntity
  8
7
100
AcDbLine
 10
0.6173168804106553
 20
4.677355921552436
 30
0.0
 11
0.5996003449775849
 21
4.62617481919023
 31
0.0
  0
LINE
  5
44E6
330
1E
100
AcDbEntity
  8
7
100
AcDbLine
 10
0.5996003449775849
 20
4.62617481919023
 30
0.0
 11
0.5996003449775849
 21
4.574993716828027
 31
0.0
  0
LINE
  5
44E7
330
1E
100
AcDbEntity
  8
7
100
AcDbLine
 10
0.5996003449775849
 20
4.574993716828027
 30
0.0
 11
0.6173168804106553
 21
4.525781118402829
 31
0.0
  0
LINE
  5
44E8
330
1E
100
AcDbEntity
  8
7
100
AcDbLine
 10
0.6173168804106553
 20
4.525781118402829
 30
0.0
 11
0.652749951276797
 21
4.484442535725664
 31
0.0
  0
LINE
  5
44E9
330
1E
100
AcDbEntity
  8
7
100
AcDbLine
 10
0.652749951276797
 20
4.484442535725664
 30
0.0
 11
0.6980255418279784
 21
4.458851984544562
 31
0.0
  0
LINE
  5
44EA
330
1E
100
AcDbEntity
  8
7
100
AcDbLine
 10
0.6980255418279784
 20
4.458851984544562
 30
0.0
 11
0.7492066441901831
 21
4.449009464859523
 31
0.0
  0
LINE
  5
44EB
330
1E
100
AcDbEntity
  8
7
100
AcDbLine
 10
0.9204664867098681
 20
4.458851984544562
 30
0.0
 11
0.9657420772610487
 21
4.484442535725664
 31
0.0
  0
LINE
  5
44EC
330
1E
100
AcDbEntity
  8
7
100
AcDbLine
 10
0.9657420772610487
 20
4.484442535725664
 30
0.0
 11
1.00117514812719
 21
4.523812614465821
 31
0.0
  0
LINE
  5
44ED
330
1E
100
AcDbEntity
  8
7
100
AcDbLine
 10
1.00117514812719
 20
4.523812614465821
 30
0.0
 11
1.018891683560261
 21
4.574993716828027
 31
0.0
  0
LINE
  5
44EE
330
1E
100
AcDbEntity
  8
7
100
AcDbLine
 10
1.018891683560261
 20
4.574993716828027
 30
0.0
 11
1.018891683560261
 21
4.62617481919023
 31
0.0
  0
LINE
  5
44EF
330
1E
100
AcDbEntity
  8
7
100
AcDbLine
 10
1.018891683560261
 20
4.62617481919023
 30
0.0
 11
1.00117514812719
 21
4.675387417615429
 31
0.0
  0
LINE
  5
44F0
330
1E
100
AcDbEntity
  8
7
100
AcDbLine
 10
1.00117514812719
 20
4.675387417615429
 30
0.0
 11
0.9657420772610487
 21
4.716726000292593
 31
0.0
  0
LINE
  5
44F1
330
1E
100
AcDbEntity
  8
7
100
AcDbLine
 10
0.9657420772610487
 20
4.716726000292593
 30
0.0
 11
0.9204664867098681
 21
4.742316551473695
 31
0.0
  0
LINE
  5
44F2
330
1E
100
AcDbEntity
  8
7
100
AcDbLine
 10
0.9204664867098681
 20
4.742316551473695
 30
0.0
 11
0.8692853843476635
 21
4.752159071158734
 31
0.0
  0
LINE
  5
44F3
330
1E
100
AcDbEntity
  8
7
100
AcDbLine
 10
0.9204664867098681
 20
7.742316551473695
 30
0.0
 11
0.9657420772610487
 21
7.767907102654797
 31
0.0
  0
LINE
  5
44F4
330
1E
100
AcDbEntity
  8
7
100
AcDbLine
 10
0.9657420772610487
 20
7.767907102654797
 30
0.0
 11
0.999206644190183
 21
7.807277181394955
 31
0.0
  0
LINE
  5
44F5
330
1E
100
AcDbEntity
  8
7
100
AcDbLine
 10
0.999206644190183
 20
7.807277181394955
 30
0.0
 11
1.016923179623253
 21
7.856489779820153
 31
0.0
  0
LINE
  5
44F6
330
1E
100
AcDbEntity
  8
7
100
AcDbLine
 10
1.016923179623253
 20
7.856489779820153
 30
0.0
 11
1.016923179623253
 21
7.907670882182356
 31
0.0
  0
LINE
  5
44F7
330
1E
100
AcDbEntity
  8
7
100
AcDbLine
 10
1.016923179623253
 20
7.907670882182356
 30
0.0
 11
0.999206644190183
 21
7.956883480607555
 31
0.0
  0
LINE
  5
44F8
330
1E
100
AcDbEntity
  8
7
100
AcDbLine
 10
0.999206644190183
 20
7.956883480607555
 30
0.0
 11
0.9657420772610487
 21
7.996253559347712
 31
0.0
  0
LINE
  5
44F9
330
1E
100
AcDbEntity
  8
7
100
AcDbLine
 10
0.9657420772610487
 20
7.996253559347712
 30
0.0
 11
0.9204664867098681
 21
8.021844110528814
 31
0.0
  0
LINE
  5
44FA
330
1E
100
AcDbEntity
  8
7
100
AcDbLine
 10
0.9204664867098681
 20
8.021844110528814
 30
0.0
 11
0.8692853843476635
 21
8.031686630213853
 31
0.0
  0
LINE
  5
44FB
330
1E
100
AcDbEntity
  8
7
100
AcDbLine
 10
0.6015688489145923
 20
7.856489779820153
 30
0.0
 11
0.6192853843476636
 21
7.807277181394955
 31
0.0
  0
LINE
  5
44FC
330
1E
100
AcDbEntity
  8
7
100
AcDbLine
 10
0.6192853843476636
 20
7.807277181394955
 30
0.0
 11
0.652749951276797
 21
7.767907102654797
 31
0.0
  0
LINE
  5
44FD
330
1E
100
AcDbEntity
  8
7
100
AcDbLine
 10
0.652749951276797
 20
7.767907102654797
 30
0.0
 11
0.6980255418279784
 21
7.742316551473695
 31
0.0
  0
LINE
  5
44FE
330
1E
100
AcDbEntity
  8
7
100
AcDbLine
 10
0.6980255418279784
 20
7.742316551473695
 30
0.0
 11
0.7492066441901831
 21
7.732474031788656
 31
0.0
  0
LINE
  5
44FF
330
1E
100
AcDbEntity
  8
7
100
AcDbLine
 10
0.7492066441901831
 20
8.031686630213853
 30
0.0
 11
0.6980255418279784
 21
8.021844110528814
 31
0.0
  0
LINE
  5
4500
330
1E
100
AcDbEntity
  8
7
100
AcDbLine
 10
0.6980255418279784
 20
8.021844110528814
 30
0.0
 11
0.652749951276797
 21
7.996253559347712
 31
0.0
  0
LINE
  5
4501
330
1E
100
AcDbEntity
  8
7
100
AcDbLine
 10
0.652749951276797
 20
7.996253559347712
 30
0.0
 11
0.6192853843476636
 21
7.956883480607555
 31
0.0
  0
LINE
  5
4502
330
1E
100
AcDbEntity
  8
7
100
AcDbLine
 10
0.6192853843476636
 20
7.956883480607555
 30
0.0
 11
0.6015688489145923
 21
7.907670882182356
 31
0.0
  0
LINE
  5
4503
330
1E
100
AcDbEntity
  8
7
100
AcDbLine
 10
0.6015688489145923
 20
7.907670882182356
 30
0.0
 11
0.6015688489145923
 21
7.856489779820153
 31
0.0
  0
LINE
  5
4504
330
1E
100
AcDbEntity
  8
7
100
AcDbLine
 10
0.8692853843476635
 20
7.730505527851649
 30
0.0
 11
0.9204664867098681
 21
7.740348047536688
 31
0.0
  0
LINE
  5
4505
330
1E
100
AcDbEntity
  8
7
100
AcDbLine
 10
0.9204664867098681
 20
7.740348047536688
 30
0.0
 11
0.9657420772610487
 21
7.76593859871779
 31
0.0
  0
LINE
  5
4506
330
1E
100
AcDbEntity
  8
7
100
AcDbLine
 10
0.9657420772610487
 20
7.76593859871779
 30
0.0
 11
1.00117514812719
 21
7.805308677457947
 31
0.0
  0
LINE
  5
4507
330
1E
100
AcDbEntity
  8
7
100
AcDbLine
 10
1.00117514812719
 20
7.805308677457947
 30
0.0
 11
1.018891683560261
 21
7.856489779820153
 31
0.0
  0
LINE
  5
4508
330
1E
100
AcDbEntity
  8
7
100
AcDbLine
 10
1.018891683560261
 20
7.856489779820153
 30
0.0
 11
1.018891683560261
 21
7.907670882182356
 31
0.0
  0
LINE
  5
4509
330
1E
100
AcDbEntity
  8
7
100
AcDbLine
 10
1.018891683560261
 20
7.907670882182356
 30
0.0
 11
1.00117514812719
 21
7.956883480607555
 31
0.0
  0
LINE
  5
450A
330
1E
100
AcDbEntity
  8
7
100
AcDbLine
 10
1.00117514812719
 20
7.956883480607555
 30
0.0
 11
0.9657420772610487
 21
7.998222063284719
 31
0.0
  0
LINE
  5
450B
330
1E
100
AcDbEntity
  8
7
100
AcDbLine
 10
0.9657420772610487
 20
7.998222063284719
 30
0.0
 11
0.9204664867098681
 21
8.023812614465821
 31
0.0
  0
LINE
  5
450C
330
1E
100
AcDbEntity
  8
7
100
AcDbLine
 10
0.9204664867098681
 20
8.023812614465821
 30
0.0
 11
0.8692853843476635
 21
8.03365513415086
 31
0.0
  0
LINE
  5
450D
330
1E
100
AcDbEntity
  8
7
100
AcDbLine
 10
0.7492066441901831
 20
8.03365513415086
 30
0.0
 11
0.6980255418279784
 21
8.023812614465821
 31
0.0
  0
LINE
  5
450E
330
1E
100
AcDbEntity
  8
7
100
AcDbLine
 10
0.6980255418279784
 20
8.023812614465821
 30
0.0
 11
0.652749951276797
 21
7.998222063284719
 31
0.0
  0
LINE
  5
450F
330
1E
100
AcDbEntity
  8
7
100
AcDbLine
 10
0.652749951276797
 20
7.998222063284719
 30
0.0
 11
0.6173168804106553
 21
7.958851984544562
 31
0.0
  0
LINE
  5
4510
330
1E
100
AcDbEntity
  8
7
100
AcDbLine
 10
0.6173168804106553
 20
7.958851984544562
 30
0.0
 11
0.5996003449775849
 21
7.907670882182356
 31
0.0
  0
LINE
  5
4511
330
1E
100
AcDbEntity
  8
7
100
AcDbLine
 10
0.5996003449775849
 20
7.907670882182356
 30
0.0
 11
0.5996003449775849
 21
7.856489779820153
 31
0.0
  0
LINE
  5
4512
330
1E
100
AcDbEntity
  8
7
100
AcDbLine
 10
0.5996003449775849
 20
7.856489779820153
 30
0.0
 11
0.6173168804106553
 21
7.807277181394955
 31
0.0
  0
LINE
  5
4513
330
1E
100
AcDbEntity
  8
7
100
AcDbLine
 10
0.6173168804106553
 20
7.807277181394955
 30
0.0
 11
0.652749951276797
 21
7.76593859871779
 31
0.0
  0
LINE
  5
4514
330
1E
100
AcDbEntity
  8
7
100
AcDbLine
 10
0.652749951276797
 20
7.76593859871779
 30
0.0
 11
0.6980255418279784
 21
7.740348047536688
 31
0.0
  0
LINE
  5
4515
330
1E
100
AcDbEntity
  8
7
100
AcDbLine
 10
0.6980255418279784
 20
7.740348047536688
 30
0.0
 11
0.7492066441901831
 21
7.730505527851649
 31
0.0
  0
LINE
  5
4516
330
1E
100
AcDbEntity
  8
7
100
AcDbLine
 10
0.2807027071823089
 20
6.616332299505192
 30
0.0
 11
0.0681042819854589
 21
6.616332299505192
 31
0.0
  0
LINE
  5
4517
330
1E
100
AcDbEntity
  8
7
100
AcDbLine
 10
0.0681042819854589
 20
6.616332299505192
 30
0.0
 11
0.0484192426153802
 21
6.397828362497318
 31
0.0
  0
LINE
  5
4518
330
1E
100
AcDbEntity
  8
7
100
AcDbLine
 10
0.9145609748988441
 20
6.616332299505192
 30
0.0
 11
0.7019625497019942
 21
6.616332299505192
 31
0.0
  0
LINE
  5
4519
330
1E
100
AcDbEntity
  8
7
100
AcDbLine
 10
0.7019625497019942
 20
6.616332299505192
 30
0.0
 11
0.6842460142689229
 21
6.397828362497318
 31
0.0
  0
LINE
  5
451A
330
1E
100
AcDbEntity
  8
7
100
AcDbLine
 10
1.550387746552387
 20
6.616332299505192
 30
0.0
 11
1.337789321355537
 21
6.616332299505192
 31
0.0
  0
LINE
  5
451B
330
1E
100
AcDbEntity
  8
7
100
AcDbLine
 10
1.337789321355537
 20
6.616332299505192
 30
0.0
 11
1.320072785922466
 21
6.397828362497318
 31
0.0
  0
LINE
  5
451C
330
1E
100
AcDbEntity
  8
7
100
AcDbLine
 10
0.2807027071823089
 20
5.118300803442199
 30
0.0
 11
0.0681042819854589
 21
5.118300803442199
 31
0.0
  0
LINE
  5
451D
330
1E
100
AcDbEntity
  8
7
100
AcDbLine
 10
0.0681042819854589
 20
5.118300803442199
 30
0.0
 11
0.0484192426153802
 21
4.899796866434325
 31
0.0
  0
LINE
  5
451E
330
1E
100
AcDbEntity
  8
7
100
AcDbLine
 10
1.550387746552387
 20
5.118300803442199
 30
0.0
 11
1.337789321355537
 21
5.118300803442199
 31
0.0
  0
LINE
  5
451F
330
1E
100
AcDbEntity
  8
7
100
AcDbLine
 10
1.337789321355537
 20
5.118300803442199
 30
0.0
 11
1.320072785922466
 21
4.899796866434325
 31
0.0
  0
LINE
  5
4520
330
1E
100
AcDbEntity
  8
7
100
AcDbLine
 10
0.9145609748988441
 20
5.118300803442199
 30
0.0
 11
0.7019625497019942
 21
5.118300803442199
 31
0.0
  0
LINE
  5
4521
330
1E
100
AcDbEntity
  8
7
100
AcDbLine
 10
0.7019625497019942
 20
5.118300803442199
 30
0.0
 11
0.6842460142689229
 21
4.899796866434325
 31
0.0
  0
LINE
  5
4522
330
1E
100
AcDbEntity
  8
7
100
AcDbLine
 10
1.914560974898844
 20
4.976568519977632
 30
0.0
 11
1.900781447339789
 21
4.925387417615429
 31
0.0
  0
LINE
  5
4523
330
1E
100
AcDbEntity
  8
7
100
AcDbLine
 10
1.900781447339789
 20
4.925387417615429
 30
0.0
 11
1.88109640796971
 21
4.886017338875269
 31
0.0
  0
LINE
  5
4524
330
1E
100
AcDbEntity
  8
7
100
AcDbLine
 10
1.88109640796971
 20
4.886017338875269
 30
0.0
 11
1.857474360725616
 21
4.860426787694168
 31
0.0
  0
LINE
  5
4525
330
1E
100
AcDbEntity
  8
7
100
AcDbLine
 10
1.857474360725616
 20
4.860426787694168
 30
0.0
 11
1.827946801670497
 21
4.852552771946136
 31
0.0
  0
LINE
  5
4526
330
1E
100
AcDbEntity
  8
7
100
AcDbLine
 10
1.827946801670497
 20
4.852552771946136
 30
0.0
 11
1.688183022142938
 21
4.852552771946136
 31
0.0
  0
LINE
  5
4527
330
1E
100
AcDbEntity
  8
7
100
AcDbLine
 10
1.827946801670497
 20
6.169481905804405
 30
0.0
 11
1.855505856788608
 21
6.161607890056373
 31
0.0
  0
LINE
  5
4528
330
1E
100
AcDbEntity
  8
7
100
AcDbLine
 10
1.855505856788608
 20
6.161607890056373
 30
0.0
 11
1.88109640796971
 21
6.139954346749286
 31
0.0
  0
LINE
  5
4529
330
1E
100
AcDbEntity
  8
7
100
AcDbLine
 10
1.88109640796971
 20
6.139954346749286
 30
0.0
 11
1.900781447339789
 21
6.104521275883143
 31
0.0
  0
LINE
  5
452A
330
1E
100
AcDbEntity
  8
7
100
AcDbLine
 10
1.900781447339789
 20
6.104521275883143
 30
0.0
 11
1.914560974898844
 21
6.061214189268971
 31
0.0
  0
LINE
  5
452B
330
1E
100
AcDbEntity
  8
7
100
AcDbLine
 10
1.914560974898844
 20
6.061214189268971
 30
0.0
 11
1.918497982772859
 21
6.012001590843775
 31
0.0
  0
LINE
  5
452C
330
1E
100
AcDbEntity
  8
7
100
AcDbLine
 10
-0.3000059542350133
 20
6.012001590843775
 30
0.0
 11
-0.2960689463609984
 21
6.061214189268971
 31
0.0
  0
LINE
  5
452D
330
1E
100
AcDbEntity
  8
7
100
AcDbLine
 10
-0.2960689463609984
 20
6.061214189268971
 30
0.0
 11
-0.2822894188019429
 21
6.104521275883143
 31
0.0
  0
LINE
  5
452E
330
1E
100
AcDbEntity
  8
7
100
AcDbLine
 10
-0.2822894188019429
 20
6.104521275883143
 30
0.0
 11
-0.2626043794318642
 21
6.139954346749286
 31
0.0
  0
LINE
  5
452F
330
1E
100
AcDbEntity
  8
7
100
AcDbLine
 10
-0.2626043794318642
 20
6.139954346749286
 30
0.0
 11
-0.2389823321877698
 21
6.161607890056373
 31
0.0
  0
LINE
  5
4530
330
1E
100
AcDbEntity
  8
7
100
AcDbLine
 10
-0.2389823321877698
 20
6.161607890056373
 30
0.0
 11
-0.2094547731326521
 21
6.169481905804405
 31
0.0
  0
LINE
  5
4531
330
1E
100
AcDbEntity
  8
7
100
AcDbLine
 10
-0.0716594975421003
 20
4.852552771946136
 30
0.0
 11
-0.2094547731326521
 21
4.852552771946136
 31
0.0
  0
LINE
  5
4532
330
1E
100
AcDbEntity
  8
7
100
AcDbLine
 10
-0.2094547731326521
 20
4.852552771946136
 30
0.0
 11
-0.2389823321877698
 21
4.860426787694168
 31
0.0
  0
LINE
  5
4533
330
1E
100
AcDbEntity
  8
7
100
AcDbLine
 10
-0.2389823321877698
 20
4.860426787694168
 30
0.0
 11
-0.2626043794318642
 21
4.886017338875269
 31
0.0
  0
LINE
  5
4534
330
1E
100
AcDbEntity
  8
7
100
AcDbLine
 10
-0.2626043794318642
 20
4.886017338875269
 30
0.0
 11
-0.2842579227389503
 21
4.925387417615429
 31
0.0
  0
LINE
  5
4535
330
1E
100
AcDbEntity
  8
7
100
AcDbLine
 10
-0.2842579227389503
 20
4.925387417615429
 30
0.0
 11
-0.2960689463609984
 21
4.976568519977632
 31
0.0
  0
LINE
  5
4536
330
1E
100
AcDbEntity
  8
7
100
AcDbLine
 10
-0.2960689463609984
 20
4.976568519977632
 30
0.0
 11
-0.3000059542350133
 21
5.031686630213853
 31
0.0
  0
LINE
  5
4537
330
1E
100
AcDbEntity
  8
7
100
AcDbLine
 10
0.5641672741114432
 20
4.852552771946136
 30
0.0
 11
0.4184979827728599
 21
4.852552771946136
 31
0.0
  0
LINE
  5
4538
330
1E
100
AcDbEntity
  8
7
100
AcDbLine
 10
0.4184979827728599
 20
4.852552771946136
 30
0.0
 11
-0.0716594975421003
 21
4.852552771946136
 31
0.0
  0
LINE
  5
4539
330
1E
100
AcDbEntity
  8
7
100
AcDbLine
 10
1.918497982772859
 20
7.510033086906766
 30
0.0
 11
1.918497982772859
 21
6.529718126276845
 31
0.0
  0
LINE
  5
453A
330
1E
100
AcDbEntity
  8
7
100
AcDbLine
 10
1.918497982772859
 20
6.529718126276845
 30
0.0
 11
1.914560974898844
 21
6.474600016040625
 31
0.0
  0
LINE
  5
453B
330
1E
100
AcDbEntity
  8
7
100
AcDbLine
 10
1.914560974898844
 20
6.474600016040625
 30
0.0
 11
1.900781447339789
 21
6.423418913678419
 31
0.0
  0
LINE
  5
453C
330
1E
100
AcDbEntity
  8
7
100
AcDbLine
 10
1.900781447339789
 20
6.423418913678419
 30
0.0
 11
1.88109640796971
 21
6.384048834938262
 31
0.0
  0
LINE
  5
453D
330
1E
100
AcDbEntity
  8
7
100
AcDbLine
 10
1.88109640796971
 20
6.384048834938262
 30
0.0
 11
1.857474360725616
 21
6.35845828375716
 31
0.0
  0
LINE
  5
453E
330
1E
100
AcDbEntity
  8
7
100
AcDbLine
 10
1.857474360725616
 20
6.35845828375716
 30
0.0
 11
1.827946801670497
 21
6.350584268009129
 31
0.0
  0
LINE
  5
453F
330
1E
100
AcDbEntity
  8
7
100
AcDbLine
 10
1.827946801670497
 20
6.350584268009129
 30
0.0
 11
1.688183022142938
 21
6.350584268009129
 31
0.0
  0
LINE
  5
4540
330
1E
100
AcDbEntity
  8
7
100
AcDbLine
 10
1.827946801670497
 20
7.667513401867395
 30
0.0
 11
1.855505856788608
 21
7.659639386119364
 31
0.0
  0
LINE
  5
4541
330
1E
100
AcDbEntity
  8
7
100
AcDbLine
 10
1.855505856788608
 20
7.659639386119364
 30
0.0
 11
1.88109640796971
 21
7.637985842812279
 31
0.0
  0
LINE
  5
4542
330
1E
100
AcDbEntity
  8
7
100
AcDbLine
 10
1.88109640796971
 20
7.637985842812279
 30
0.0
 11
1.900781447339789
 21
7.602552771946136
 31
0.0
  0
LINE
  5
4543
330
1E
100
AcDbEntity
  8
7
100
AcDbLine
 10
1.900781447339789
 20
7.602552771946136
 30
0.0
 11
1.914560974898844
 21
7.559245685331964
 31
0.0
  0
LINE
  5
4544
330
1E
100
AcDbEntity
  8
7
100
AcDbLine
 10
1.914560974898844
 20
7.559245685331964
 30
0.0
 11
1.918497982772859
 21
7.510033086906766
 31
0.0
  0
LINE
  5
4545
330
1E
100
AcDbEntity
  8
7
100
AcDbLine
 10
-0.3000059542350133
 20
6.529718126276845
 30
0.0
 11
-0.3000059542350133
 21
7.510033086906766
 31
0.0
  0
LINE
  5
4546
330
1E
100
AcDbEntity
  8
7
100
AcDbLine
 10
-0.3000059542350133
 20
7.510033086906766
 30
0.0
 11
-0.2960689463609984
 21
7.559245685331964
 31
0.0
  0
LINE
  5
4547
330
1E
100
AcDbEntity
  8
7
100
AcDbLine
 10
-0.2960689463609984
 20
7.559245685331964
 30
0.0
 11
-0.2822894188019429
 21
7.602552771946136
 31
0.0
  0
LINE
  5
4548
330
1E
100
AcDbEntity
  8
7
100
AcDbLine
 10
-0.2822894188019429
 20
7.602552771946136
 30
0.0
 11
-0.2626043794318642
 21
7.637985842812279
 31
0.0
  0
LINE
  5
4549
330
1E
100
AcDbEntity
  8
7
100
AcDbLine
 10
-0.2626043794318642
 20
7.637985842812279
 30
0.0
 11
-0.2389823321877698
 21
7.659639386119364
 31
0.0
  0
LINE
  5
454A
330
1E
100
AcDbEntity
  8
7
100
AcDbLine
 10
-0.2389823321877698
 20
7.659639386119364
 30
0.0
 11
-0.2094547731326521
 21
7.667513401867395
 31
0.0
  0
LINE
  5
454B
330
1E
100
AcDbEntity
  8
7
100
AcDbLine
 10
0.5641672741114432
 20
6.350584268009129
 30
0.0
 11
0.4184979827728599
 21
6.350584268009129
 31
0.0
  0
LINE
  5
454C
330
1E
100
AcDbEntity
  8
7
100
AcDbLine
 10
0.4184979827728599
 20
6.350584268009129
 30
0.0
 11
-0.0716594975421003
 21
6.350584268009129
 31
0.0
  0
LINE
  5
454D
330
1E
100
AcDbEntity
  8
7
100
AcDbLine
 10
-0.0716594975421003
 20
6.350584268009129
 30
0.0
 11
-0.2094547731326521
 21
6.350584268009129
 31
0.0
  0
LINE
  5
454E
330
1E
100
AcDbEntity
  8
7
100
AcDbLine
 10
-0.2094547731326521
 20
6.350584268009129
 30
0.0
 11
-0.2389823321877698
 21
6.35845828375716
 31
0.0
  0
LINE
  5
454F
330
1E
100
AcDbEntity
  8
7
100
AcDbLine
 10
-0.2389823321877698
 20
6.35845828375716
 30
0.0
 11
-0.2626043794318642
 21
6.384048834938262
 31
0.0
  0
LINE
  5
4550
330
1E
100
AcDbEntity
  8
7
100
AcDbLine
 10
-0.2626043794318642
 20
6.384048834938262
 30
0.0
 11
-0.2842579227389503
 21
6.423418913678419
 31
0.0
  0
LINE
  5
4551
330
1E
100
AcDbEntity
  8
7
100
AcDbLine
 10
-0.2842579227389503
 20
6.423418913678419
 30
0.0
 11
-0.2960689463609984
 21
6.474600016040625
 31
0.0
  0
LINE
  5
4552
330
1E
100
AcDbEntity
  8
7
100
AcDbLine
 10
-0.2960689463609984
 20
6.474600016040625
 30
0.0
 11
-0.3000059542350133
 21
6.529718126276845
 31
0.0
  0
LINE
  5
4553
330
1E
100
AcDbEntity
  8
7
100
AcDbLine
 10
-0.5618169778570615
 20
4.055308677457947
 30
0.0
 11
-0.55394296210903
 21
4.023812614465821
 31
0.0
  0
LINE
  5
4554
330
1E
100
AcDbEntity
  8
7
100
AcDbLine
 10
-0.55394296210903
 20
4.023812614465821
 30
0.0
 11
-0.532289418801943
 21
4.002159071158734
 31
0.0
  0
LINE
  5
4555
330
1E
100
AcDbEntity
  8
7
100
AcDbLine
 10
-0.532289418801943
 20
4.002159071158734
 30
0.0
 11
-0.5027618597468245
 21
3.994285055410703
 31
0.0
  0
LINE
  5
4556
330
1E
100
AcDbEntity
  8
7
100
AcDbLine
 10
-0.5618169778570615
 20
4.055308677457947
 30
0.0
 11
-0.5519744581720217
 21
4.061214189268971
 31
0.0
  0
LINE
  5
4557
330
1E
100
AcDbEntity
  8
7
100
AcDbLine
 10
-0.5519744581720217
 20
4.061214189268971
 30
0.0
 11
-0.5283524109279272
 21
4.078930724702042
 31
0.0
  0
LINE
  5
4558
330
1E
100
AcDbEntity
  8
7
100
AcDbLine
 10
-0.5283524109279272
 20
4.078930724702042
 30
0.0
 11
-0.4929193400617855
 21
4.106489779820153
 31
0.0
  0
LINE
  5
4559
330
1E
100
AcDbEntity
  8
7
100
AcDbLine
 10
-0.4929193400617855
 20
4.106489779820153
 30
0.0
 11
-0.4476437495106041
 21
4.139954346749286
 31
0.0
  0
LINE
  5
455A
330
1E
100
AcDbEntity
  8
7
100
AcDbLine
 10
-0.4476437495106041
 20
4.139954346749286
 30
0.0
 11
-0.394494143211392
 21
4.177355921552436
 31
0.0
  0
LINE
  5
455B
330
1E
100
AcDbEntity
  8
7
100
AcDbLine
 10
-0.394494143211392
 20
4.177355921552436
 30
0.0
 11
-0.3374075290381633
 21
4.218694504229601
 31
0.0
  0
LINE
  5
455C
330
1E
100
AcDbEntity
  8
7
100
AcDbLine
 10
-0.3374075290381633
 20
8.263970094780782
 30
0.0
 11
-0.394494143211392
 21
8.305308677457947
 31
0.0
  0
LINE
  5
455D
330
1E
100
AcDbEntity
  8
7
100
AcDbLine
 10
-0.394494143211392
 20
8.305308677457947
 30
0.0
 11
-0.4476437495106041
 21
8.342710252261097
 31
0.0
  0
LINE
  5
455E
330
1E
100
AcDbEntity
  8
7
100
AcDbLine
 10
-0.4476437495106041
 20
8.342710252261097
 30
0.0
 11
-0.4929193400617855
 21
8.37617481919023
 31
0.0
  0
LINE
  5
455F
330
1E
100
AcDbEntity
  8
7
100
AcDbLine
 10
-0.4929193400617855
 20
8.37617481919023
 30
0.0
 11
-0.5283524109279272
 21
8.403733874308342
 31
0.0
  0
LINE
  5
4560
330
1E
100
AcDbEntity
  8
7
100
AcDbLine
 10
-0.5283524109279272
 20
8.403733874308342
 30
0.0
 11
-0.5519744581720217
 21
8.421450409741412
 31
0.0
  0
LINE
  5
4561
330
1E
100
AcDbEntity
  8
7
100
AcDbLine
 10
-0.5519744581720217
 20
8.421450409741412
 30
0.0
 11
-0.5618169778570615
 21
8.427355921552436
 31
0.0
  0
LINE
  5
4562
330
1E
100
AcDbEntity
  8
7
100
AcDbLine
 10
-0.5027618597468245
 20
8.48837954359968
 30
0.0
 11
-0.532289418801943
 21
8.480505527851649
 31
0.0
  0
LINE
  5
4563
330
1E
100
AcDbEntity
  8
7
100
AcDbLine
 10
-0.532289418801943
 20
8.480505527851649
 30
0.0
 11
-0.55394296210903
 21
8.458851984544562
 31
0.0
  0
LINE
  5
4564
330
1E
100
AcDbEntity
  8
7
100
AcDbLine
 10
-0.55394296210903
 20
8.458851984544562
 30
0.0
 11
-0.5618169778570615
 21
8.427355921552436
 31
0.0
  0
LINE
  5
4565
330
1E
100
AcDbEntity
  8
7
100
AcDbLine
 10
-0.5027618597468245
 20
8.48837954359968
 30
0.0
 11
-0.494887843998793
 21
8.47853702391464
 31
0.0
  0
LINE
  5
4566
330
1E
100
AcDbEntity
  8
7
100
AcDbLine
 10
-0.494887843998793
 20
8.47853702391464
 30
0.0
 11
-0.4771713085657226
 21
8.454914976670545
 31
0.0
  0
LINE
  5
4567
330
1E
100
AcDbEntity
  8
7
100
AcDbLine
 10
-0.4771713085657226
 20
8.454914976670545
 30
0.0
 11
-0.4515807573846207
 21
8.417513401867395
 31
0.0
  0
LINE
  5
4568
330
1E
100
AcDbEntity
  8
7
100
AcDbLine
 10
-0.4515807573846207
 20
8.417513401867395
 30
0.0
 11
-0.4181161904554865
 21
8.372237811316216
 31
0.0
  0
LINE
  5
4569
330
1E
100
AcDbEntity
  8
7
100
AcDbLine
 10
-0.4181161904554865
 20
8.372237811316216
 30
0.0
 11
-0.378746111715329
 21
8.319088205017003
 31
0.0
  0
LINE
  5
456A
330
1E
100
AcDbEntity
  8
7
100
AcDbLine
 10
-0.378746111715329
 20
8.319088205017003
 30
0.0
 11
-0.3374075290381633
 21
8.263970094780782
 31
0.0
  0
LINE
  5
456B
330
1E
100
AcDbEntity
  8
7
100
AcDbLine
 10
-0.3374075290381633
 20
4.218694504229601
 30
0.0
 11
-0.378746111715329
 21
4.16357639399338
 31
0.0
  0
LINE
  5
456C
330
1E
100
AcDbEntity
  8
7
100
AcDbLine
 10
-0.378746111715329
 20
4.16357639399338
 30
0.0
 11
-0.4181161904554865
 21
4.110426787694168
 31
0.0
  0
LINE
  5
456D
330
1E
100
AcDbEntity
  8
7
100
AcDbLine
 10
-0.4181161904554865
 20
4.110426787694168
 30
0.0
 11
-0.4515807573846207
 21
4.065151197142986
 31
0.0
  0
LINE
  5
456E
330
1E
100
AcDbEntity
  8
7
100
AcDbLine
 10
-0.4515807573846207
 20
4.065151197142986
 30
0.0
 11
-0.4771713085657226
 21
4.027749622339838
 31
0.0
  0
LINE
  5
456F
330
1E
100
AcDbEntity
  8
7
100
AcDbLine
 10
-0.4771713085657226
 20
4.027749622339838
 30
0.0
 11
-0.494887843998793
 21
4.004127575095743
 31
0.0
  0
LINE
  5
4570
330
1E
100
AcDbEntity
  8
7
100
AcDbLine
 10
-0.494887843998793
 20
4.004127575095743
 30
0.0
 11
-0.5027618597468245
 21
3.994285055410703
 31
0.0
  0
LINE
  5
4571
330
1E
100
AcDbEntity
  8
7
100
AcDbLine
 10
2.12125388828467
 20
3.994285055410703
 30
0.0
 11
2.150781447339789
 21
4.002159071158734
 31
0.0
  0
LINE
  5
4572
330
1E
100
AcDbEntity
  8
7
100
AcDbLine
 10
2.150781447339789
 20
4.002159071158734
 30
0.0
 11
2.172434990646875
 21
4.023812614465821
 31
0.0
  0
LINE
  5
4573
330
1E
100
AcDbEntity
  8
7
100
AcDbLine
 10
2.172434990646875
 20
4.023812614465821
 30
0.0
 11
2.180309006394907
 21
4.055308677457947
 31
0.0
  0
LINE
  5
4574
330
1E
100
AcDbEntity
  8
7
100
AcDbLine
 10
2.12125388828467
 20
3.994285055410703
 30
0.0
 11
2.113379872536639
 21
4.004127575095743
 31
0.0
  0
LINE
  5
4575
330
1E
100
AcDbEntity
  8
7
100
AcDbLine
 10
2.113379872536639
 20
4.004127575095743
 30
0.0
 11
2.095663337103569
 21
4.027749622339838
 31
0.0
  0
LINE
  5
4576
330
1E
100
AcDbEntity
  8
7
100
AcDbLine
 10
2.095663337103569
 20
4.027749622339838
 30
0.0
 11
2.070072785922466
 21
4.065151197142986
 31
0.0
  0
LINE
  5
4577
330
1E
100
AcDbEntity
  8
7
100
AcDbLine
 10
2.070072785922466
 20
4.065151197142986
 30
0.0
 11
2.036608218993332
 21
4.110426787694168
 31
0.0
  0
LINE
  5
4578
330
1E
100
AcDbEntity
  8
7
100
AcDbLine
 10
2.036608218993332
 20
4.110426787694168
 30
0.0
 11
1.997238140253174
 21
4.16357639399338
 31
0.0
  0
LINE
  5
4579
330
1E
100
AcDbEntity
  8
7
100
AcDbLine
 10
1.997238140253174
 20
4.16357639399338
 30
0.0
 11
1.955899557576009
 21
4.218694504229601
 31
0.0
  0
LINE
  5
457A
330
1E
100
AcDbEntity
  8
7
100
AcDbLine
 10
1.955899557576009
 20
4.218694504229601
 30
0.0
 11
2.012986171749237
 21
4.177355921552436
 31
0.0
  0
LINE
  5
457B
330
1E
100
AcDbEntity
  8
7
100
AcDbLine
 10
2.012986171749237
 20
4.177355921552436
 30
0.0
 11
2.06613577804845
 21
4.139954346749286
 31
0.0
  0
LINE
  5
457C
330
1E
100
AcDbEntity
  8
7
100
AcDbLine
 10
2.06613577804845
 20
4.139954346749286
 30
0.0
 11
2.111411368599632
 21
4.106489779820153
 31
0.0
  0
LINE
  5
457D
330
1E
100
AcDbEntity
  8
7
100
AcDbLine
 10
2.111411368599632
 20
4.106489779820153
 30
0.0
 11
2.146844439465773
 21
4.078930724702042
 31
0.0
  0
LINE
  5
457E
330
1E
100
AcDbEntity
  8
7
100
AcDbLine
 10
2.146844439465773
 20
4.078930724702042
 30
0.0
 11
2.170466486709868
 21
4.061214189268971
 31
0.0
  0
LINE
  5
457F
330
1E
100
AcDbEntity
  8
7
100
AcDbLine
 10
2.170466486709868
 20
4.061214189268971
 30
0.0
 11
2.180309006394907
 21
4.055308677457947
 31
0.0
  0
LINE
  5
4580
330
1E
100
AcDbEntity
  8
7
100
AcDbLine
 10
1.955899557576009
 20
8.263970094780782
 30
0.0
 11
1.997238140253174
 21
8.319088205017003
 31
0.0
  0
LINE
  5
4581
330
1E
100
AcDbEntity
  8
7
100
AcDbLine
 10
1.997238140253174
 20
8.319088205017003
 30
0.0
 11
2.036608218993332
 21
8.372237811316216
 31
0.0
  0
LINE
  5
4582
330
1E
100
AcDbEntity
  8
7
100
AcDbLine
 10
2.036608218993332
 20
8.372237811316216
 30
0.0
 11
2.070072785922466
 21
8.417513401867395
 31
0.0
  0
LINE
  5
4583
330
1E
100
AcDbEntity
  8
7
100
AcDbLine
 10
2.070072785922466
 20
8.417513401867395
 30
0.0
 11
2.095663337103569
 21
8.454914976670545
 31
0.0
  0
LINE
  5
4584
330
1E
100
AcDbEntity
  8
7
100
AcDbLine
 10
2.095663337103569
 20
8.454914976670545
 30
0.0
 11
2.113379872536639
 21
8.47853702391464
 31
0.0
  0
LINE
  5
4585
330
1E
100
AcDbEntity
  8
7
100
AcDbLine
 10
2.113379872536639
 20
8.47853702391464
 30
0.0
 11
2.12125388828467
 21
8.48837954359968
 31
0.0
  0
LINE
  5
4586
330
1E
100
AcDbEntity
  8
7
100
AcDbLine
 10
2.180309006394907
 20
8.427355921552436
 30
0.0
 11
2.172434990646875
 21
8.458851984544562
 31
0.0
  0
LINE
  5
4587
330
1E
100
AcDbEntity
  8
7
100
AcDbLine
 10
2.172434990646875
 20
8.458851984544562
 30
0.0
 11
2.150781447339789
 21
8.480505527851649
 31
0.0
  0
LINE
  5
4588
330
1E
100
AcDbEntity
  8
7
100
AcDbLine
 10
2.150781447339789
 20
8.480505527851649
 30
0.0
 11
2.12125388828467
 21
8.48837954359968
 31
0.0
  0
LINE
  5
4589
330
1E
100
AcDbEntity
  8
7
100
AcDbLine
 10
2.06613577804845
 20
8.342710252261097
 30
0.0
 11
2.012986171749237
 21
8.305308677457947
 31
0.0
  0
LINE
  5
458A
330
1E
100
AcDbEntity
  8
7
100
AcDbLine
 10
2.012986171749237
 20
8.305308677457947
 30
0.0
 11
1.955899557576009
 21
8.263970094780782
 31
0.0
  0
LINE
  5
458B
330
1E
100
AcDbEntity
  8
7
100
AcDbLine
 10
2.180309006394907
 20
8.427355921552436
 30
0.0
 11
2.170466486709868
 21
8.421450409741412
 31
0.0
  0
LINE
  5
458C
330
1E
100
AcDbEntity
  8
7
100
AcDbLine
 10
2.170466486709868
 20
8.421450409741412
 30
0.0
 11
2.146844439465773
 21
8.403733874308342
 31
0.0
  0
LINE
  5
458D
330
1E
100
AcDbEntity
  8
7
100
AcDbLine
 10
2.146844439465773
 20
8.403733874308342
 30
0.0
 11
2.111411368599632
 21
8.37617481919023
 31
0.0
  0
LINE
  5
458E
330
1E
100
AcDbEntity
  8
7
100
AcDbLine
 10
2.111411368599632
 20
8.37617481919023
 30
0.0
 11
2.06613577804845
 21
8.342710252261097
 31
0.0
  0
LINE
  5
458F
330
1E
100
AcDbEntity
  8
7
100
AcDbLine
 10
-0.1267776077783207
 20
8.086804740450073
 30
0.0
 11
-0.1169350880932818
 21
8.10845828375716
 31
0.0
  0
LINE
  5
4590
330
1E
100
AcDbEntity
  8
7
100
AcDbLine
 10
-0.1169350880932818
 20
8.10845828375716
 30
0.0
 11
-0.0952815447861948
 21
8.118300803442199
 31
0.0
  0
LINE
  5
4591
330
1E
100
AcDbEntity
  8
7
100
AcDbLine
 10
-0.0952815447861948
 20
8.118300803442199
 30
0.0
 11
-0.0972500487232022
 21
8.118300803442199
 31
0.0
  0
LINE
  5
4592
330
1E
100
AcDbEntity
  8
7
100
AcDbLine
 10
-0.0972500487232022
 20
8.118300803442199
 30
0.0
 11
-0.1189035920302892
 21
8.10845828375716
 31
0.0
  0
LINE
  5
4593
330
1E
100
AcDbEntity
  8
7
100
AcDbLine
 10
-0.1189035920302892
 20
8.10845828375716
 30
0.0
 11
-0.128746111715329
 21
8.086804740450073
 31
0.0
  0
LINE
  5
4594
330
1E
100
AcDbEntity
  8
7
100
AcDbLine
 10
-0.0952815447861948
 20
7.706883480607555
 30
0.0
 11
-0.1169350880932818
 21
7.714757496355586
 31
0.0
  0
LINE
  5
4595
330
1E
100
AcDbEntity
  8
7
100
AcDbLine
 10
-0.1169350880932818
 20
7.714757496355586
 30
0.0
 11
-0.1267776077783207
 21
7.73837954359968
 31
0.0
  0
LINE
  5
4596
330
1E
100
AcDbEntity
  8
7
100
AcDbLine
 10
-0.1267776077783207
 20
7.73837954359968
 30
0.0
 11
-0.128746111715329
 21
7.736411039662671
 31
0.0
  0
LINE
  5
4597
330
1E
100
AcDbEntity
  8
7
100
AcDbLine
 10
-0.128746111715329
 20
7.736411039662671
 30
0.0
 11
-0.1189035920302892
 21
7.714757496355586
 31
0.0
  0
LINE
  5
4598
330
1E
100
AcDbEntity
  8
7
100
AcDbLine
 10
-0.1189035920302892
 20
7.714757496355586
 30
0.0
 11
-0.0972500487232022
 21
7.704914976670545
 31
0.0
  0
LINE
  5
4599
330
1E
100
AcDbEntity
  8
7
100
AcDbLine
 10
-0.0637854817940689
 20
7.706883480607555
 30
0.0
 11
-0.0657539857310763
 21
7.706883480607555
 31
0.0
  0
LINE
  5
459A
330
1E
100
AcDbEntity
  8
7
100
AcDbLine
 10
-0.0657539857310763
 20
7.706883480607555
 30
0.0
 11
-0.0952815447861948
 21
7.706883480607555
 31
0.0
  0
LINE
  5
459B
330
1E
100
AcDbEntity
  8
7
100
AcDbLine
 10
1.745269636316167
 20
7.73837954359968
 30
0.0
 11
1.735427116631127
 21
7.714757496355586
 31
0.0
  0
LINE
  5
459C
330
1E
100
AcDbEntity
  8
7
100
AcDbLine
 10
1.735427116631127
 20
7.714757496355586
 30
0.0
 11
1.713773573324041
 21
7.706883480607555
 31
0.0
  0
LINE
  5
459D
330
1E
100
AcDbEntity
  8
7
100
AcDbLine
 10
1.713773573324041
 20
7.706883480607555
 30
0.0
 11
1.715742077261048
 21
7.704914976670545
 31
0.0
  0
LINE
  5
459E
330
1E
100
AcDbEntity
  8
7
100
AcDbLine
 10
1.715742077261048
 20
7.704914976670545
 30
0.0
 11
1.737395620568135
 21
7.714757496355586
 31
0.0
  0
LINE
  5
459F
330
1E
100
AcDbEntity
  8
7
100
AcDbLine
 10
1.737395620568135
 20
7.714757496355586
 30
0.0
 11
1.747238140253174
 21
7.736411039662671
 31
0.0
  0
LINE
  5
45A0
330
1E
100
AcDbEntity
  8
7
100
AcDbLine
 10
1.747238140253174
 20
8.086804740450073
 30
0.0
 11
1.737395620568135
 21
8.10845828375716
 31
0.0
  0
LINE
  5
45A1
330
1E
100
AcDbEntity
  8
7
100
AcDbLine
 10
1.737395620568135
 20
8.10845828375716
 30
0.0
 11
1.715742077261048
 21
8.118300803442199
 31
0.0
  0
LINE
  5
45A2
330
1E
100
AcDbEntity
  8
7
100
AcDbLine
 10
1.715742077261048
 20
8.118300803442199
 30
0.0
 11
1.713773573324041
 21
8.118300803442199
 31
0.0
  0
LINE
  5
45A3
330
1E
100
AcDbEntity
  8
7
100
AcDbLine
 10
1.713773573324041
 20
8.118300803442199
 30
0.0
 11
1.735427116631127
 21
8.10845828375716
 31
0.0
  0
LINE
  5
45A4
330
1E
100
AcDbEntity
  8
7
100
AcDbLine
 10
1.735427116631127
 20
8.10845828375716
 30
0.0
 11
1.745269636316167
 21
8.086804740450073
 31
0.0
  0
LINE
  5
45A5
330
1E
100
AcDbEntity
  8
7
100
AcDbLine
 10
1.745269636316167
 20
8.086804740450073
 30
0.0
 11
1.747238140253174
 21
8.086804740450073
 31
0.0
  0
LINE
  5
45A6
330
1E
100
AcDbEntity
  8
7
100
AcDbLine
 10
1.713773573324041
 20
4.366332299505192
 30
0.0
 11
1.735427116631127
 21
4.374206315253223
 31
0.0
  0
LINE
  5
45A7
330
1E
100
AcDbEntity
  8
7
100
AcDbLine
 10
1.735427116631127
 20
4.374206315253223
 30
0.0
 11
1.745269636316167
 21
4.39585985856031
 31
0.0
  0
LINE
  5
45A8
330
1E
100
AcDbEntity
  8
7
100
AcDbLine
 10
1.745269636316167
 20
4.39585985856031
 30
0.0
 11
1.747238140253174
 21
4.39585985856031
 31
0.0
  0
LINE
  5
45A9
330
1E
100
AcDbEntity
  8
7
100
AcDbLine
 10
1.747238140253174
 20
4.39585985856031
 30
0.0
 11
1.737395620568135
 21
4.374206315253223
 31
0.0
  0
LINE
  5
45AA
330
1E
100
AcDbEntity
  8
7
100
AcDbLine
 10
1.737395620568135
 20
4.374206315253223
 30
0.0
 11
1.715742077261048
 21
4.364363795568184
 31
0.0
  0
LINE
  5
45AB
330
1E
100
AcDbEntity
  8
7
100
AcDbLine
 10
1.745269636316167
 20
4.744285055410703
 30
0.0
 11
1.735427116631127
 21
4.767907102654797
 31
0.0
  0
LINE
  5
45AC
330
1E
100
AcDbEntity
  8
7
100
AcDbLine
 10
1.735427116631127
 20
4.767907102654797
 30
0.0
 11
1.713773573324041
 21
4.775781118402829
 31
0.0
  0
LINE
  5
45AD
330
1E
100
AcDbEntity
  8
7
100
AcDbLine
 10
1.715742077261048
 20
4.777749622339838
 30
0.0
 11
1.737395620568135
 21
4.767907102654797
 31
0.0
  0
LINE
  5
45AE
330
1E
100
AcDbEntity
  8
7
100
AcDbLine
 10
1.737395620568135
 20
4.767907102654797
 30
0.0
 11
1.747238140253174
 21
4.746253559347712
 31
0.0
  0
LINE
  5
45AF
330
1E
100
AcDbEntity
  8
7
100
AcDbLine
 10
-0.0637854817940689
 20
4.775781118402829
 30
0.0
 11
1.682277510331915
 21
4.775781118402829
 31
0.0
  0
LINE
  5
45B0
330
1E
100
AcDbEntity
  8
7
100
AcDbLine
 10
1.682277510331915
 20
4.775781118402829
 30
0.0
 11
1.684246014268922
 21
4.775781118402829
 31
0.0
  0
LINE
  5
45B1
330
1E
100
AcDbEntity
  8
7
100
AcDbLine
 10
-0.0952815447861948
 20
4.775781118402829
 30
0.0
 11
-0.1169350880932818
 21
4.767907102654797
 31
0.0
  0
LINE
  5
45B2
330
1E
100
AcDbEntity
  8
7
100
AcDbLine
 10
-0.1169350880932818
 20
4.767907102654797
 30
0.0
 11
-0.1267776077783207
 21
4.744285055410703
 31
0.0
  0
LINE
  5
45B3
330
1E
100
AcDbEntity
  8
7
100
AcDbLine
 10
-0.1267776077783207
 20
4.744285055410703
 30
0.0
 11
-0.128746111715329
 21
4.746253559347712
 31
0.0
  0
LINE
  5
45B4
330
1E
100
AcDbEntity
  8
7
100
AcDbLine
 10
-0.128746111715329
 20
4.746253559347712
 30
0.0
 11
-0.1189035920302892
 21
4.767907102654797
 31
0.0
  0
LINE
  5
45B5
330
1E
100
AcDbEntity
  8
7
100
AcDbLine
 10
-0.1189035920302892
 20
4.767907102654797
 30
0.0
 11
-0.0972500487232022
 21
4.777749622339838
 31
0.0
  0
LINE
  5
45B6
330
1E
100
AcDbEntity
  8
7
100
AcDbLine
 10
-0.0972500487232022
 20
4.364363795568184
 30
0.0
 11
-0.1189035920302892
 21
4.374206315253223
 31
0.0
  0
LINE
  5
45B7
330
1E
100
AcDbEntity
  8
7
100
AcDbLine
 10
-0.1189035920302892
 20
4.374206315253223
 30
0.0
 11
-0.128746111715329
 21
4.39585985856031
 31
0.0
  0
LINE
  5
45B8
330
1E
100
AcDbEntity
  8
7
100
AcDbLine
 10
-0.128746111715329
 20
4.39585985856031
 30
0.0
 11
-0.128746111715329
 21
4.746253559347712
 31
0.0
  0
LINE
  5
45B9
330
1E
100
AcDbEntity
  8
7
100
AcDbLine
 10
-0.1267776077783207
 20
4.39585985856031
 30
0.0
 11
-0.1169350880932818
 21
4.374206315253223
 31
0.0
  0
LINE
  5
45BA
330
1E
100
AcDbEntity
  8
7
100
AcDbLine
 10
-0.1169350880932818
 20
4.374206315253223
 30
0.0
 11
-0.0952815447861948
 21
4.366332299505192
 31
0.0
  0
LINE
  5
45BB
330
1E
100
AcDbEntity
  8
7
100
AcDbLine
 10
1.054324754426403
 20
6.407670882182356
 30
0.0
 11
1.199994045764985
 21
6.407670882182356
 31
0.0
  0
LINE
  5
45BC
330
1E
100
AcDbEntity
  8
7
100
AcDbLine
 10
1.199994045764985
 20
6.407670882182356
 30
0.0
 11
1.199994045764985
 21
6.454914976670545
 31
0.0
  0
LINE
  5
45BD
330
1E
100
AcDbEntity
  8
7
100
AcDbLine
 10
0.4184979827728599
 20
6.407670882182356
 30
0.0
 11
0.5641672741114432
 21
6.407670882182356
 31
0.0
  0
LINE
  5
45BE
330
1E
100
AcDbEntity
  8
7
100
AcDbLine
 10
0.5641672741114432
 20
6.407670882182356
 30
0.0
 11
0.5641672741114432
 21
6.454914976670545
 31
0.0
  0
LINE
  5
45BF
330
1E
100
AcDbEntity
  8
7
100
AcDbLine
 10
0.4184979827728599
 20
4.909639386119364
 30
0.0
 11
0.5641672741114432
 21
4.909639386119364
 31
0.0
  0
LINE
  5
45C0
330
1E
100
AcDbEntity
  8
7
100
AcDbLine
 10
0.5641672741114432
 20
4.909639386119364
 30
0.0
 11
0.5641672741114432
 21
4.956883480607555
 31
0.0
  0
ENDSEC
  0
SECTION
  2
OBJECTS
  0
DICTIONARY
  5
C
330
0
100
AcDbDictionary
  3
ACAD_GROUP
350
D
  3
ACAD_LAYOUT
350
19
  3
ACAD_MLINESTYLE
350
16
  3
ACAD_PLOTSETTINGS
350
18
1001
ACAD
1000
TREAT_AS_HARD
1070
     0
  0
DICTIONARY
  5
580A
330
1E
100
AcDbDictionary
  3
ACAD_LAYOUTSELFREF
350
5845
1001
ACAD
1000
TREAT_AS_HARD
1070
     1
  0
DICTIONARY
  5
580C
330
1A
100
AcDbDictionary
  3
ACAD_LAYOUTSELFREF
350
5844
1001
ACAD
1000
TREAT_AS_HARD
1070
     1
  0
DICTIONARY
  5
D
102
{ACAD_REACTORS
330
C
102
}
330
C
100
AcDbDictionary
1001
ACAD
1000
TREAT_AS_HARD
1070
     0
  0
DICTIONARY
  5
19
102
{ACAD_REACTORS
330
C
102
}
330
C
100
AcDbDictionary
1001
ACAD
1000
TREAT_AS_HARD
1070
     0
  0
DICTIONARY
  5
16
102
{ACAD_REACTORS
330
C
102
}
330
C
100
AcDbDictionary
  3
STANDARD
350
17
1001
ACAD
1000
TREAT_AS_HARD
1070
     0
  0
DICTIONARY
  5
18
102
{ACAD_REACTORS
330
C
102
}
330
C
100
AcDbDictionary
1001
ACAD
1000
TREAT_AS_HARD
1070
     0
  0
XRECORD
  5
5845
102
{ACAD_REACTORS
330
580A
102
}
330
580A
100
AcDbXrecord
340
1E
  0
XRECORD
  5
5844
102
{ACAD_REACTORS
330
580C
102
}
330
580C
100
AcDbXrecord
340
1A
  0
MLINESTYLE
  5
17
102
{ACAD_REACTORS
330
16
102
}
330
16
100
AcDbMlineStyle
  2
STANDARD
 70
     0
  3

 62
   256
 51
90.0
 52
90.0
 71
     2
 49
0.5
 62
   256
  6
BYLAYER
 49
-0.5
 62
   256
  6
BYLAYER
  0
ENDSEC
  0
EOF
