  0
SECTION
  2
HEADER
  9
$ACADVER
  1
AC1012
  9
$DWGCODEPAGE
  3
ANSI_1252
  9
$INSBASE
 10
0.0
 20
0.0
 30
0.0
  9
$EXTMIN
 10
-3.019685039370079
 20
1.762795275590551
 30
0.0
  9
$EXTMAX
 10
0.3976377952755898
 20
2.483267716535432
 30
0.0
  9
$LIMMIN
 10
0.0
 20
0.0
  9
$LIMMAX
 10
12.0
 20
9.0
  9
$ORTHOMODE
 70
     0
  9
$REGENMODE
 70
     1
  9
$FILLMODE
 70
     1
  9
$QTEXTMODE
 70
     0
  9
$MIRRTEXT
 70
     1
  9
$DRAGMODE
 70
     2
  9
$LTSCALE
 40
1.0
  9
$OSMODE
 70
    37
  9
$ATTMODE
 70
     1
  9
$TEXTSIZE
 40
0.2
  9
$TRACEWID
 40
0.05
  9
$TEXTSTYLE
  7
STANDARD
  9
$CLAYER
  8
0
  9
$CELTYPE
  6
BYLAYER
  9
$CECOLOR
 62
   256
  9
$CELTSCALE
 40
1.0
  9
$DELOBJ
 70
     1
  9
$DISPSILH
 70
     0
  9
$DIMSCALE
 40
1.0
  9
$DIMASZ
 40
0.18
  9
$DIMEXO
 40
0.0625
  9
$DIMDLI
 40
0.38
  9
$DIMRND
 40
0.0
  9
$DIMDLE
 40
0.0
  9
$DIMEXE
 40
0.18
  9
$DIMTP
 40
0.0
  9
$DIMTM
 40
0.0
  9
$DIMTXT
 40
0.18
  9
$DIMCEN
 40
0.09
  9
$DIMTSZ
 40
0.0
  9
$DIMTOL
 70
     0
  9
$DIMLIM
 70
     0
  9
$DIMTIH
 70
     1
  9
$DIMTOH
 70
     1
  9
$DIMSE1
 70
     0
  9
$DIMSE2
 70
     0
  9
$DIMTAD
 70
     0
  9
$DIMZIN
 70
     0
  9
$DIMBLK
  1

  9
$DIMASO
 70
     1
  9
$DIMSHO
 70
     1
  9
$DIMPOST
  1

  9
$DIMAPOST
  1

  9
$DIMALT
 70
     0
  9
$DIMALTD
 70
     2
  9
$DIMALTF
 40
25.4
  9
$DIMLFAC
 40
1.0
  9
$DIMTOFL
 70
     0
  9
$DIMTVP
 40
0.0
  9
$DIMTIX
 70
     0
  9
$DIMSOXD
 70
     0
  9
$DIMSAH
 70
     0
  9
$DIMBLK1
  1

  9
$DIMBLK2
  1

  9
$DIMSTYLE
  2
STANDARD
  9
$DIMCLRD
 70
     0
  9
$DIMCLRE
 70
     0
  9
$DIMCLRT
 70
     0
  9
$DIMTFAC
 40
1.0
  9
$DIMGAP
 40
0.09
  9
$DIMJUST
 70
     0
  9
$DIMSD1
 70
     0
  9
$DIMSD2
 70
     0
  9
$DIMTOLJ
 70
     1
  9
$DIMTZIN
 70
     0
  9
$DIMALTZ
 70
     0
  9
$DIMALTTZ
 70
     0
  9
$DIMFIT
 70
     5
  9
$DIMUPT
 70
     0
  9
$DIMUNIT
 70
     2
  9
$DIMDEC
 70
     4
  9
$DIMTDEC
 70
     4
  9
$DIMALTU
 70
     2
  9
$DIMALTTD
 70
     2
  9
$DIMTXSTY
  7
STANDARD
  9
$DIMAUNIT
 70
     0
  9
$LUNITS
 70
     2
  9
$LUPREC
 70
     4
  9
$SKETCHINC
 40
0.1
  9
$FILLETRAD
 40
0.0
  9
$AUNITS
 70
     0
  9
$AUPREC
 70
     0
  9
$MENU
  1
acad
  9
$ELEVATION
 40
0.0
  9
$PELEVATION
 40
0.0
  9
$THICKNESS
 40
0.0
  9
$LIMCHECK
 70
     0
  9
$BLIPMODE
 70
     0
  9
$CHAMFERA
 40
0.0
  9
$CHAMFERB
 40
0.0
  9
$CHAMFERC
 40
0.0
  9
$CHAMFERD
 40
0.0
  9
$SKPOLY
 70
     0
  9
$TDCREATE
 40
2452360.560775463
  9
$TDUPDATE
 40
2452380.469780937
  9
$TDINDWG
 40
0.0012471065
  9
$TDUSRTIMER
 40
0.0012471065
  9
$USRTIMER
 70
     1
  9
$ANGBASE
 50
0.0
  9
$ANGDIR
 70
     0
  9
$PDMODE
 70
     0
  9
$PDSIZE
 40
0.0
  9
$PLINEWID
 40
0.0
  9
$COORDS
 70
     1
  9
$SPLFRAME
 70
     0
  9
$SPLINETYPE
 70
     6
  9
$SPLINESEGS
 70
     8
  9
$ATTDIA
 70
     0
  9
$ATTREQ
 70
     1
  9
$HANDLING
 70
  4097
  9
$HANDSEED
  5
3B1
  9
$SURFTAB1
 70
     6
  9
$SURFTAB2
 70
     6
  9
$SURFTYPE
 70
     6
  9
$SURFU
 70
     6
  9
$SURFV
 70
     6
  9
$UCSNAME
  2

  9
$UCSORG
 10
0.0
 20
0.0
 30
0.0
  9
$UCSXDIR
 10
1.0
 20
0.0
 30
0.0
  9
$UCSYDIR
 10
0.0
 20
1.0
 30
0.0
  9
$PUCSNAME
  2

  9
$PUCSORG
 10
0.0
 20
0.0
 30
0.0
  9
$PUCSXDIR
 10
1.0
 20
0.0
 30
0.0
  9
$PUCSYDIR
 10
0.0
 20
1.0
 30
0.0
  9
$USERI1
 70
     0
  9
$USERI2
 70
     0
  9
$USERI3
 70
     0
  9
$USERI4
 70
     0
  9
$USERI5
 70
     0
  9
$USERR1
 40
0.0
  9
$USERR2
 40
0.0
  9
$USERR3
 40
0.0
  9
$USERR4
 40
0.0
  9
$USERR5
 40
0.0
  9
$WORLDVIEW
 70
     1
  9
$SHADEDGE
 70
     3
  9
$SHADEDIF
 70
    70
  9
$TILEMODE
 70
     1
  9
$MAXACTVP
 70
    16
  9
$PINSBASE
 10
0.0
 20
0.0
 30
0.0
  9
$PLIMCHECK
 70
     0
  9
$PEXTMIN
 10
1.000000000000000E+20
 20
1.000000000000000E+20
 30
1.000000000000000E+20
  9
$PEXTMAX
 10
-1.000000000000000E+20
 20
-1.000000000000000E+20
 30
-1.000000000000000E+20
  9
$PLIMMIN
 10
0.0
 20
0.0
  9
$PLIMMAX
 10
12.0
 20
9.0
  9
$UNITMODE
 70
     0
  9
$VISRETAIN
 70
     0
  9
$PLINEGEN
 70
     0
  9
$PSLTSCALE
 70
     1
  9
$TREEDEPTH
 70
  3020
  9
$PICKSTYLE
 70
     1
  9
$CMLSTYLE
  2
STANDARD
  9
$CMLJUST
 70
     0
  9
$CMLSCALE
 40
1.0
  9
$SAVEIMAGES
 70
     1
  0
ENDSEC
  0
SECTION
  2
CLASSES
  0
CLASS
  1
ACDBDICTIONARYWDFLT
  2
AcDbDictionaryWithDefault
  3
AutoCAD 2000
 90
    32768
280
     0
281
     0
  0
CLASS
  1
ACDBPLACEHOLDER
  2
AcDbPlaceHolder
  3
AutoCAD 2000
 90
    32768
280
     0
281
     0
  0
CLASS
  1
LAYOUT
  2
AcDbLayout
  3
AutoCAD 2000
 90
    32768
280
     0
281
     0
  0
CLASS
  1
LONG_TRANSACTION
  2
AcDbLongTransaction
  3
AutoCAD 2000
 90
    32768
280
     0
281
     0
  0
CLASS
  1
LWPOLYLINE
  2
AcDbPolyline
  3
AutoCAD 2000
 90
    32768
280
     0
281
     1
  0
CLASS
  1
HATCH
  2
AcDbHatch
  3
AutoCAD 2000
 90
    32768
280
     0
281
     1
  0
CLASS
  1
XRECORD
  2
AcDbXrecord
  3
AutoCAD 2000
 90
    32768
280
     0
281
     0
  0
CLASS
  1
LONG_TRANSACTION
  2
AcDbLongTransaction
  3
AutoCAD 2000
 90
    32768
280
     0
281
     0
  0
CLASS
  1
LWPOLYLINE
  2
AcDbPolyline
  3
AutoCAD 2000
 90
    32768
280
     0
281
     1
  0
CLASS
  1
HATCH
  2
AcDbHatch
  3
AutoCAD 2000
 90
    32768
280
     0
281
     1
  0
CLASS
  1
XRECORD
  2
AcDbXrecord
  3
AutoCAD 2000
 90
    32768
280
     0
281
     0
  0
ENDSEC
  0
SECTION
  2
TABLES
  0
TABLE
  2
VPORT
  5
8
330
0
100
AcDbSymbolTable
 70
     4
  0
VPORT
  5
3AE
330
8
100
AcDbSymbolTableRecord
100
AcDbViewportTableRecord
  2
*ACTIVE
 70
     0
 10
0.0
 20
0.0
 11
1.0
 21
1.0
 12
-1.30204059117064
 22
2.123176592894802
 13
0.0
 23
0.0
 14
1.0
 24
1.0
 15
0.0
 25
0.0
 16
0.0
 26
0.0
 36
1.0
 17
0.0
 27
0.0
 37
0.0
 40
2.282032829876468
 41
1.517766497461928
 42
50.0
 43
0.0
 44
0.0
 50
0.0
 51
0.0
 71
     0
 72
   100
 73
     1
 74
     1
 75
     0
 76
     0
 77
     0
 78
     0
  0
ENDTAB
  0
TABLE
  2
LTYPE
  5
5
330
0
100
AcDbSymbolTable
 70
    25
  0
LTYPE
  5
13
330
5
100
AcDbSymbolTableRecord
100
AcDbLinetypeTableRecord
  2
BYBLOCK
 70
     0
  3

 72
    65
 73
     0
 40
0.0
  0
LTYPE
  5
14
330
5
100
AcDbSymbolTableRecord
100
AcDbLinetypeTableRecord
  2
BYLAYER
 70
     0
  3

 72
    65
 73
     0
 40
0.0
  0
LTYPE
  5
15
330
5
100
AcDbSymbolTableRecord
100
AcDbLinetypeTableRecord
  2
CONTINUOUS
 70
     0
  3
Solid line
 72
    65
 73
     0
 40
0.0
  0
ENDTAB
  0
TABLE
  2
LAYER
  5
2
330
0
100
AcDbSymbolTable
 70
   256
  0
LAYER
  5
10
330
2
100
AcDbSymbolTableRecord
100
AcDbLayerTableRecord
  2
0
 70
     0
 62
     7
  6
CONTINUOUS
  0
LAYER
  5
40
330
2
100
AcDbSymbolTableRecord
100
AcDbLayerTableRecord
  2
7
 70
     0
 62
     7
  6
CONTINUOUS
  0
ENDTAB
  0
TABLE
  2
STYLE
  5
3
330
0
100
AcDbSymbolTable
 70
     1
  0
STYLE
  5
11
330
3
100
AcDbSymbolTableRecord
100
AcDbTextStyleTableRecord
  2
STANDARD
 70
     0
 40
0.0
 41
1.0
 50
0.0
 71
     0
 42
0.2
  3
monotxt
  4

  0
ENDTAB
  0
TABLE
  2
VIEW
  5
6
330
0
100
AcDbSymbolTable
 70
     0
  0
ENDTAB
  0
TABLE
  2
UCS
  5
7
330
0
100
AcDbSymbolTable
 70
     0
  0
ENDTAB
  0
TABLE
  2
APPID
  5
9
330
0
100
AcDbSymbolTable
 70
     1
  0
APPID
  5
12
330
9
100
AcDbSymbolTableRecord
100
AcDbRegAppTableRecord
  2
ACAD
 70
     0
  0
ENDTAB
  0
TABLE
  2
DIMSTYLE
  5
A
330
0
100
AcDbSymbolTable
 70
     1
  0
DIMSTYLE
105
2BE
330
A
100
AcDbSymbolTableRecord
100
AcDbDimStyleTableRecord
  2
STANDARD
 70
     0
  3

  4

  5

  6

  7

 40
1.0
 41
0.18
 42
0.0625
 43
0.38
 44
0.18
 45
0.0
 46
0.0
 47
0.0
 48
0.0
140
0.18
141
0.09
142
0.0
143
25.4
144
1.0
145
0.0
146
1.0
147
0.09
 71
     0
 72
     0
 73
     1
 74
     1
 75
     0
 76
     0
 77
     0
 78
     0
170
     0
171
     2
172
     0
173
     0
174
     0
175
     0
176
     0
177
     0
178
     0
270
     2
271
     4
272
     4
273
     2
274
     2
340
11
275
     0
280
     0
281
     0
282
     0
283
     1
284
     0
285
     0
286
     0
287
     3
288
     0
  0
ENDTAB
  0
TABLE
  2
BLOCK_RECORD
  5
1
330
0
100
AcDbSymbolTable
 70
     0
  0
BLOCK_RECORD
  5
1E
102
{ACAD_XDICTIONARY
360
345
102
}
330
1
100
AcDbSymbolTableRecord
100
AcDbBlockTableRecord
  2
*MODEL_SPACE
  0
BLOCK_RECORD
  5
1A
102
{ACAD_XDICTIONARY
360
347
102
}
330
1
100
AcDbSymbolTableRecord
100
AcDbBlockTableRecord
  2
*PAPER_SPACE
  0
ENDTAB
  0
ENDSEC
  0
SECTION
  2
BLOCKS
  0
BLOCK
  5
13B
330
1E
100
AcDbEntity
  8
0
100
AcDbBlockBegin
  2
*MODEL_SPACE
 70
     0
 10
0.0
 20
0.0
 30
0.0
  3
*MODEL_SPACE
  1

  0
ENDBLK
  5
13C
330
1E
100
AcDbEntity
  8
0
100
AcDbBlockEnd
  0
BLOCK
  5
139
330
1A
100
AcDbEntity
 67
     1
  8
0
100
AcDbBlockBegin
  2
*PAPER_SPACE
 70
     0
 10
0.0
 20
0.0
 30
0.0
  3
*PAPER_SPACE
  1

  0
ENDBLK
  5
13A
330
1A
100
AcDbEntity
 67
     1
  8
0
100
AcDbBlockEnd
  0
ENDSEC
  0
SECTION
  2
ENTITIES
  0
LINE
  5
143
330
1E
100
AcDbEntity
  8
7
100
AcDbLine
 10
-2.861220472440945
 20
2.127952755905511
 30
0.0
 11
-2.861220472440945
 21
2.161417322834645
 31
0.0
  0
LINE
  5
149
330
1E
100
AcDbEntity
  8
7
100
AcDbLine
 10
-2.572834645669291
 20
2.161417322834645
 30
0.0
 11
-2.572834645669291
 21
2.127952755905511
 31
0.0
  0
LINE
  5
14A
330
1E
100
AcDbEntity
  8
7
100
AcDbLine
 10
-2.816929133858268
 20
1.891732283464567
 30
0.0
 11
-2.616141732283464
 21
1.891732283464567
 31
0.0
  0
LINE
  5
155
330
1E
100
AcDbEntity
  8
7
100
AcDbLine
 10
-2.607283464566929
 20
1.877952755905511
 30
0.0
 11
-2.610236220472441
 21
1.885826771653542
 31
0.0
  0
LINE
  5
156
330
1E
100
AcDbEntity
  8
7
100
AcDbLine
 10
-2.610236220472441
 20
1.885826771653542
 30
0.0
 11
-2.617125984251968
 21
1.891732283464567
 31
0.0
  0
LINE
  5
157
330
1E
100
AcDbEntity
  8
7
100
AcDbLine
 10
-2.607283464566929
 20
1.84251968503937
 30
0.0
 11
-2.607283464566929
 21
1.877952755905511
 31
0.0
  0
LINE
  5
15D
330
1E
100
AcDbEntity
  8
7
100
AcDbLine
 10
-2.812007874015748
 20
1.82775590551181
 30
0.0
 11
-2.622047244094488
 21
1.82775590551181
 31
0.0
  0
LINE
  5
163
330
1E
100
AcDbEntity
  8
7
100
AcDbLine
 10
-2.826771653543307
 20
1.877952755905511
 30
0.0
 11
-2.826771653543307
 21
1.84251968503937
 31
0.0
  0
LINE
  5
164
330
1E
100
AcDbEntity
  8
7
100
AcDbLine
 10
-2.479330708661417
 20
2.464566929133857
 30
0.0
 11
-2.479330708661417
 21
2.412401574803149
 31
0.0
  0
LINE
  5
165
330
1E
100
AcDbEntity
  8
7
100
AcDbLine
 10
-2.479330708661417
 20
2.464566929133857
 30
0.0
 11
-2.954724409448819
 21
2.464566929133857
 31
0.0
  0
LINE
  5
166
330
1E
100
AcDbEntity
  8
7
100
AcDbLine
 10
-2.954724409448819
 20
2.412401574803149
 30
0.0
 11
-2.954724409448819
 21
2.464566929133857
 31
0.0
  0
LINE
  5
167
330
1E
100
AcDbEntity
  8
7
100
AcDbLine
 10
-3.014763779527559
 20
2.412401574803149
 30
0.0
 11
-2.954724409448819
 21
2.412401574803149
 31
0.0
  0
LINE
  5
16E
330
1E
100
AcDbEntity
  8
7
100
AcDbLine
 10
-2.479330708661417
 20
2.412401574803149
 30
0.0
 11
-2.418307086614173
 21
2.412401574803149
 31
0.0
  0
LINE
  5
181
330
1E
100
AcDbEntity
  8
7
100
AcDbLine
 10
-2.563976377952756
 20
2.295275590551181
 30
0.0
 11
-2.563976377952756
 21
2.127952755905511
 31
0.0
  0
LINE
  5
187
330
1E
100
AcDbEntity
  8
7
100
AcDbLine
 10
-2.584645669291338
 20
2.108267716535432
 30
0.0
 11
-2.849409448818898
 21
2.108267716535432
 31
0.0
  0
LINE
  5
18D
330
1E
100
AcDbEntity
  8
7
100
AcDbLine
 10
-2.869094488188976
 20
2.127952755905511
 30
0.0
 11
-2.869094488188976
 21
2.295275590551181
 31
0.0
  0
LINE
  5
18E
330
1E
100
AcDbEntity
  8
7
100
AcDbLine
 10
-2.859251968503937
 20
2.261811023622046
 30
0.0
 11
-2.859251968503937
 21
2.161417322834645
 31
0.0
  0
LINE
  5
18F
330
1E
100
AcDbEntity
  8
7
100
AcDbLine
 10
-2.766732283464567
 20
2.118110236220472
 30
0.0
 11
-2.667322834645669
 21
2.118110236220472
 31
0.0
  0
LINE
  5
190
330
1E
100
AcDbEntity
  8
7
100
AcDbLine
 10
-2.574803149606299
 20
2.161417322834645
 30
0.0
 11
-2.574803149606299
 21
2.261811023622046
 31
0.0
  0
LINE
  5
196
330
1E
100
AcDbEntity
  8
7
100
AcDbLine
 10
-2.801181102362205
 20
2.363188976377952
 30
0.0
 11
-2.801181102362205
 21
2.31003937007874
 31
0.0
  0
LINE
  5
19C
330
1E
100
AcDbEntity
  8
7
100
AcDbLine
 10
-2.859251968503937
 20
2.23523622047244
 30
0.0
 11
-2.806102362204724
 21
2.23523622047244
 31
0.0
  0
LINE
  5
19D
330
1E
100
AcDbEntity
  8
7
100
AcDbLine
 10
-2.806102362204724
 20
2.187992125984251
 30
0.0
 11
-2.859251968503937
 21
2.187992125984251
 31
0.0
  0
LINE
  5
1A3
330
1E
100
AcDbEntity
  8
7
100
AcDbLine
 10
-2.627952755905512
 20
2.23523622047244
 30
0.0
 11
-2.574803149606299
 21
2.23523622047244
 31
0.0
  0
LINE
  5
1AA
330
1E
100
AcDbEntity
  8
7
100
AcDbLine
 10
-2.740157480314961
 20
2.118110236220472
 30
0.0
 11
-2.740157480314961
 21
2.161417322834645
 31
0.0
  0
LINE
  5
1AB
330
1E
100
AcDbEntity
  8
7
100
AcDbLine
 10
-2.692913385826772
 20
2.161417322834645
 30
0.0
 11
-2.692913385826772
 21
2.118110236220472
 31
0.0
  0
LINE
  5
1CC
330
1E
100
AcDbEntity
  8
7
100
AcDbLine
 10
-2.47736220472441
 20
2.413385826771653
 30
0.0
 11
-2.479330708661417
 21
2.412401574803149
 31
0.0
  0
LINE
  5
1D2
330
1E
100
AcDbEntity
  8
7
100
AcDbLine
 10
-2.47736220472441
 20
2.413385826771653
 30
0.0
 11
-2.413385826771653
 21
2.413385826771653
 31
0.0
  0
LINE
  5
1D8
330
1E
100
AcDbEntity
  8
7
100
AcDbLine
 10
-2.47736220472441
 20
2.483267716535432
 30
0.0
 11
-2.47736220472441
 21
2.413385826771653
 31
0.0
  0
LINE
  5
1E9
330
1E
100
AcDbEntity
  8
7
100
AcDbLine
 10
-3.019685039370079
 20
2.413385826771653
 30
0.0
 11
-3.019685039370079
 21
2.477362204724408
 31
0.0
  0
LINE
  5
1EA
330
1E
100
AcDbEntity
  8
7
100
AcDbLine
 10
-3.019685039370079
 20
2.413385826771653
 30
0.0
 11
-2.956692913385826
 21
2.413385826771653
 31
0.0
  0
LINE
  5
1EB
330
1E
100
AcDbEntity
  8
7
100
AcDbLine
 10
-2.956692913385826
 20
2.413385826771653
 30
0.0
 11
-2.956692913385826
 21
2.483267716535432
 31
0.0
  0
LINE
  5
1F1
330
1E
100
AcDbEntity
  8
7
100
AcDbLine
 10
-2.954724409448819
 20
2.412401574803149
 30
0.0
 11
-2.956692913385826
 21
2.413385826771653
 31
0.0
  0
LINE
  5
1F2
330
1E
100
AcDbEntity
  8
7
100
AcDbLine
 10
-3.019685039370079
 20
2.412401574803149
 30
0.0
 11
-3.014763779527559
 21
2.412401574803149
 31
0.0
  0
LINE
  5
1FE
330
1E
100
AcDbEntity
  8
7
100
AcDbLine
 10
-2.832677165354331
 20
2.314960629921259
 30
0.0
 11
-2.822834645669291
 21
2.305118110236219
 31
0.0
  0
LINE
  5
1FF
330
1E
100
AcDbEntity
  8
7
100
AcDbLine
 10
-2.806102362204724
 20
2.305118110236219
 30
0.0
 11
-2.801181102362205
 21
2.31003937007874
 31
0.0
  0
LINE
  5
200
330
1E
100
AcDbEntity
  8
7
100
AcDbLine
 10
-2.832677165354331
 20
2.394685039370078
 30
0.0
 11
-2.801181102362205
 21
2.363188976377952
 31
0.0
  0
LINE
  5
201
330
1E
100
AcDbEntity
  8
7
100
AcDbLine
 10
-2.601377952755905
 20
2.394685039370078
 30
0.0
 11
-2.631889763779527
 21
2.363188976377952
 31
0.0
  0
LINE
  5
202
330
1E
100
AcDbEntity
  8
7
100
AcDbLine
 10
-2.611220472440945
 20
2.305118110236219
 30
0.0
 11
-2.601377952755905
 21
2.314960629921259
 31
0.0
  0
LINE
  5
203
330
1E
100
AcDbEntity
  8
7
100
AcDbLine
 10
-2.631889763779527
 20
2.31003937007874
 30
0.0
 11
-2.626968503937008
 21
2.305118110236219
 31
0.0
  0
LINE
  5
20E
330
1E
100
AcDbEntity
  8
7
100
AcDbLine
 10
-2.956692913385826
 20
2.483267716535432
 30
0.0
 11
-2.47736220472441
 21
2.483267716535432
 31
0.0
  0
LINE
  5
20F
330
1E
100
AcDbEntity
  8
7
100
AcDbLine
 10
-2.954724409448819
 20
2.469488188976377
 30
0.0
 11
-2.479330708661417
 21
2.469488188976377
 31
0.0
  0
LINE
  5
210
330
1E
100
AcDbEntity
  8
7
100
AcDbLine
 10
-2.584645669291338
 20
2.313976377952756
 30
0.0
 11
-2.584645669291338
 21
2.305118110236219
 31
0.0
  0
LINE
  5
211
330
1E
100
AcDbEntity
  8
7
100
AcDbLine
 10
-2.584645669291338
 20
2.314960629921259
 30
0.0
 11
-2.584645669291338
 21
2.313976377952756
 31
0.0
  0
LINE
  5
217
330
1E
100
AcDbEntity
  8
7
100
AcDbLine
 10
-2.563976377952756
 20
2.295275590551181
 30
0.0
 11
-2.565944881889763
 21
2.295275590551181
 31
0.0
  0
LINE
  5
218
330
1E
100
AcDbEntity
  8
7
100
AcDbLine
 10
-2.574803149606299
 20
2.261811023622046
 30
0.0
 11
-2.565944881889763
 21
2.261811023622046
 31
0.0
  0
LINE
  5
219
330
1E
100
AcDbEntity
  8
7
100
AcDbLine
 10
-2.565944881889763
 20
2.161417322834645
 30
0.0
 11
-2.574803149606299
 21
2.161417322834645
 31
0.0
  0
LINE
  5
21A
330
1E
100
AcDbEntity
  8
7
100
AcDbLine
 10
-2.565944881889763
 20
2.127952755905511
 30
0.0
 11
-2.565944881889763
 21
2.161417322834645
 31
0.0
  0
LINE
  5
21B
330
1E
100
AcDbEntity
  8
7
100
AcDbLine
 10
-2.563976377952756
 20
2.127952755905511
 30
0.0
 11
-2.565944881889763
 21
2.127952755905511
 31
0.0
  0
LINE
  5
21C
330
1E
100
AcDbEntity
  8
7
100
AcDbLine
 10
-2.565944881889763
 20
2.261811023622046
 30
0.0
 11
-2.565944881889763
 21
2.295275590551181
 31
0.0
  0
LINE
  5
222
330
1E
100
AcDbEntity
  8
7
100
AcDbLine
 10
-2.584645669291338
 20
2.108267716535432
 30
0.0
 11
-2.584645669291338
 21
2.109251968503936
 31
0.0
  0
LINE
  5
223
330
1E
100
AcDbEntity
  8
7
100
AcDbLine
 10
-2.667322834645669
 20
2.118110236220472
 30
0.0
 11
-2.667322834645669
 21
2.109251968503936
 31
0.0
  0
LINE
  5
224
330
1E
100
AcDbEntity
  8
7
100
AcDbLine
 10
-2.766732283464567
 20
2.109251968503936
 30
0.0
 11
-2.766732283464567
 21
2.118110236220472
 31
0.0
  0
LINE
  5
225
330
1E
100
AcDbEntity
  8
7
100
AcDbLine
 10
-2.849409448818898
 20
2.109251968503936
 30
0.0
 11
-2.766732283464567
 21
2.109251968503936
 31
0.0
  0
LINE
  5
226
330
1E
100
AcDbEntity
  8
7
100
AcDbLine
 10
-2.849409448818898
 20
2.108267716535432
 30
0.0
 11
-2.849409448818898
 21
2.109251968503936
 31
0.0
  0
LINE
  5
227
330
1E
100
AcDbEntity
  8
7
100
AcDbLine
 10
-2.667322834645669
 20
2.109251968503936
 30
0.0
 11
-2.584645669291338
 21
2.109251968503936
 31
0.0
  0
LINE
  5
22D
330
1E
100
AcDbEntity
  8
7
100
AcDbLine
 10
-2.869094488188976
 20
2.127952755905511
 30
0.0
 11
-2.868110236220473
 21
2.127952755905511
 31
0.0
  0
LINE
  5
22E
330
1E
100
AcDbEntity
  8
7
100
AcDbLine
 10
-2.859251968503937
 20
2.161417322834645
 30
0.0
 11
-2.868110236220473
 21
2.161417322834645
 31
0.0
  0
LINE
  5
22F
330
1E
100
AcDbEntity
  8
7
100
AcDbLine
 10
-2.868110236220473
 20
2.261811023622046
 30
0.0
 11
-2.859251968503937
 21
2.261811023622046
 31
0.0
  0
LINE
  5
230
330
1E
100
AcDbEntity
  8
7
100
AcDbLine
 10
-2.868110236220473
 20
2.295275590551181
 30
0.0
 11
-2.868110236220473
 21
2.261811023622046
 31
0.0
  0
LINE
  5
231
330
1E
100
AcDbEntity
  8
7
100
AcDbLine
 10
-2.869094488188976
 20
2.295275590551181
 30
0.0
 11
-2.868110236220473
 21
2.295275590551181
 31
0.0
  0
LINE
  5
232
330
1E
100
AcDbEntity
  8
7
100
AcDbLine
 10
-2.868110236220473
 20
2.161417322834645
 30
0.0
 11
-2.868110236220473
 21
2.127952755905511
 31
0.0
  0
LINE
  5
23D
330
1E
100
AcDbEntity
  8
7
100
AcDbLine
 10
-2.801181102362205
 20
2.353346456692913
 30
0.0
 11
-2.740157480314961
 21
2.353346456692913
 31
0.0
  0
LINE
  5
23E
330
1E
100
AcDbEntity
  8
7
100
AcDbLine
 10
-2.692913385826772
 20
2.353346456692913
 30
0.0
 11
-2.631889763779527
 21
2.353346456692913
 31
0.0
  0
LINE
  5
247
330
1E
100
AcDbEntity
  8
7
100
AcDbLine
 10
-2.693897637795275
 20
2.262795275590551
 30
0.0
 11
-2.740157480314961
 21
2.262795275590551
 31
0.0
  0
LINE
  5
248
330
1E
100
AcDbEntity
  8
7
100
AcDbLine
 10
-2.693897637795275
 20
2.262795275590551
 30
0.0
 11
-2.698818897637795
 21
2.269685039370078
 31
0.0
  0
LINE
  5
250
330
1E
100
AcDbEntity
  8
7
100
AcDbLine
 10
-2.692913385826772
 20
2.262795275590551
 30
0.0
 11
-2.693897637795275
 21
2.262795275590551
 31
0.0
  0
LINE
  5
251
330
1E
100
AcDbEntity
  8
7
100
AcDbLine
 10
-2.740157480314961
 20
2.262795275590551
 30
0.0
 11
-2.740157480314961
 21
2.353346456692913
 31
0.0
  0
LINE
  5
252
330
1E
100
AcDbEntity
  8
7
100
AcDbLine
 10
-2.692913385826772
 20
2.353346456692913
 30
0.0
 11
-2.692913385826772
 21
2.262795275590551
 31
0.0
  0
LINE
  5
25D
330
1E
100
AcDbEntity
  8
7
100
AcDbLine
 10
-2.868110236220473
 20
2.127952755905511
 30
0.0
 11
-2.861220472440945
 21
2.127952755905511
 31
0.0
  0
LINE
  5
25E
330
1E
100
AcDbEntity
  8
7
100
AcDbLine
 10
-2.849409448818898
 20
2.109251968503936
 30
0.0
 11
-2.849409448818898
 21
2.117125984251968
 31
0.0
  0
LINE
  5
264
330
1E
100
AcDbEntity
  8
7
100
AcDbLine
 10
-2.584645669291338
 20
2.109251968503936
 30
0.0
 11
-2.584645669291338
 21
2.117125984251968
 31
0.0
  0
LINE
  5
26A
330
1E
100
AcDbEntity
  8
7
100
AcDbLine
 10
-2.565944881889763
 20
2.127952755905511
 30
0.0
 11
-2.572834645669291
 21
2.127952755905511
 31
0.0
  0
LINE
  5
270
330
1E
100
AcDbEntity
  8
7
100
AcDbLine
 10
-2.572834645669291
 20
2.295275590551181
 30
0.0
 11
-2.565944881889763
 21
2.295275590551181
 31
0.0
  0
LINE
  5
271
330
1E
100
AcDbEntity
  8
7
100
AcDbLine
 10
-2.572834645669291
 20
2.295275590551181
 30
0.0
 11
-2.572834645669291
 21
2.261811023622046
 31
0.0
  0
LINE
  5
277
330
1E
100
AcDbEntity
  8
7
100
AcDbLine
 10
-2.806102362204724
 20
2.118110236220472
 30
0.0
 11
-2.849409448818898
 21
2.118110236220472
 31
0.0
  0
LINE
  5
278
330
1E
100
AcDbEntity
  8
7
100
AcDbLine
 10
-2.849409448818898
 20
2.117125984251968
 30
0.0
 11
-2.849409448818898
 21
2.118110236220472
 31
0.0
  0
LINE
  5
279
330
1E
100
AcDbEntity
  8
7
100
AcDbLine
 10
0.103346456692913
 20
2.418307086614172
 30
0.0
 11
-0.4458661417322838
 21
2.423228346456693
 31
0.0
  0
LINE
  5
27A
330
1E
100
AcDbEntity
  8
7
100
AcDbLine
 10
0.103346456692913
 20
1.843503937007873
 30
0.0
 11
0.103346456692913
 21
2.418307086614172
 31
0.0
  0
LINE
  5
27B
330
1E
100
AcDbEntity
  8
7
100
AcDbLine
 10
-0.9744094488188981
 20
2.464566929133857
 30
0.0
 11
-0.9744094488188981
 21
2.412401574803149
 31
0.0
  0
LINE
  5
27C
330
1E
100
AcDbEntity
  8
7
100
AcDbLine
 10
-0.9744094488188981
 20
1.762795275590551
 30
0.0
 11
-0.9744094488188981
 21
2.412401574803149
 31
0.0
  0
LINE
  5
27D
330
1E
100
AcDbEntity
  8
7
100
AcDbLine
 10
0.3868110236220472
 20
1.838582677165354
 30
0.0
 11
0.3976377952755898
 21
1.838582677165354
 31
0.0
  0
LINE
  5
27E
330
1E
100
AcDbEntity
  8
7
100
AcDbLine
 10
0.3868110236220472
 20
1.777559055118109
 30
0.0
 11
0.3868110236220472
 21
1.838582677165354
 31
0.0
  0
LINE
  5
27F
330
1E
100
AcDbEntity
  8
7
100
AcDbLine
 10
0.3976377952755898
 20
1.787401574803149
 30
0.0
 11
0.3868110236220472
 21
1.777559055118109
 31
0.0
  0
LINE
  5
280
330
1E
100
AcDbEntity
  8
7
100
AcDbLine
 10
0.3976377952755898
 20
1.838582677165354
 30
0.0
 11
0.3976377952755898
 21
1.787401574803149
 31
0.0
  0
LINE
  5
281
330
1E
100
AcDbEntity
  8
7
100
AcDbLine
 10
0.372047244094488
 20
1.762795275590551
 30
0.0
 11
0.3868110236220472
 21
1.777559055118109
 31
0.0
  0
LINE
  5
282
330
1E
100
AcDbEntity
  8
7
100
AcDbLine
 10
-0.8769685039370083
 20
1.861220472440944
 30
0.0
 11
0.3868110236220472
 21
1.838582677165354
 31
0.0
  0
LINE
  5
283
330
1E
100
AcDbEntity
  8
7
100
AcDbLine
 10
-0.8769685039370083
 20
1.861220472440944
 30
0.0
 11
-0.8769685039370083
 21
1.762795275590551
 31
0.0
  0
LINE
  5
284
330
1E
100
AcDbEntity
  8
7
100
AcDbLine
 10
0.372047244094488
 20
1.762795275590551
 30
0.0
 11
-0.8769685039370083
 21
1.762795275590551
 31
0.0
  0
LINE
  5
299
330
1E
100
AcDbEntity
  8
7
100
AcDbLine
 10
-0.8769685039370083
 20
2.36515748031496
 30
0.0
 11
-0.8769685039370083
 21
2.413385826771653
 31
0.0
  0
LINE
  5
29A
330
1E
100
AcDbEntity
  8
7
100
AcDbLine
 10
-0.8769685039370083
 20
2.36515748031496
 30
0.0
 11
-0.8267716535433073
 21
2.416338582677165
 31
0.0
  0
LINE
  5
29B
330
1E
100
AcDbEntity
  8
7
100
AcDbLine
 10
-0.4704724409448824
 20
2.422244094488188
 30
0.0
 11
-0.8267716535433073
 21
2.416338582677165
 31
0.0
  0
LINE
  5
2AE
330
1E
100
AcDbEntity
  8
7
100
AcDbLine
 10
-0.4458661417322838
 20
2.483267716535432
 30
0.0
 11
-0.4458661417322838
 21
2.423228346456693
 31
0.0
  0
LINE
  5
2AF
330
1E
100
AcDbEntity
  8
7
100
AcDbLine
 10
0.3976377952755898
 20
1.778543307086614
 30
0.0
 11
0.3976377952755898
 21
1.787401574803149
 31
0.0
  0
LINE
  5
2B0
330
1E
100
AcDbEntity
  8
7
100
AcDbLine
 10
-0.8769685039370083
 20
2.36515748031496
 30
0.0
 11
-0.8769685039370083
 21
1.861220472440944
 31
0.0
  0
LINE
  5
2B1
330
1E
100
AcDbEntity
  8
7
100
AcDbLine
 10
-0.8769685039370083
 20
1.762795275590551
 30
0.0
 11
-0.9694881889763781
 21
1.762795275590551
 31
0.0
  0
LINE
  5
2B8
330
1E
100
AcDbEntity
  8
7
100
AcDbLine
 10
0.3877952755905509
 20
1.778543307086614
 30
0.0
 11
0.3976377952755898
 21
1.778543307086614
 31
0.0
  0
LINE
  5
2B9
330
1E
100
AcDbEntity
  8
7
100
AcDbLine
 10
-0.8769685039370083
 20
2.483267716535432
 30
0.0
 11
-0.4557086614173232
 21
2.483267716535432
 31
0.0
  0
LINE
  5
2BA
330
1E
100
AcDbEntity
  8
7
100
AcDbLine
 10
0.3031496062992121
 20
2.029527559055118
 30
0.0
 11
0.103346456692913
 21
2.029527559055118
 31
0.0
  0
LINE
  5
2BB
330
1E
100
AcDbEntity
  8
7
100
AcDbLine
 10
0.3031496062992121
 20
1.848425196850392
 30
0.0
 11
0.3031496062992121
 21
1.840551181102361
 31
0.0
  0
LINE
  5
2BC
330
1E
100
AcDbEntity
  8
7
100
AcDbLine
 10
0.3031496062992121
 20
1.848425196850392
 30
0.0
 11
0.3031496062992121
 21
2.029527559055118
 31
0.0
  0
LINE
  5
2BD
330
1E
100
AcDbEntity
  8
7
100
AcDbLine
 10
0.103346456692913
 20
1.848425196850392
 30
0.0
 11
0.3031496062992121
 21
1.848425196850392
 31
0.0
  0
LINE
  5
2C1
330
1E
100
AcDbEntity
  8
7
100
AcDbLine
 10
-0.9694881889763781
 20
2.412401574803149
 30
0.0
 11
-0.9694881889763781
 21
1.762795275590551
 31
0.0
  0
LINE
  5
2C2
330
1E
100
AcDbEntity
  8
7
100
AcDbLine
 10
-0.9694881889763781
 20
1.762795275590551
 30
0.0
 11
-0.973425196850394
 21
1.762795275590551
 31
0.0
  0
LINE
  5
2C3
330
1E
100
AcDbEntity
  8
7
100
AcDbLine
 10
-0.973425196850394
 20
1.762795275590551
 30
0.0
 11
-0.9744094488188981
 21
1.762795275590551
 31
0.0
  0
LINE
  5
2C4
330
1E
100
AcDbEntity
  8
7
100
AcDbLine
 10
-0.4458661417322838
 20
2.423228346456693
 30
0.0
 11
-0.4488188976377958
 21
2.423228346456693
 31
0.0
  0
LINE
  5
2C5
330
1E
100
AcDbEntity
  8
7
100
AcDbLine
 10
-0.4488188976377958
 20
2.423228346456693
 30
0.0
 11
-0.457677165354331
 21
2.422244094488188
 31
0.0
  0
LINE
  5
2C6
330
1E
100
AcDbEntity
  8
7
100
AcDbLine
 10
-0.457677165354331
 20
2.422244094488188
 30
0.0
 11
-0.4704724409448824
 21
2.422244094488188
 31
0.0
  0
LINE
  5
2C7
330
1E
100
AcDbEntity
  8
7
100
AcDbLine
 10
-0.4557086614173232
 20
2.483267716535432
 30
0.0
 11
-0.4596456692913389
 21
2.482283464566929
 31
0.0
  0
LINE
  5
2C8
330
1E
100
AcDbEntity
  8
7
100
AcDbLine
 10
-0.4596456692913389
 20
2.482283464566929
 30
0.0
 11
-0.4665354330708667
 21
2.479330708661417
 31
0.0
  0
LINE
  5
2C9
330
1E
100
AcDbEntity
  8
7
100
AcDbLine
 10
-0.4665354330708667
 20
2.479330708661417
 30
0.0
 11
-0.4704724409448824
 21
2.478346456692913
 31
0.0
  0
LINE
  5
2CA
330
1E
100
AcDbEntity
  8
7
100
AcDbLine
 10
-0.4704724409448824
 20
2.478346456692913
 30
0.0
 11
-0.4704724409448824
 21
2.477362204724408
 31
0.0
  0
LINE
  5
2CB
330
1E
100
AcDbEntity
  8
7
100
AcDbLine
 10
-0.4557086614173232
 20
2.483267716535432
 30
0.0
 11
-0.4478346456692917
 21
2.483267716535432
 31
0.0
  0
LINE
  5
2CC
330
1E
100
AcDbEntity
  8
7
100
AcDbLine
 10
-0.4478346456692917
 20
2.483267716535432
 30
0.0
 11
-0.4458661417322838
 21
2.483267716535432
 31
0.0
  0
LINE
  5
2CD
330
1E
100
AcDbEntity
  8
7
100
AcDbLine
 10
-0.4704724409448824
 20
2.422244094488188
 30
0.0
 11
-0.4704724409448824
 21
2.477362204724408
 31
0.0
  0
LINE
  5
2CE
330
1E
100
AcDbEntity
  8
7
100
AcDbLine
 10
-0.4704724409448824
 20
2.477362204724408
 30
0.0
 11
-0.8769685039370083
 21
2.477362204724408
 31
0.0
  0
LINE
  5
2CF
330
1E
100
AcDbEntity
  8
7
100
AcDbLine
 10
-0.8769685039370083
 20
2.413385826771653
 30
0.0
 11
-0.8769685039370083
 21
2.477362204724408
 31
0.0
  0
LINE
  5
2D0
330
1E
100
AcDbEntity
  8
7
100
AcDbLine
 10
-0.8769685039370083
 20
2.477362204724408
 30
0.0
 11
-0.8769685039370083
 21
2.483267716535432
 31
0.0
  0
LINE
  5
2D1
330
1E
100
AcDbEntity
  8
7
100
AcDbLine
 10
-0.8769685039370083
 20
2.483267716535432
 30
0.0
 11
-0.9704724409448823
 21
2.469488188976377
 31
0.0
  0
LINE
  5
2D2
330
1E
100
AcDbEntity
  8
7
100
AcDbLine
 10
-0.9704724409448823
 20
2.469488188976377
 30
0.0
 11
-0.9744094488188981
 21
2.464566929133857
 31
0.0
  0
LINE
  5
2D3
330
1E
100
AcDbEntity
  8
7
100
AcDbLine
 10
-0.9744094488188981
 20
2.412401574803149
 30
0.0
 11
-0.9694881889763781
 21
2.412401574803149
 31
0.0
  0
LINE
  5
2D4
330
1E
100
AcDbEntity
  8
7
100
AcDbLine
 10
-0.9694881889763781
 20
2.412401574803149
 30
0.0
 11
-0.8769685039370083
 21
2.413385826771653
 31
0.0
  0
LINE
  5
2D5
330
1E
100
AcDbEntity
  8
7
100
AcDbLine
 10
-2.584645669291338
 20
2.117125984251968
 30
0.0
 11
-2.584645669291338
 21
2.118110236220472
 31
0.0
  0
LINE
  5
2D6
330
1E
100
AcDbEntity
  8
7
100
AcDbLine
 10
-2.584645669291338
 20
2.118110236220472
 30
0.0
 11
-2.626968503937008
 21
2.118110236220472
 31
0.0
  0
LINE
  5
2D7
330
1E
100
AcDbEntity
  8
7
100
AcDbLine
 10
-2.573818897637795
 20
2.295275590551181
 30
0.0
 11
-2.576771653543307
 21
2.303149606299212
 31
0.0
  0
LINE
  5
2D8
330
1E
100
AcDbEntity
  8
7
100
AcDbLine
 10
-2.576771653543307
 20
2.303149606299212
 30
0.0
 11
-2.584645669291338
 21
2.306102362204724
 31
0.0
  0
LINE
  5
2D9
330
1E
100
AcDbEntity
  8
7
100
AcDbLine
 10
-2.584645669291338
 20
2.117125984251968
 30
0.0
 11
-2.630905511811024
 21
2.117125984251968
 31
0.0
  0
LINE
  5
2DA
330
1E
100
AcDbEntity
  8
7
100
AcDbLine
 10
-2.630905511811024
 20
2.117125984251968
 30
0.0
 11
-2.667322834645669
 21
2.117125984251968
 31
0.0
  0
LINE
  5
2DB
330
1E
100
AcDbEntity
  8
7
100
AcDbLine
 10
-2.766732283464567
 20
2.117125984251968
 30
0.0
 11
-2.803149606299212
 21
2.117125984251968
 31
0.0
  0
LINE
  5
2DC
330
1E
100
AcDbEntity
  8
7
100
AcDbLine
 10
-2.803149606299212
 20
2.117125984251968
 30
0.0
 11
-2.849409448818898
 21
2.117125984251968
 31
0.0
  0
LINE
  5
2DD
330
1E
100
AcDbEntity
  8
7
100
AcDbLine
 10
-2.849409448818898
 20
2.306102362204724
 30
0.0
 11
-2.857283464566929
 21
2.303149606299212
 31
0.0
  0
LINE
  5
2DE
330
1E
100
AcDbEntity
  8
7
100
AcDbLine
 10
-2.857283464566929
 20
2.303149606299212
 30
0.0
 11
-2.860236220472441
 21
2.295275590551181
 31
0.0
  0
LINE
  5
2DF
330
1E
100
AcDbEntity
  8
7
100
AcDbLine
 10
-2.861220472440945
 20
2.261811023622046
 30
0.0
 11
-2.861220472440945
 21
2.295275590551181
 31
0.0
  0
LINE
  5
2E0
330
1E
100
AcDbEntity
  8
7
100
AcDbLine
 10
-2.861220472440945
 20
2.295275590551181
 30
0.0
 11
-2.868110236220473
 21
2.295275590551181
 31
0.0
  0
LINE
  5
2E1
330
1E
100
AcDbEntity
  8
7
100
AcDbLine
 10
-2.698818897637795
 20
2.269685039370078
 30
0.0
 11
-2.710629921259842
 21
2.273622047244094
 31
0.0
  0
LINE
  5
2E2
330
1E
100
AcDbEntity
  8
7
100
AcDbLine
 10
-2.710629921259842
 20
2.273622047244094
 30
0.0
 11
-2.723425196850394
 21
2.273622047244094
 31
0.0
  0
LINE
  5
2E3
330
1E
100
AcDbEntity
  8
7
100
AcDbLine
 10
-2.723425196850394
 20
2.273622047244094
 30
0.0
 11
-2.734251968503937
 21
2.269685039370078
 31
0.0
  0
LINE
  5
2E4
330
1E
100
AcDbEntity
  8
7
100
AcDbLine
 10
-2.734251968503937
 20
2.269685039370078
 30
0.0
 11
-2.740157480314961
 21
2.262795275590551
 31
0.0
  0
LINE
  5
2E5
330
1E
100
AcDbEntity
  8
7
100
AcDbLine
 10
-2.740157480314961
 20
2.353346456692913
 30
0.0
 11
-2.736220472440945
 21
2.354330708661417
 31
0.0
  0
LINE
  5
2E6
330
1E
100
AcDbEntity
  8
7
100
AcDbLine
 10
-2.736220472440945
 20
2.354330708661417
 30
0.0
 11
-2.724409448818898
 21
2.354330708661417
 31
0.0
  0
LINE
  5
2E7
330
1E
100
AcDbEntity
  8
7
100
AcDbLine
 10
-2.724409448818898
 20
2.354330708661417
 30
0.0
 11
-2.709645669291338
 21
2.354330708661417
 31
0.0
  0
LINE
  5
2E8
330
1E
100
AcDbEntity
  8
7
100
AcDbLine
 10
-2.709645669291338
 20
2.354330708661417
 30
0.0
 11
-2.697834645669291
 21
2.354330708661417
 31
0.0
  0
LINE
  5
2E9
330
1E
100
AcDbEntity
  8
7
100
AcDbLine
 10
-2.697834645669291
 20
2.354330708661417
 30
0.0
 11
-2.692913385826772
 21
2.353346456692913
 31
0.0
  0
LINE
  5
2EA
330
1E
100
AcDbEntity
  8
7
100
AcDbLine
 10
-2.849409448818898
 20
2.314960629921259
 30
0.0
 11
-2.849409448818898
 21
2.313976377952756
 31
0.0
  0
LINE
  5
2EB
330
1E
100
AcDbEntity
  8
7
100
AcDbLine
 10
-2.849409448818898
 20
2.313976377952756
 30
0.0
 11
-2.849409448818898
 21
2.305118110236219
 31
0.0
  0
LINE
  5
2EC
330
1E
100
AcDbEntity
  8
7
100
AcDbLine
 10
-2.849409448818898
 20
2.313976377952756
 30
0.0
 11
-2.862204724409449
 21
2.308070866141731
 31
0.0
  0
LINE
  5
2ED
330
1E
100
AcDbEntity
  8
7
100
AcDbLine
 10
-2.862204724409449
 20
2.308070866141731
 30
0.0
 11
-2.868110236220473
 21
2.295275590551181
 31
0.0
  0
LINE
  5
2EE
330
1E
100
AcDbEntity
  8
7
100
AcDbLine
 10
-2.868110236220473
 20
2.127952755905511
 30
0.0
 11
-2.862204724409449
 21
2.11515748031496
 31
0.0
  0
LINE
  5
2EF
330
1E
100
AcDbEntity
  8
7
100
AcDbLine
 10
-2.862204724409449
 20
2.11515748031496
 30
0.0
 11
-2.849409448818898
 21
2.109251968503936
 31
0.0
  0
LINE
  5
2F0
330
1E
100
AcDbEntity
  8
7
100
AcDbLine
 10
-2.584645669291338
 20
2.109251968503936
 30
0.0
 11
-2.571850393700787
 21
2.11515748031496
 31
0.0
  0
LINE
  5
2F1
330
1E
100
AcDbEntity
  8
7
100
AcDbLine
 10
-2.571850393700787
 20
2.11515748031496
 30
0.0
 11
-2.565944881889763
 21
2.127952755905511
 31
0.0
  0
LINE
  5
2F2
330
1E
100
AcDbEntity
  8
7
100
AcDbLine
 10
-2.565944881889763
 20
2.295275590551181
 30
0.0
 11
-2.571850393700787
 21
2.308070866141731
 31
0.0
  0
LINE
  5
2F3
330
1E
100
AcDbEntity
  8
7
100
AcDbLine
 10
-2.571850393700787
 20
2.308070866141731
 30
0.0
 11
-2.584645669291338
 21
2.313976377952756
 31
0.0
  0
LINE
  5
2F4
330
1E
100
AcDbEntity
  8
7
100
AcDbLine
 10
-2.803149606299212
 20
2.117125984251968
 30
0.0
 11
-2.804133858267716
 21
2.118110236220472
 31
0.0
  0
LINE
  5
2F5
330
1E
100
AcDbEntity
  8
7
100
AcDbLine
 10
-2.804133858267716
 20
2.118110236220472
 30
0.0
 11
-2.806102362204724
 21
2.118110236220472
 31
0.0
  0
LINE
  5
2F6
330
1E
100
AcDbEntity
  8
7
100
AcDbLine
 10
-2.626968503937008
 20
2.118110236220472
 30
0.0
 11
-2.628937007874016
 21
2.118110236220472
 31
0.0
  0
LINE
  5
2F7
330
1E
100
AcDbEntity
  8
7
100
AcDbLine
 10
-2.628937007874016
 20
2.118110236220472
 30
0.0
 11
-2.62992125984252
 21
2.117125984251968
 31
0.0
  0
LINE
  5
2F8
330
1E
100
AcDbEntity
  8
7
100
AcDbLine
 10
-3.014763779527559
 20
1.762795275590551
 30
0.0
 11
-3.018700787401574
 21
1.762795275590551
 31
0.0
  0
LINE
  5
2F9
330
1E
100
AcDbEntity
  8
7
100
AcDbLine
 10
-3.018700787401574
 20
1.762795275590551
 30
0.0
 11
-3.019685039370079
 21
1.762795275590551
 31
0.0
  0
LINE
  5
2FA
330
1E
100
AcDbEntity
  8
7
100
AcDbLine
 10
-2.413385826771653
 20
2.412401574803149
 30
0.0
 11
-2.413385826771653
 21
1.762795275590551
 31
0.0
  0
LINE
  5
2FB
330
1E
100
AcDbEntity
  8
7
100
AcDbLine
 10
-2.413385826771653
 20
1.762795275590551
 30
0.0
 11
-2.415354330708662
 21
1.762795275590551
 31
0.0
  0
LINE
  5
2FC
330
1E
100
AcDbEntity
  8
7
100
AcDbLine
 10
-2.415354330708662
 20
1.762795275590551
 30
0.0
 11
-2.418307086614173
 21
1.762795275590551
 31
0.0
  0
LINE
  5
2FD
330
1E
100
AcDbEntity
  8
7
100
AcDbLine
 10
-2.954724409448819
 20
2.464566929133857
 30
0.0
 11
-2.954724409448819
 21
2.469488188976377
 31
0.0
  0
LINE
  5
2FE
330
1E
100
AcDbEntity
  8
7
100
AcDbLine
 10
-2.954724409448819
 20
2.469488188976377
 30
0.0
 11
-2.956692913385826
 21
2.483267716535432
 31
0.0
  0
LINE
  5
2FF
330
1E
100
AcDbEntity
  8
7
100
AcDbLine
 10
-2.956692913385826
 20
2.483267716535432
 30
0.0
 11
-3.014763779527559
 21
2.483267716535432
 31
0.0
  0
LINE
  5
300
330
1E
100
AcDbEntity
  8
7
100
AcDbLine
 10
-3.014763779527559
 20
2.483267716535432
 30
0.0
 11
-3.019685039370079
 21
2.477362204724408
 31
0.0
  0
LINE
  5
301
330
1E
100
AcDbEntity
  8
7
100
AcDbLine
 10
-3.019685039370079
 20
1.762795275590551
 30
0.0
 11
-3.019685039370079
 21
2.412401574803149
 31
0.0
  0
LINE
  5
302
330
1E
100
AcDbEntity
  8
7
100
AcDbLine
 10
-3.019685039370079
 20
2.412401574803149
 30
0.0
 11
-3.019685039370079
 21
2.413385826771653
 31
0.0
  0
LINE
  5
303
330
1E
100
AcDbEntity
  8
7
100
AcDbLine
 10
-2.413385826771653
 20
2.413385826771653
 30
0.0
 11
-2.413385826771653
 21
2.477362204724408
 31
0.0
  0
LINE
  5
304
330
1E
100
AcDbEntity
  8
7
100
AcDbLine
 10
-2.413385826771653
 20
2.477362204724408
 30
0.0
 11
-2.418307086614173
 21
2.483267716535432
 31
0.0
  0
LINE
  5
305
330
1E
100
AcDbEntity
  8
7
100
AcDbLine
 10
-2.418307086614173
 20
2.483267716535432
 30
0.0
 11
-2.47736220472441
 21
2.483267716535432
 31
0.0
  0
LINE
  5
306
330
1E
100
AcDbEntity
  8
7
100
AcDbLine
 10
-2.47736220472441
 20
2.483267716535432
 30
0.0
 11
-2.479330708661417
 21
2.469488188976377
 31
0.0
  0
LINE
  5
307
330
1E
100
AcDbEntity
  8
7
100
AcDbLine
 10
-2.479330708661417
 20
2.469488188976377
 30
0.0
 11
-2.479330708661417
 21
2.464566929133857
 31
0.0
  0
LINE
  5
308
330
1E
100
AcDbEntity
  8
7
100
AcDbLine
 10
-2.418307086614173
 20
2.412401574803149
 30
0.0
 11
-2.413385826771653
 21
2.412401574803149
 31
0.0
  0
LINE
  5
309
330
1E
100
AcDbEntity
  8
7
100
AcDbLine
 10
-2.413385826771653
 20
2.412401574803149
 30
0.0
 11
-2.413385826771653
 21
2.413385826771653
 31
0.0
  0
LINE
  5
30A
330
1E
100
AcDbEntity
  8
7
100
AcDbLine
 10
-2.627952755905512
 20
2.188976377952756
 30
0.0
 11
-2.621062992125984
 21
2.193897637795275
 31
0.0
  0
LINE
  5
30B
330
1E
100
AcDbEntity
  8
7
100
AcDbLine
 10
-2.621062992125984
 20
2.193897637795275
 30
0.0
 11
-2.617125984251968
 21
2.205708661417322
 31
0.0
  0
LINE
  5
30C
330
1E
100
AcDbEntity
  8
7
100
AcDbLine
 10
-2.617125984251968
 20
2.205708661417322
 30
0.0
 11
-2.617125984251968
 21
2.218503937007873
 31
0.0
  0
LINE
  5
30D
330
1E
100
AcDbEntity
  8
7
100
AcDbLine
 10
-2.617125984251968
 20
2.218503937007873
 30
0.0
 11
-2.621062992125984
 21
2.229330708661417
 31
0.0
  0
LINE
  5
30E
330
1E
100
AcDbEntity
  8
7
100
AcDbLine
 10
-2.621062992125984
 20
2.229330708661417
 30
0.0
 11
-2.627952755905512
 21
2.23523622047244
 31
0.0
  0
LINE
  5
30F
330
1E
100
AcDbEntity
  8
7
100
AcDbLine
 10
-2.740157480314961
 20
2.161417322834645
 30
0.0
 11
-2.734251968503937
 21
2.154527559055118
 31
0.0
  0
LINE
  5
310
330
1E
100
AcDbEntity
  8
7
100
AcDbLine
 10
-2.734251968503937
 20
2.154527559055118
 30
0.0
 11
-2.723425196850394
 21
2.150590551181102
 31
0.0
  0
LINE
  5
311
330
1E
100
AcDbEntity
  8
7
100
AcDbLine
 10
-2.723425196850394
 20
2.150590551181102
 30
0.0
 11
-2.710629921259842
 21
2.150590551181102
 31
0.0
  0
LINE
  5
312
330
1E
100
AcDbEntity
  8
7
100
AcDbLine
 10
-2.710629921259842
 20
2.150590551181102
 30
0.0
 11
-2.698818897637795
 21
2.154527559055118
 31
0.0
  0
LINE
  5
313
330
1E
100
AcDbEntity
  8
7
100
AcDbLine
 10
-2.698818897637795
 20
2.154527559055118
 30
0.0
 11
-2.693897637795275
 21
2.161417322834645
 31
0.0
  0
LINE
  5
314
330
1E
100
AcDbEntity
  8
7
100
AcDbLine
 10
-2.816929133858268
 20
2.218503937007873
 30
0.0
 11
-2.816929133858268
 21
2.205708661417322
 31
0.0
  0
LINE
  5
315
330
1E
100
AcDbEntity
  8
7
100
AcDbLine
 10
-2.816929133858268
 20
2.205708661417322
 30
0.0
 11
-2.812992125984252
 21
2.193897637795275
 31
0.0
  0
LINE
  5
316
330
1E
100
AcDbEntity
  8
7
100
AcDbLine
 10
-2.812992125984252
 20
2.193897637795275
 30
0.0
 11
-2.806102362204724
 21
2.188976377952756
 31
0.0
  0
LINE
  5
317
330
1E
100
AcDbEntity
  8
7
100
AcDbLine
 10
-2.806102362204724
 20
2.23523622047244
 30
0.0
 11
-2.812992125984252
 21
2.229330708661417
 31
0.0
  0
LINE
  5
318
330
1E
100
AcDbEntity
  8
7
100
AcDbLine
 10
-2.812992125984252
 20
2.229330708661417
 30
0.0
 11
-2.816929133858268
 21
2.218503937007873
 31
0.0
  0
LINE
  5
319
330
1E
100
AcDbEntity
  8
7
100
AcDbLine
 10
-2.740157480314961
 20
2.161417322834645
 30
0.0
 11
-2.693897637795275
 21
2.161417322834645
 31
0.0
  0
LINE
  5
31A
330
1E
100
AcDbEntity
  8
7
100
AcDbLine
 10
-2.693897637795275
 20
2.161417322834645
 30
0.0
 11
-2.692913385826772
 21
2.161417322834645
 31
0.0
  0
LINE
  5
31B
330
1E
100
AcDbEntity
  8
7
100
AcDbLine
 10
-2.574803149606299
 20
2.187992125984251
 30
0.0
 11
-2.627952755905512
 21
2.187992125984251
 31
0.0
  0
LINE
  5
31C
330
1E
100
AcDbEntity
  8
7
100
AcDbLine
 10
-2.627952755905512
 20
2.187992125984251
 30
0.0
 11
-2.627952755905512
 21
2.188976377952756
 31
0.0
  0
LINE
  5
31D
330
1E
100
AcDbEntity
  8
7
100
AcDbLine
 10
-2.627952755905512
 20
2.188976377952756
 30
0.0
 11
-2.627952755905512
 21
2.23523622047244
 31
0.0
  0
LINE
  5
31E
330
1E
100
AcDbEntity
  8
7
100
AcDbLine
 10
-2.806102362204724
 20
2.23523622047244
 30
0.0
 11
-2.806102362204724
 21
2.188976377952756
 31
0.0
  0
LINE
  5
31F
330
1E
100
AcDbEntity
  8
7
100
AcDbLine
 10
-2.806102362204724
 20
2.188976377952756
 30
0.0
 11
-2.806102362204724
 21
2.187992125984251
 31
0.0
  0
LINE
  5
320
330
1E
100
AcDbEntity
  8
7
100
AcDbLine
 10
-2.631889763779527
 20
2.31003937007874
 30
0.0
 11
-2.631889763779527
 21
2.363188976377952
 31
0.0
  0
LINE
  5
321
330
1E
100
AcDbEntity
  8
7
100
AcDbLine
 10
-2.631889763779527
 20
2.363188976377952
 30
0.0
 11
-2.801181102362205
 21
2.363188976377952
 31
0.0
  0
LINE
  5
322
330
1E
100
AcDbEntity
  8
7
100
AcDbLine
 10
-2.584645669291338
 20
2.305118110236219
 30
0.0
 11
-2.611220472440945
 21
2.305118110236219
 31
0.0
  0
LINE
  5
323
330
1E
100
AcDbEntity
  8
7
100
AcDbLine
 10
-2.611220472440945
 20
2.305118110236219
 30
0.0
 11
-2.626968503937008
 21
2.305118110236219
 31
0.0
  0
LINE
  5
324
330
1E
100
AcDbEntity
  8
7
100
AcDbLine
 10
-2.869094488188976
 20
2.127952755905511
 30
0.0
 11
-2.863188976377953
 21
2.114173228346456
 31
0.0
  0
LINE
  5
325
330
1E
100
AcDbEntity
  8
7
100
AcDbLine
 10
-2.863188976377953
 20
2.114173228346456
 30
0.0
 11
-2.849409448818898
 21
2.108267716535432
 31
0.0
  0
LINE
  5
326
330
1E
100
AcDbEntity
  8
7
100
AcDbLine
 10
-2.584645669291338
 20
2.108267716535432
 30
0.0
 11
-2.570866141732283
 21
2.114173228346456
 31
0.0
  0
LINE
  5
327
330
1E
100
AcDbEntity
  8
7
100
AcDbLine
 10
-2.570866141732283
 20
2.114173228346456
 30
0.0
 11
-2.56496062992126
 21
2.127952755905511
 31
0.0
  0
LINE
  5
328
330
1E
100
AcDbEntity
  8
7
100
AcDbLine
 10
-2.56496062992126
 20
2.295275590551181
 30
0.0
 11
-2.570866141732283
 21
2.309055118110235
 31
0.0
  0
LINE
  5
329
330
1E
100
AcDbEntity
  8
7
100
AcDbLine
 10
-2.570866141732283
 20
2.309055118110235
 30
0.0
 11
-2.584645669291338
 21
2.314960629921259
 31
0.0
  0
LINE
  5
32A
330
1E
100
AcDbEntity
  8
7
100
AcDbLine
 10
-2.849409448818898
 20
2.314960629921259
 30
0.0
 11
-2.832677165354331
 21
2.314960629921259
 31
0.0
  0
LINE
  5
32B
330
1E
100
AcDbEntity
  8
7
100
AcDbLine
 10
-2.832677165354331
 20
2.314960629921259
 30
0.0
 11
-2.832677165354331
 21
2.394685039370078
 31
0.0
  0
LINE
  5
32C
330
1E
100
AcDbEntity
  8
7
100
AcDbLine
 10
-2.832677165354331
 20
2.394685039370078
 30
0.0
 11
-2.601377952755905
 21
2.394685039370078
 31
0.0
  0
LINE
  5
32D
330
1E
100
AcDbEntity
  8
7
100
AcDbLine
 10
-2.601377952755905
 20
2.394685039370078
 30
0.0
 11
-2.601377952755905
 21
2.314960629921259
 31
0.0
  0
LINE
  5
32E
330
1E
100
AcDbEntity
  8
7
100
AcDbLine
 10
-2.601377952755905
 20
2.314960629921259
 30
0.0
 11
-2.584645669291338
 21
2.314960629921259
 31
0.0
  0
LINE
  5
32F
330
1E
100
AcDbEntity
  8
7
100
AcDbLine
 10
-2.849409448818898
 20
2.314960629921259
 30
0.0
 11
-2.863188976377953
 21
2.309055118110235
 31
0.0
  0
LINE
  5
330
330
1E
100
AcDbEntity
  8
7
100
AcDbLine
 10
-2.863188976377953
 20
2.309055118110235
 30
0.0
 11
-2.869094488188976
 21
2.295275590551181
 31
0.0
  0
LINE
  5
331
330
1E
100
AcDbEntity
  8
7
100
AcDbLine
 10
-3.014763779527559
 20
2.412401574803149
 30
0.0
 11
-3.014763779527559
 21
1.762795275590551
 31
0.0
  0
LINE
  5
332
330
1E
100
AcDbEntity
  8
7
100
AcDbLine
 10
-3.014763779527559
 20
1.762795275590551
 30
0.0
 11
-2.418307086614173
 21
1.762795275590551
 31
0.0
  0
LINE
  5
333
330
1E
100
AcDbEntity
  8
7
100
AcDbLine
 10
-2.418307086614173
 20
1.762795275590551
 30
0.0
 11
-2.418307086614173
 21
2.412401574803149
 31
0.0
  0
LINE
  5
334
330
1E
100
AcDbEntity
  8
7
100
AcDbLine
 10
-2.826771653543307
 20
1.84251968503937
 30
0.0
 11
-2.822834645669291
 21
1.831692913385826
 31
0.0
  0
LINE
  5
335
330
1E
100
AcDbEntity
  8
7
100
AcDbLine
 10
-2.822834645669291
 20
1.831692913385826
 30
0.0
 11
-2.812007874015748
 21
1.82775590551181
 31
0.0
  0
LINE
  5
336
330
1E
100
AcDbEntity
  8
7
100
AcDbLine
 10
-2.622047244094488
 20
1.82775590551181
 30
0.0
 11
-2.611220472440945
 21
1.831692913385826
 31
0.0
  0
LINE
  5
337
330
1E
100
AcDbEntity
  8
7
100
AcDbLine
 10
-2.611220472440945
 20
1.831692913385826
 30
0.0
 11
-2.607283464566929
 21
1.84251968503937
 31
0.0
  0
LINE
  5
338
330
1E
100
AcDbEntity
  8
7
100
AcDbLine
 10
-2.816929133858268
 20
1.891732283464567
 30
0.0
 11
-2.823818897637795
 21
1.885826771653542
 31
0.0
  0
LINE
  5
339
330
1E
100
AcDbEntity
  8
7
100
AcDbLine
 10
-2.823818897637795
 20
1.885826771653542
 30
0.0
 11
-2.826771653543307
 21
1.877952755905511
 31
0.0
  0
LINE
  5
33A
330
1E
100
AcDbEntity
  8
7
100
AcDbLine
 10
-2.806102362204724
 20
2.305118110236219
 30
0.0
 11
-2.822834645669291
 21
2.305118110236219
 31
0.0
  0
LINE
  5
33B
330
1E
100
AcDbEntity
  8
7
100
AcDbLine
 10
-2.822834645669291
 20
2.305118110236219
 30
0.0
 11
-2.849409448818898
 21
2.305118110236219
 31
0.0
  0
LINE
  5
33C
330
1E
100
AcDbEntity
  8
7
100
AcDbLine
 10
-2.584645669291338
 20
2.117125984251968
 30
0.0
 11
-2.576771653543307
 21
2.12007874015748
 31
0.0
  0
LINE
  5
33D
330
1E
100
AcDbEntity
  8
7
100
AcDbLine
 10
-2.576771653543307
 20
2.12007874015748
 30
0.0
 11
-2.573818897637795
 21
2.127952755905511
 31
0.0
  0
LINE
  5
33E
330
1E
100
AcDbEntity
  8
7
100
AcDbLine
 10
-2.860236220472441
 20
2.127952755905511
 30
0.0
 11
-2.857283464566929
 21
2.12007874015748
 31
0.0
  0
LINE
  5
33F
330
1E
100
AcDbEntity
  8
7
100
AcDbLine
 10
-2.857283464566929
 20
2.12007874015748
 30
0.0
 11
-2.849409448818898
 21
2.117125984251968
 31
0.0
  0
ENDSEC
  0
SECTION
  2
OBJECTS
  0
DICTIONARY
  5
C
330
0
100
AcDbDictionary
  3
ACAD_GROUP
350
D
  3
ACAD_LAYOUT
350
19
  3
ACAD_MLINESTYLE
350
16
  3
ACAD_PLOTSETTINGS
350
18
1001
ACAD
1000
TREAT_AS_HARD
1070
     0
  0
DICTIONARY
  5
345
330
1E
100
AcDbDictionary
  3
ACAD_LAYOUTSELFREF
350
3B0
1001
ACAD
1000
TREAT_AS_HARD
1070
     1
  0
DICTIONARY
  5
347
330
1A
100
AcDbDictionary
  3
ACAD_LAYOUTSELFREF
350
3AF
1001
ACAD
1000
TREAT_AS_HARD
1070
     1
  0
DICTIONARY
  5
D
102
{ACAD_REACTORS
330
C
102
}
330
C
100
AcDbDictionary
1001
ACAD
1000
TREAT_AS_HARD
1070
     0
  0
DICTIONARY
  5
19
102
{ACAD_REACTORS
330
C
102
}
330
C
100
AcDbDictionary
1001
ACAD
1000
TREAT_AS_HARD
1070
     0
  0
DICTIONARY
  5
16
102
{ACAD_REACTORS
330
C
102
}
330
C
100
AcDbDictionary
  3
STANDARD
350
17
1001
ACAD
1000
TREAT_AS_HARD
1070
     0
  0
DICTIONARY
  5
18
102
{ACAD_REACTORS
330
C
102
}
330
C
100
AcDbDictionary
1001
ACAD
1000
TREAT_AS_HARD
1070
     0
  0
XRECORD
  5
3B0
102
{ACAD_REACTORS
330
345
102
}
330
345
100
AcDbXrecord
340
1E
  0
XRECORD
  5
3AF
102
{ACAD_REACTORS
330
347
102
}
330
347
100
AcDbXrecord
340
1A
  0
MLINESTYLE
  5
17
102
{ACAD_REACTORS
330
16
102
}
330
16
100
AcDbMlineStyle
  2
STANDARD
 70
     0
  3

 62
   256
 51
90.0
 52
90.0
 71
     2
 49
0.5
 62
   256
  6
BYLAYER
 49
-0.5
 62
   256
  6
BYLAYER
  0
ENDSEC
  0
EOF
