ISO-10303-21;
HEADER;
/* Generated by software containing ST-Developer
 * from STEP Tools, Inc. (www.steptools.com) 
 */
/* OPTION: using custom schema-name function */

FILE_DESCRIPTION(
/* description */ (''),
/* implementation_level */ '2;1');

FILE_NAME(
/* name */ 'C2--6.stp',
/* time_stamp */ '2021-11-11T12:46:43-06:00',
/* author */ (''),
/* organization */ (''),
/* preprocessor_version */ 'ST-DEVELOPER v16.7',
/* originating_system */ 'SIEMENS PLM Software NX 1926',
/* authorisation */ '');

FILE_SCHEMA (('AP203_CONFIGURATION_CONTROLLED_3D_DESIGN_OF_MECHANICAL_PARTS_AND_ASSEMBLIES_MIM_LF { 1 0 10303 403 2 1 2}'));
ENDSEC;

DATA;
#10=PROPERTY_DEFINITION_REPRESENTATION(#14,#12);
#11=PROPERTY_DEFINITION_REPRESENTATION(#15,#13);
#12=REPRESENTATION('',(#16),#667);
#13=REPRESENTATION('',(#17),#667);
#14=PROPERTY_DEFINITION('pmi validation property','',#73);
#15=PROPERTY_DEFINITION('pmi validation property','',#73);
#16=VALUE_REPRESENTATION_ITEM('number of annotations',COUNT_MEASURE(0.));
#17=VALUE_REPRESENTATION_ITEM('number of views',COUNT_MEASURE(0.));
#18=SHAPE_REPRESENTATION_RELATIONSHIP('None',
'relationship between bdk3604E78Cf7td-None and bdk3604E78Cf7td-None',#84,
#19);
#19=ADVANCED_BREP_SHAPE_REPRESENTATION('bdk3604E78Cf7td-None',(#94),#667);
#20=APPLIED_APPROVAL_ASSIGNMENT(#32,(#74));
#21=APPLIED_APPROVAL_ASSIGNMENT(#33,(#76));
#22=APPLIED_APPROVAL_ASSIGNMENT(#34,(#46));
#23=APPROVAL_PERSON_ORGANIZATION(#38,#32,#26);
#24=APPROVAL_PERSON_ORGANIZATION(#39,#33,#27);
#25=APPROVAL_PERSON_ORGANIZATION(#40,#34,#28);
#26=APPROVAL_ROLE('approver');
#27=APPROVAL_ROLE('approver');
#28=APPROVAL_ROLE('approver');
#29=APPROVAL_DATE_TIME(#54,#32);
#30=APPROVAL_DATE_TIME(#55,#33);
#31=APPROVAL_DATE_TIME(#56,#34);
#32=APPROVAL(#35,' ');
#33=APPROVAL(#36,' ');
#34=APPROVAL(#37,' ');
#35=APPROVAL_STATUS('not_yet_approved');
#36=APPROVAL_STATUS('not_yet_approved');
#37=APPROVAL_STATUS('not_yet_approved');
#38=PERSON_AND_ORGANIZATION(#44,#41);
#39=PERSON_AND_ORGANIZATION(#44,#42);
#40=PERSON_AND_ORGANIZATION(#44,#43);
#41=ORGANIZATION(' ',' ',' ');
#42=ORGANIZATION(' ',' ',' ');
#43=ORGANIZATION(' ',' ',' ');
#44=PERSON(' ',' ',' ',(' '),$,$);
#45=APPLIED_SECURITY_CLASSIFICATION_ASSIGNMENT(#46,(#76));
#46=SECURITY_CLASSIFICATION(' ',' ',#47);
#47=SECURITY_CLASSIFICATION_LEVEL('confidential');
#48=APPLIED_DATE_AND_TIME_ASSIGNMENT(#52,#50,(#74));
#49=APPLIED_DATE_AND_TIME_ASSIGNMENT(#53,#51,(#46));
#50=DATE_TIME_ROLE('creation_date');
#51=DATE_TIME_ROLE('classification_date');
#52=DATE_AND_TIME(#67,#57);
#53=DATE_AND_TIME(#68,#58);
#54=DATE_AND_TIME(#69,#59);
#55=DATE_AND_TIME(#70,#60);
#56=DATE_AND_TIME(#71,#61);
#57=LOCAL_TIME(0,0,0.,#62);
#58=LOCAL_TIME(0,0,0.,#63);
#59=LOCAL_TIME(0,0,0.,#64);
#60=LOCAL_TIME(0,0,0.,#65);
#61=LOCAL_TIME(0,0,0.,#66);
#62=COORDINATED_UNIVERSAL_TIME_OFFSET(0,0,.BEHIND.);
#63=COORDINATED_UNIVERSAL_TIME_OFFSET(0,0,.BEHIND.);
#64=COORDINATED_UNIVERSAL_TIME_OFFSET(0,0,.BEHIND.);
#65=COORDINATED_UNIVERSAL_TIME_OFFSET(0,0,.BEHIND.);
#66=COORDINATED_UNIVERSAL_TIME_OFFSET(0,0,.BEHIND.);
#67=CALENDAR_DATE(0,1,1);
#68=CALENDAR_DATE(0,1,1);
#69=CALENDAR_DATE(0,1,1);
#70=CALENDAR_DATE(0,1,1);
#71=CALENDAR_DATE(0,1,1);
#72=SHAPE_DEFINITION_REPRESENTATION(#73,#84);
#73=PRODUCT_DEFINITION_SHAPE('','',#74);
#74=PRODUCT_DEFINITION(' ','',#76,#75);
#75=PRODUCT_DEFINITION_CONTEXT('part definition',#83,'design');
#76=PRODUCT_DEFINITION_FORMATION_WITH_SPECIFIED_SOURCE(' ',' ',#78,
 .NOT_KNOWN.);
#77=PRODUCT_RELATED_PRODUCT_CATEGORY('detail','',(#78));
#78=PRODUCT('bdk3604E78Cf7td','bdk3604E78Cf7td',' ',(#81));
#79=PRODUCT_CATEGORY('part',' ');
#80=PRODUCT_CATEGORY(' ','');
#81=PRODUCT_CONTEXT(' ',#83,'mechanical');
#82=APPLICATION_PROTOCOL_DEFINITION('international standard',
'config_control_design',2010,#83);
#83=APPLICATION_CONTEXT(
'configuration controlled 3D designs of mechanical parts and assemblie
s');
#84=SHAPE_REPRESENTATION('bdk3604E78Cf7td-None',(#418),#667);
#85=PRESENTATION_LAYER_ASSIGNMENT('1','Layer 1',(#94));
#86=STYLED_ITEM('',(#87),#94);
#87=PRESENTATION_STYLE_ASSIGNMENT((#88));
#88=SURFACE_STYLE_USAGE(.BOTH.,#89);
#89=SURFACE_SIDE_STYLE('',(#90));
#90=SURFACE_STYLE_FILL_AREA(#91);
#91=FILL_AREA_STYLE('',(#92));
#92=FILL_AREA_STYLE_COLOUR('',#93);
#93=COLOUR_RGB('olive',0.269993133440146,0.539986266880293,0.139986266880293);
#94=MANIFOLD_SOLID_BREP('',#95);
#95=CLOSED_SHELL('',(#118,#119,#120,#121,#122,#123,#124,#125,#126,#127,
#128,#129,#130,#131,#132,#133,#134,#135));
#96=B_SPLINE_CURVE_WITH_KNOTS('',3,(#557,#558,#559,#560),.UNSPECIFIED.,
 .F.,.F.,(4,4),(0.,1.),.UNSPECIFIED.);
#97=B_SPLINE_CURVE_WITH_KNOTS('',3,(#572,#573,#574,#575),.UNSPECIFIED.,
 .F.,.F.,(4,4),(0.,1.),.UNSPECIFIED.);
#98=B_SPLINE_CURVE_WITH_KNOTS('',3,(#581,#582,#583,#584),.UNSPECIFIED.,
 .F.,.F.,(4,4),(0.,1.),.UNSPECIFIED.);
#99=B_SPLINE_CURVE_WITH_KNOTS('',3,(#590,#591,#592,#593),.UNSPECIFIED.,
 .F.,.F.,(4,4),(0.,1.),.UNSPECIFIED.);
#100=B_SPLINE_CURVE_WITH_KNOTS('',3,(#599,#600,#601,#602),.UNSPECIFIED.,
 .F.,.F.,(4,4),(0.,1.),.UNSPECIFIED.);
#101=B_SPLINE_CURVE_WITH_KNOTS('',3,(#608,#609,#610,#611),.UNSPECIFIED.,
 .F.,.F.,(4,4),(0.,1.),.UNSPECIFIED.);
#102=B_SPLINE_CURVE_WITH_KNOTS('',3,(#617,#618,#619,#620),.UNSPECIFIED.,
 .F.,.F.,(4,4),(0.,1.),.UNSPECIFIED.);
#103=B_SPLINE_CURVE_WITH_KNOTS('',3,(#632,#633,#634,#635),.UNSPECIFIED.,
 .F.,.F.,(4,4),(0.,1.),.UNSPECIFIED.);
#104=B_SPLINE_CURVE_WITH_KNOTS('',3,(#641,#642,#643,#644),.UNSPECIFIED.,
 .F.,.F.,(4,4),(0.,1.),.UNSPECIFIED.);
#105=B_SPLINE_CURVE_WITH_KNOTS('',3,(#650,#651,#652,#653),.UNSPECIFIED.,
 .F.,.F.,(4,4),(0.,1.),.UNSPECIFIED.);
#106=PLANE('',#422);
#107=PLANE('',#429);
#108=PLANE('',#430);
#109=PLANE('',#431);
#110=PLANE('',#432);
#111=PLANE('',#433);
#112=PLANE('',#434);
#113=PLANE('',#435);
#114=PLANE('',#442);
#115=PLANE('',#446);
#116=PLANE('',#447);
#117=PLANE('',#448);
#118=ADVANCED_FACE('',(#142),#136,.T.);
#119=ADVANCED_FACE('',(#143),#106,.T.);
#120=ADVANCED_FACE('',(#144),#137,.T.);
#121=ADVANCED_FACE('',(#145),#138,.T.);
#122=ADVANCED_FACE('',(#146),#107,.T.);
#123=ADVANCED_FACE('',(#147),#108,.T.);
#124=ADVANCED_FACE('',(#148),#109,.T.);
#125=ADVANCED_FACE('',(#149),#110,.T.);
#126=ADVANCED_FACE('',(#150),#111,.T.);
#127=ADVANCED_FACE('',(#151),#112,.T.);
#128=ADVANCED_FACE('',(#152),#113,.T.);
#129=ADVANCED_FACE('',(#153),#139,.T.);
#130=ADVANCED_FACE('',(#154),#140,.T.);
#131=ADVANCED_FACE('',(#155),#114,.T.);
#132=ADVANCED_FACE('',(#156),#141,.T.);
#133=ADVANCED_FACE('',(#157),#115,.T.);
#134=ADVANCED_FACE('',(#158),#116,.F.);
#135=ADVANCED_FACE('',(#159),#117,.T.);
#136=CYLINDRICAL_SURFACE('',#421,0.03);
#137=CYLINDRICAL_SURFACE('',#425,0.035);
#138=CYLINDRICAL_SURFACE('',#428,0.035);
#139=CYLINDRICAL_SURFACE('',#438,0.035);
#140=CYLINDRICAL_SURFACE('',#441,0.035);
#141=CYLINDRICAL_SURFACE('',#445,0.03);
#142=FACE_OUTER_BOUND('',#160,.T.);
#143=FACE_OUTER_BOUND('',#161,.T.);
#144=FACE_OUTER_BOUND('',#162,.T.);
#145=FACE_OUTER_BOUND('',#163,.T.);
#146=FACE_OUTER_BOUND('',#164,.T.);
#147=FACE_OUTER_BOUND('',#165,.T.);
#148=FACE_OUTER_BOUND('',#166,.T.);
#149=FACE_OUTER_BOUND('',#167,.T.);
#150=FACE_OUTER_BOUND('',#168,.T.);
#151=FACE_OUTER_BOUND('',#169,.T.);
#152=FACE_OUTER_BOUND('',#170,.T.);
#153=FACE_OUTER_BOUND('',#171,.T.);
#154=FACE_OUTER_BOUND('',#172,.T.);
#155=FACE_OUTER_BOUND('',#173,.T.);
#156=FACE_OUTER_BOUND('',#174,.T.);
#157=FACE_OUTER_BOUND('',#175,.T.);
#158=FACE_OUTER_BOUND('',#176,.T.);
#159=FACE_OUTER_BOUND('',#177,.T.);
#160=EDGE_LOOP('',(#230,#231,#232,#233));
#161=EDGE_LOOP('',(#234,#235,#236,#237));
#162=EDGE_LOOP('',(#238,#239,#240,#241));
#163=EDGE_LOOP('',(#242,#243,#244,#245));
#164=EDGE_LOOP('',(#246,#247,#248,#249));
#165=EDGE_LOOP('',(#250,#251,#252,#253));
#166=EDGE_LOOP('',(#254,#255,#256,#257));
#167=EDGE_LOOP('',(#258,#259,#260,#261));
#168=EDGE_LOOP('',(#262,#263,#264,#265));
#169=EDGE_LOOP('',(#266,#267,#268,#269));
#170=EDGE_LOOP('',(#270,#271,#272,#273));
#171=EDGE_LOOP('',(#274,#275,#276,#277));
#172=EDGE_LOOP('',(#278,#279,#280,#281));
#173=EDGE_LOOP('',(#282,#283,#284,#285));
#174=EDGE_LOOP('',(#286,#287,#288,#289));
#175=EDGE_LOOP('',(#290,#291,#292,#293));
#176=EDGE_LOOP('',(#294,#295,#296,#297,#298,#299,#300,#301,#302,#303,#304,
#305,#306,#307,#308,#309));
#177=EDGE_LOOP('',(#310,#311,#312,#313,#314,#315,#316,#317,#318,#319,#320,
#321,#322,#323,#324,#325));
#178=LINE('',#541,#204);
#179=LINE('',#545,#205);
#180=LINE('',#547,#206);
#181=LINE('',#549,#207);
#182=LINE('',#551,#208);
#183=LINE('',#566,#209);
#184=LINE('',#568,#210);
#185=LINE('',#570,#211);
#186=LINE('',#577,#212);
#187=LINE('',#579,#213);
#188=LINE('',#586,#214);
#189=LINE('',#588,#215);
#190=LINE('',#595,#216);
#191=LINE('',#597,#217);
#192=LINE('',#604,#218);
#193=LINE('',#606,#219);
#194=LINE('',#613,#220);
#195=LINE('',#615,#221);
#196=LINE('',#622,#222);
#197=LINE('',#624,#223);
#198=LINE('',#626,#224);
#199=LINE('',#646,#225);
#200=LINE('',#648,#226);
#201=LINE('',#659,#227);
#202=LINE('',#661,#228);
#203=LINE('',#662,#229);
#204=VECTOR('',#453,1.);
#205=VECTOR('',#456,1.);
#206=VECTOR('',#459,1.);
#207=VECTOR('',#460,1.);
#208=VECTOR('',#461,1.);
#209=VECTOR('',#474,1.);
#210=VECTOR('',#477,1.);
#211=VECTOR('',#478,1.);
#212=VECTOR('',#481,1.);
#213=VECTOR('',#482,1.);
#214=VECTOR('',#485,1.);
#215=VECTOR('',#486,1.);
#216=VECTOR('',#489,1.);
#217=VECTOR('',#490,1.);
#218=VECTOR('',#493,1.);
#219=VECTOR('',#494,1.);
#220=VECTOR('',#497,1.);
#221=VECTOR('',#498,1.);
#222=VECTOR('',#501,1.);
#223=VECTOR('',#502,1.);
#224=VECTOR('',#503,1.);
#225=VECTOR('',#518,1.);
#226=VECTOR('',#519,1.);
#227=VECTOR('',#526,1.);
#228=VECTOR('',#529,1.);
#229=VECTOR('',#530,1.);
#230=ORIENTED_EDGE('',*,*,#358,.F.);
#231=ORIENTED_EDGE('',*,*,#359,.F.);
#232=ORIENTED_EDGE('',*,*,#360,.T.);
#233=ORIENTED_EDGE('',*,*,#361,.T.);
#234=ORIENTED_EDGE('',*,*,#362,.F.);
#235=ORIENTED_EDGE('',*,*,#361,.F.);
#236=ORIENTED_EDGE('',*,*,#363,.T.);
#237=ORIENTED_EDGE('',*,*,#364,.T.);
#238=ORIENTED_EDGE('',*,*,#365,.F.);
#239=ORIENTED_EDGE('',*,*,#364,.F.);
#240=ORIENTED_EDGE('',*,*,#366,.T.);
#241=ORIENTED_EDGE('',*,*,#367,.T.);
#242=ORIENTED_EDGE('',*,*,#368,.F.);
#243=ORIENTED_EDGE('',*,*,#367,.F.);
#244=ORIENTED_EDGE('',*,*,#369,.T.);
#245=ORIENTED_EDGE('',*,*,#370,.T.);
#246=ORIENTED_EDGE('',*,*,#371,.F.);
#247=ORIENTED_EDGE('',*,*,#370,.F.);
#248=ORIENTED_EDGE('',*,*,#372,.T.);
#249=ORIENTED_EDGE('',*,*,#373,.T.);
#250=ORIENTED_EDGE('',*,*,#374,.F.);
#251=ORIENTED_EDGE('',*,*,#373,.F.);
#252=ORIENTED_EDGE('',*,*,#375,.T.);
#253=ORIENTED_EDGE('',*,*,#376,.T.);
#254=ORIENTED_EDGE('',*,*,#377,.F.);
#255=ORIENTED_EDGE('',*,*,#376,.F.);
#256=ORIENTED_EDGE('',*,*,#378,.T.);
#257=ORIENTED_EDGE('',*,*,#379,.T.);
#258=ORIENTED_EDGE('',*,*,#380,.F.);
#259=ORIENTED_EDGE('',*,*,#379,.F.);
#260=ORIENTED_EDGE('',*,*,#381,.T.);
#261=ORIENTED_EDGE('',*,*,#382,.T.);
#262=ORIENTED_EDGE('',*,*,#383,.F.);
#263=ORIENTED_EDGE('',*,*,#382,.F.);
#264=ORIENTED_EDGE('',*,*,#384,.T.);
#265=ORIENTED_EDGE('',*,*,#385,.T.);
#266=ORIENTED_EDGE('',*,*,#386,.F.);
#267=ORIENTED_EDGE('',*,*,#385,.F.);
#268=ORIENTED_EDGE('',*,*,#387,.T.);
#269=ORIENTED_EDGE('',*,*,#388,.T.);
#270=ORIENTED_EDGE('',*,*,#389,.F.);
#271=ORIENTED_EDGE('',*,*,#388,.F.);
#272=ORIENTED_EDGE('',*,*,#390,.T.);
#273=ORIENTED_EDGE('',*,*,#391,.T.);
#274=ORIENTED_EDGE('',*,*,#392,.F.);
#275=ORIENTED_EDGE('',*,*,#391,.F.);
#276=ORIENTED_EDGE('',*,*,#393,.T.);
#277=ORIENTED_EDGE('',*,*,#394,.T.);
#278=ORIENTED_EDGE('',*,*,#395,.F.);
#279=ORIENTED_EDGE('',*,*,#394,.F.);
#280=ORIENTED_EDGE('',*,*,#396,.T.);
#281=ORIENTED_EDGE('',*,*,#397,.T.);
#282=ORIENTED_EDGE('',*,*,#398,.F.);
#283=ORIENTED_EDGE('',*,*,#397,.F.);
#284=ORIENTED_EDGE('',*,*,#399,.T.);
#285=ORIENTED_EDGE('',*,*,#400,.T.);
#286=ORIENTED_EDGE('',*,*,#401,.F.);
#287=ORIENTED_EDGE('',*,*,#400,.F.);
#288=ORIENTED_EDGE('',*,*,#402,.T.);
#289=ORIENTED_EDGE('',*,*,#403,.T.);
#290=ORIENTED_EDGE('',*,*,#404,.F.);
#291=ORIENTED_EDGE('',*,*,#403,.F.);
#292=ORIENTED_EDGE('',*,*,#405,.T.);
#293=ORIENTED_EDGE('',*,*,#359,.T.);
#294=ORIENTED_EDGE('',*,*,#360,.F.);
#295=ORIENTED_EDGE('',*,*,#405,.F.);
#296=ORIENTED_EDGE('',*,*,#402,.F.);
#297=ORIENTED_EDGE('',*,*,#399,.F.);
#298=ORIENTED_EDGE('',*,*,#396,.F.);
#299=ORIENTED_EDGE('',*,*,#393,.F.);
#300=ORIENTED_EDGE('',*,*,#390,.F.);
#301=ORIENTED_EDGE('',*,*,#387,.F.);
#302=ORIENTED_EDGE('',*,*,#384,.F.);
#303=ORIENTED_EDGE('',*,*,#381,.F.);
#304=ORIENTED_EDGE('',*,*,#378,.F.);
#305=ORIENTED_EDGE('',*,*,#375,.F.);
#306=ORIENTED_EDGE('',*,*,#372,.F.);
#307=ORIENTED_EDGE('',*,*,#369,.F.);
#308=ORIENTED_EDGE('',*,*,#366,.F.);
#309=ORIENTED_EDGE('',*,*,#363,.F.);
#310=ORIENTED_EDGE('',*,*,#358,.T.);
#311=ORIENTED_EDGE('',*,*,#362,.T.);
#312=ORIENTED_EDGE('',*,*,#365,.T.);
#313=ORIENTED_EDGE('',*,*,#368,.T.);
#314=ORIENTED_EDGE('',*,*,#371,.T.);
#315=ORIENTED_EDGE('',*,*,#374,.T.);
#316=ORIENTED_EDGE('',*,*,#377,.T.);
#317=ORIENTED_EDGE('',*,*,#380,.T.);
#318=ORIENTED_EDGE('',*,*,#383,.T.);
#319=ORIENTED_EDGE('',*,*,#386,.T.);
#320=ORIENTED_EDGE('',*,*,#389,.T.);
#321=ORIENTED_EDGE('',*,*,#392,.T.);
#322=ORIENTED_EDGE('',*,*,#395,.T.);
#323=ORIENTED_EDGE('',*,*,#398,.T.);
#324=ORIENTED_EDGE('',*,*,#401,.T.);
#325=ORIENTED_EDGE('',*,*,#404,.T.);
#326=VERTEX_POINT('',#539);
#327=VERTEX_POINT('',#540);
#328=VERTEX_POINT('',#542);
#329=VERTEX_POINT('',#544);
#330=VERTEX_POINT('',#548);
#331=VERTEX_POINT('',#550);
#332=VERTEX_POINT('',#554);
#333=VERTEX_POINT('',#556);
#334=VERTEX_POINT('',#563);
#335=VERTEX_POINT('',#565);
#336=VERTEX_POINT('',#569);
#337=VERTEX_POINT('',#571);
#338=VERTEX_POINT('',#578);
#339=VERTEX_POINT('',#580);
#340=VERTEX_POINT('',#587);
#341=VERTEX_POINT('',#589);
#342=VERTEX_POINT('',#596);
#343=VERTEX_POINT('',#598);
#344=VERTEX_POINT('',#605);
#345=VERTEX_POINT('',#607);
#346=VERTEX_POINT('',#614);
#347=VERTEX_POINT('',#616);
#348=VERTEX_POINT('',#623);
#349=VERTEX_POINT('',#625);
#350=VERTEX_POINT('',#629);
#351=VERTEX_POINT('',#631);
#352=VERTEX_POINT('',#638);
#353=VERTEX_POINT('',#640);
#354=VERTEX_POINT('',#647);
#355=VERTEX_POINT('',#649);
#356=VERTEX_POINT('',#656);
#357=VERTEX_POINT('',#658);
#358=EDGE_CURVE('',#326,#327,#406,.T.);
#359=EDGE_CURVE('',#328,#326,#178,.T.);
#360=EDGE_CURVE('',#328,#329,#407,.T.);
#361=EDGE_CURVE('',#329,#327,#179,.T.);
#362=EDGE_CURVE('',#327,#330,#180,.T.);
#363=EDGE_CURVE('',#329,#331,#181,.T.);
#364=EDGE_CURVE('',#331,#330,#182,.T.);
#365=EDGE_CURVE('',#330,#332,#408,.T.);
#366=EDGE_CURVE('',#331,#333,#409,.T.);
#367=EDGE_CURVE('',#333,#332,#96,.T.);
#368=EDGE_CURVE('',#332,#334,#410,.T.);
#369=EDGE_CURVE('',#333,#335,#411,.T.);
#370=EDGE_CURVE('',#335,#334,#183,.T.);
#371=EDGE_CURVE('',#334,#336,#184,.T.);
#372=EDGE_CURVE('',#335,#337,#185,.T.);
#373=EDGE_CURVE('',#337,#336,#97,.T.);
#374=EDGE_CURVE('',#336,#338,#186,.T.);
#375=EDGE_CURVE('',#337,#339,#187,.T.);
#376=EDGE_CURVE('',#339,#338,#98,.T.);
#377=EDGE_CURVE('',#338,#340,#188,.T.);
#378=EDGE_CURVE('',#339,#341,#189,.T.);
#379=EDGE_CURVE('',#341,#340,#99,.T.);
#380=EDGE_CURVE('',#340,#342,#190,.T.);
#381=EDGE_CURVE('',#341,#343,#191,.T.);
#382=EDGE_CURVE('',#343,#342,#100,.T.);
#383=EDGE_CURVE('',#342,#344,#192,.T.);
#384=EDGE_CURVE('',#343,#345,#193,.T.);
#385=EDGE_CURVE('',#345,#344,#101,.T.);
#386=EDGE_CURVE('',#344,#346,#194,.T.);
#387=EDGE_CURVE('',#345,#347,#195,.T.);
#388=EDGE_CURVE('',#347,#346,#102,.T.);
#389=EDGE_CURVE('',#346,#348,#196,.T.);
#390=EDGE_CURVE('',#347,#349,#197,.T.);
#391=EDGE_CURVE('',#349,#348,#198,.T.);
#392=EDGE_CURVE('',#348,#350,#412,.T.);
#393=EDGE_CURVE('',#349,#351,#413,.T.);
#394=EDGE_CURVE('',#351,#350,#103,.T.);
#395=EDGE_CURVE('',#350,#352,#414,.T.);
#396=EDGE_CURVE('',#351,#353,#415,.T.);
#397=EDGE_CURVE('',#353,#352,#104,.T.);
#398=EDGE_CURVE('',#352,#354,#199,.T.);
#399=EDGE_CURVE('',#353,#355,#200,.T.);
#400=EDGE_CURVE('',#355,#354,#105,.T.);
#401=EDGE_CURVE('',#354,#356,#416,.T.);
#402=EDGE_CURVE('',#355,#357,#417,.T.);
#403=EDGE_CURVE('',#357,#356,#201,.T.);
#404=EDGE_CURVE('',#356,#326,#202,.T.);
#405=EDGE_CURVE('',#357,#328,#203,.T.);
#406=CIRCLE('',#419,0.03);
#407=CIRCLE('',#420,0.03);
#408=CIRCLE('',#423,0.035);
#409=CIRCLE('',#424,0.035);
#410=CIRCLE('',#426,0.035);
#411=CIRCLE('',#427,0.035);
#412=CIRCLE('',#436,0.035);
#413=CIRCLE('',#437,0.035);
#414=CIRCLE('',#439,0.035);
#415=CIRCLE('',#440,0.035);
#416=CIRCLE('',#443,0.03);
#417=CIRCLE('',#444,0.03);
#418=AXIS2_PLACEMENT_3D('',#537,#449,#450);
#419=AXIS2_PLACEMENT_3D('',#538,#451,#452);
#420=AXIS2_PLACEMENT_3D('',#543,#454,#455);
#421=AXIS2_PLACEMENT_3D('',#546,#457,#458);
#422=AXIS2_PLACEMENT_3D('',#552,#462,#463);
#423=AXIS2_PLACEMENT_3D('',#553,#464,#465);
#424=AXIS2_PLACEMENT_3D('',#555,#466,#467);
#425=AXIS2_PLACEMENT_3D('',#561,#468,#469);
#426=AXIS2_PLACEMENT_3D('',#562,#470,#471);
#427=AXIS2_PLACEMENT_3D('',#564,#472,#473);
#428=AXIS2_PLACEMENT_3D('',#567,#475,#476);
#429=AXIS2_PLACEMENT_3D('',#576,#479,#480);
#430=AXIS2_PLACEMENT_3D('',#585,#483,#484);
#431=AXIS2_PLACEMENT_3D('',#594,#487,#488);
#432=AXIS2_PLACEMENT_3D('',#603,#491,#492);
#433=AXIS2_PLACEMENT_3D('',#612,#495,#496);
#434=AXIS2_PLACEMENT_3D('',#621,#499,#500);
#435=AXIS2_PLACEMENT_3D('',#627,#504,#505);
#436=AXIS2_PLACEMENT_3D('',#628,#506,#507);
#437=AXIS2_PLACEMENT_3D('',#630,#508,#509);
#438=AXIS2_PLACEMENT_3D('',#636,#510,#511);
#439=AXIS2_PLACEMENT_3D('',#637,#512,#513);
#440=AXIS2_PLACEMENT_3D('',#639,#514,#515);
#441=AXIS2_PLACEMENT_3D('',#645,#516,#517);
#442=AXIS2_PLACEMENT_3D('',#654,#520,#521);
#443=AXIS2_PLACEMENT_3D('',#655,#522,#523);
#444=AXIS2_PLACEMENT_3D('',#657,#524,#525);
#445=AXIS2_PLACEMENT_3D('',#660,#527,#528);
#446=AXIS2_PLACEMENT_3D('',#663,#531,#532);
#447=AXIS2_PLACEMENT_3D('',#664,#533,#534);
#448=AXIS2_PLACEMENT_3D('',#665,#535,#536);
#449=DIRECTION('',(0.,0.,1.));
#450=DIRECTION('',(1.,0.,0.));
#451=DIRECTION('',(0.,-1.,0.));
#452=DIRECTION('',(0.,0.,0.999999999999998));
#453=DIRECTION('',(0.,-1.,0.));
#454=DIRECTION('',(0.,-1.,0.));
#455=DIRECTION('',(0.,0.,0.999999999999998));
#456=DIRECTION('',(0.,-1.,0.));
#457=DIRECTION('',(0.,-1.,0.));
#458=DIRECTION('',(0.,0.,-0.999999999999998));
#459=DIRECTION('',(0.,0.,-1.));
#460=DIRECTION('',(0.,0.,-1.));
#461=DIRECTION('',(0.,-1.,0.));
#462=DIRECTION('',(-1.,0.,0.));
#463=DIRECTION('',(0.,0.,1.));
#464=DIRECTION('',(0.,-1.,0.));
#465=DIRECTION('',(0.,0.,1.));
#466=DIRECTION('',(0.,-1.,0.));
#467=DIRECTION('',(0.,0.,1.));
#468=DIRECTION('',(0.,-1.,0.));
#469=DIRECTION('',(0.,0.,-1.));
#470=DIRECTION('',(0.,-1.,0.));
#471=DIRECTION('',(0.,0.,1.));
#472=DIRECTION('',(0.,-1.,0.));
#473=DIRECTION('',(0.,0.,1.));
#474=DIRECTION('',(0.,-1.,0.));
#475=DIRECTION('',(0.,-1.,0.));
#476=DIRECTION('',(0.,0.,-1.));
#477=DIRECTION('',(0.707106781186549,0.,0.707106781186546));
#478=DIRECTION('',(0.707106781186549,0.,0.707106781186546));
#479=DIRECTION('',(0.707106781186546,0.,-0.707106781186549));
#480=DIRECTION('',(-0.707106781186549,0.,-0.707106781186546));
#481=DIRECTION('',(-0.991444861373805,0.,0.130526192220096));
#482=DIRECTION('',(-0.991444861373805,0.,0.130526192220096));
#483=DIRECTION('',(0.130526192220096,0.,0.991444861373805));
#484=DIRECTION('',(0.991444861373805,0.,-0.130526192220096));
#485=DIRECTION('',(0.,0.,1.));
#486=DIRECTION('',(0.,0.,1.));
#487=DIRECTION('',(1.,0.,0.));
#488=DIRECTION('',(0.,0.,-1.));
#489=DIRECTION('',(1.,0.,-1.56852516382637E-15));
#490=DIRECTION('',(1.,0.,-1.56852516382637E-15));
#491=DIRECTION('',(-1.56852516382637E-15,0.,-1.));
#492=DIRECTION('',(-1.,0.,1.56819002228303E-15));
#493=DIRECTION('',(0.,0.,-1.));
#494=DIRECTION('',(0.,0.,-1.));
#495=DIRECTION('',(-1.,0.,0.));
#496=DIRECTION('',(0.,0.,1.));
#497=DIRECTION('',(-0.991444861373805,0.,-0.130526192220096));
#498=DIRECTION('',(-0.991444861373805,0.,-0.130526192220096));
#499=DIRECTION('',(-0.130526192220096,0.,0.991444861373805));
#500=DIRECTION('',(0.991444861373805,0.,0.130526192220096));
#501=DIRECTION('',(0.707106781186549,0.,-0.707106781186546));
#502=DIRECTION('',(0.707106781186549,0.,-0.707106781186546));
#503=DIRECTION('',(0.,-1.,0.));
#504=DIRECTION('',(-0.707106781186546,0.,-0.707106781186549));
#505=DIRECTION('',(-0.707106781186549,0.,0.707106781186546));
#506=DIRECTION('',(0.,-1.,0.));
#507=DIRECTION('',(0.,0.,1.));
#508=DIRECTION('',(0.,-1.,0.));
#509=DIRECTION('',(0.,0.,1.));
#510=DIRECTION('',(0.,-1.,0.));
#511=DIRECTION('',(0.,0.,-1.));
#512=DIRECTION('',(0.,-1.,0.));
#513=DIRECTION('',(0.,0.,1.));
#514=DIRECTION('',(0.,-1.,0.));
#515=DIRECTION('',(0.,0.,1.));
#516=DIRECTION('',(0.,-1.,0.));
#517=DIRECTION('',(0.,0.,-1.));
#518=DIRECTION('',(0.,0.,1.));
#519=DIRECTION('',(0.,0.,1.));
#520=DIRECTION('',(1.,0.,0.));
#521=DIRECTION('',(0.,0.,-1.));
#522=DIRECTION('',(0.,-1.,0.));
#523=DIRECTION('',(0.,0.,0.999999999999998));
#524=DIRECTION('',(0.,-1.,0.));
#525=DIRECTION('',(0.,0.,0.999999999999998));
#526=DIRECTION('',(0.,-1.,0.));
#527=DIRECTION('',(0.,-1.,0.));
#528=DIRECTION('',(0.,0.,-0.999999999999998));
#529=DIRECTION('',(-1.,0.,9.97935340151329E-16));
#530=DIRECTION('',(-1.,0.,9.97935340151329E-16));
#531=DIRECTION('',(9.97935340151329E-16,0.,1.));
#532=DIRECTION('',(1.,0.,-9.99200722162641E-16));
#533=DIRECTION('',(0.,-1.,0.));
#534=DIRECTION('',(0.,0.,-1.));
#535=DIRECTION('',(0.,-1.,0.));
#536=DIRECTION('',(0.,0.,-1.));
#537=CARTESIAN_POINT('',(0.,0.,0.));
#538=CARTESIAN_POINT('',(-1.09500000000009,0.,1.975));
#539=CARTESIAN_POINT('',(-1.09500000000009,0.,2.005));
#540=CARTESIAN_POINT('',(-1.12500000000009,0.,1.975));
#541=CARTESIAN_POINT('',(-1.09500000000009,72.,2.005));
#542=CARTESIAN_POINT('',(-1.09500000000009,72.,2.005));
#543=CARTESIAN_POINT('',(-1.09500000000009,72.,1.975));
#544=CARTESIAN_POINT('',(-1.12500000000009,72.,1.975));
#545=CARTESIAN_POINT('',(-1.12500000000009,72.,1.975));
#546=CARTESIAN_POINT('',(-1.09500000000009,72.,1.975));
#547=CARTESIAN_POINT('',(-1.12500000000009,0.,1.975));
#548=CARTESIAN_POINT('',(-1.12500000000009,0.,1.69));
#549=CARTESIAN_POINT('',(-1.12500000000009,72.,1.975));
#550=CARTESIAN_POINT('',(-1.12500000000009,72.,1.69));
#551=CARTESIAN_POINT('',(-1.12500000000009,72.,1.69));
#552=CARTESIAN_POINT('',(-1.12500000000009,72.,1.975));
#553=CARTESIAN_POINT('',(-1.09000000000009,0.,1.69));
#554=CARTESIAN_POINT('',(-1.08849873734162,0.,1.655));
#555=CARTESIAN_POINT('',(-1.09000000000009,72.,1.69));
#556=CARTESIAN_POINT('',(-1.08849873734162,72.,1.655));
#557=CARTESIAN_POINT('',(-1.08850011647159,72.,1.65503215263416));
#558=CARTESIAN_POINT('',(-1.08850011647159,48.,1.65503215263416));
#559=CARTESIAN_POINT('',(-1.08850011647159,24.,1.65503215263416));
#560=CARTESIAN_POINT('',(-1.08850011647159,0.,1.65503215263416));
#561=CARTESIAN_POINT('',(-1.09000000000009,72.,1.69));
#562=CARTESIAN_POINT('',(-1.08699747468315,0.,1.69));
#563=CARTESIAN_POINT('',(-1.06224873734162,0.,1.66525126265847));
#564=CARTESIAN_POINT('',(-1.08699747468315,72.,1.69));
#565=CARTESIAN_POINT('',(-1.06224873734162,72.,1.66525126265847));
#566=CARTESIAN_POINT('',(-1.06224873734162,72.,1.66525126265847));
#567=CARTESIAN_POINT('',(-1.08699747468315,72.,1.69));
#568=CARTESIAN_POINT('',(-1.06224873734162,0.,1.66525126265847));
#569=CARTESIAN_POINT('',(-0.987738260993963,0.,1.75113740016376));
#570=CARTESIAN_POINT('',(-1.06224873734162,72.,1.66525126265847));
#571=CARTESIAN_POINT('',(-0.987738260993963,72.,1.75113740016376));
#572=CARTESIAN_POINT('',(-0.982050430415146,72.,1.74544956958494));
#573=CARTESIAN_POINT('',(-0.982050430415146,48.,1.74544956958494));
#574=CARTESIAN_POINT('',(-0.982050430415146,24.,1.74544956958494));
#575=CARTESIAN_POINT('',(-0.982050430415146,-6.99353086378051E-14,1.74544956958494));
#576=CARTESIAN_POINT('',(-1.06224873734162,72.,1.66525126265847));
#577=CARTESIAN_POINT('',(-0.990621163938795,0.,1.75963015837656));
#578=CARTESIAN_POINT('',(-1.05065263096119,0.,1.77191833325886));
#579=CARTESIAN_POINT('',(-0.990621163938795,72.,1.75963015837656));
#580=CARTESIAN_POINT('',(-1.05065263096119,72.,1.77191833325886));
#581=CARTESIAN_POINT('',(-1.05122007648801,72.,1.76760815656475));
#582=CARTESIAN_POINT('',(-1.05122007648801,48.,1.76760815656475));
#583=CARTESIAN_POINT('',(-1.05122007648801,24.,1.76760815656475));
#584=CARTESIAN_POINT('',(-1.05122007648801,0.,1.76760815656475));
#585=CARTESIAN_POINT('',(-0.990621163938795,72.,1.75963015837656));
#586=CARTESIAN_POINT('',(-1.05500000000009,0.,1.77687555756573));
#587=CARTESIAN_POINT('',(-1.05000000000009,0.,1.94));
#588=CARTESIAN_POINT('',(-1.05500000000009,72.,1.77687555756573));
#589=CARTESIAN_POINT('',(-1.05000000000009,72.,1.94));
#590=CARTESIAN_POINT('',(-1.05500000000009,72.,1.94));
#591=CARTESIAN_POINT('',(-1.05500000000009,48.,1.94));
#592=CARTESIAN_POINT('',(-1.05500000000009,24.,1.94));
#593=CARTESIAN_POINT('',(-1.05500000000009,0.,1.94));
#594=CARTESIAN_POINT('',(-1.05500000000009,72.,1.77687555756573));
#595=CARTESIAN_POINT('',(-1.04500000000009,0.,1.945));
#596=CARTESIAN_POINT('',(1.04999999999991,0.,1.94));
#597=CARTESIAN_POINT('',(-1.04500000000009,72.,1.945));
#598=CARTESIAN_POINT('',(1.04999999999991,72.,1.94));
#599=CARTESIAN_POINT('',(1.04999999999991,72.,1.945));
#600=CARTESIAN_POINT('',(1.04999999999991,48.,1.945));
#601=CARTESIAN_POINT('',(1.04999999999991,24.,1.945));
#602=CARTESIAN_POINT('',(1.04999999999991,0.,1.945));
#603=CARTESIAN_POINT('',(-1.04500000000009,72.,1.945));
#604=CARTESIAN_POINT('',(1.05499999999991,0.,1.935));
#605=CARTESIAN_POINT('',(1.05065263096101,0.,1.77191833325886));
#606=CARTESIAN_POINT('',(1.05499999999991,72.,1.935));
#607=CARTESIAN_POINT('',(1.05065263096101,72.,1.77191833325886));
#608=CARTESIAN_POINT('',(1.05499999999991,72.,1.77191833325886));
#609=CARTESIAN_POINT('',(1.05499999999991,48.,1.77191833325886));
#610=CARTESIAN_POINT('',(1.05499999999991,24.,1.77191833325886));
#611=CARTESIAN_POINT('',(1.05499999999991,0.,1.77191833325886));
#612=CARTESIAN_POINT('',(1.05499999999991,72.,1.935));
#613=CARTESIAN_POINT('',(1.04630526192211,0.,1.76696110895199));
#614=CARTESIAN_POINT('',(0.987738260993789,0.,1.75113740016376));
#615=CARTESIAN_POINT('',(1.04630526192211,72.,1.76696110895199));
#616=CARTESIAN_POINT('',(0.987738260993789,72.,1.75113740016376));
#617=CARTESIAN_POINT('',(0.986688333476194,72.,1.7591123914236));
#618=CARTESIAN_POINT('',(0.986688333476194,48.,1.7591123914236));
#619=CARTESIAN_POINT('',(0.986688333476194,24.,1.7591123914236));
#620=CARTESIAN_POINT('',(0.986688333476194,0.,1.7591123914236));
#621=CARTESIAN_POINT('',(1.04630526192211,72.,1.76696110895199));
#622=CARTESIAN_POINT('',(0.984855358048957,0.,1.74264464195096));
#623=CARTESIAN_POINT('',(1.06224873734144,0.,1.66525126265847));
#624=CARTESIAN_POINT('',(0.984855358048957,72.,1.74264464195096));
#625=CARTESIAN_POINT('',(1.06224873734144,72.,1.66525126265847));
#626=CARTESIAN_POINT('',(1.06224873734144,72.,1.66525126265847));
#627=CARTESIAN_POINT('',(0.984855358048957,72.,1.74264464195096));
#628=CARTESIAN_POINT('',(1.08699747468297,0.,1.69));
#629=CARTESIAN_POINT('',(1.08849873734144,0.,1.655));
#630=CARTESIAN_POINT('',(1.08699747468297,72.,1.69));
#631=CARTESIAN_POINT('',(1.08849873734144,72.,1.655));
#632=CARTESIAN_POINT('',(1.08849735821147,72.,1.65503215263416));
#633=CARTESIAN_POINT('',(1.08849735821147,48.,1.65503215263416));
#634=CARTESIAN_POINT('',(1.08849735821147,24.,1.65503215263416));
#635=CARTESIAN_POINT('',(1.08849735821147,0.,1.65503215263416));
#636=CARTESIAN_POINT('',(1.08699747468297,72.,1.69));
#637=CARTESIAN_POINT('',(1.08999999999991,0.,1.69));
#638=CARTESIAN_POINT('',(1.12374999999991,0.,1.69));
#639=CARTESIAN_POINT('',(1.08999999999991,72.,1.69));
#640=CARTESIAN_POINT('',(1.12374999999991,72.,1.69));
#641=CARTESIAN_POINT('',(1.12499999999991,72.,1.69));
#642=CARTESIAN_POINT('',(1.12499999999991,48.,1.69));
#643=CARTESIAN_POINT('',(1.12499999999991,24.,1.69));
#644=CARTESIAN_POINT('',(1.12499999999991,0.,1.69));
#645=CARTESIAN_POINT('',(1.08999999999991,72.,1.69));
#646=CARTESIAN_POINT('',(1.12249999999991,0.,1.69));
#647=CARTESIAN_POINT('',(1.12374999999991,0.,1.975));
#648=CARTESIAN_POINT('',(1.12249999999991,72.,1.69));
#649=CARTESIAN_POINT('',(1.12374999999991,72.,1.975));
#650=CARTESIAN_POINT('',(1.12249999999991,72.,1.975));
#651=CARTESIAN_POINT('',(1.12249999999991,48.,1.975));
#652=CARTESIAN_POINT('',(1.12249999999991,24.,1.975));
#653=CARTESIAN_POINT('',(1.12249999999991,0.,1.975));
#654=CARTESIAN_POINT('',(1.12249999999991,72.,1.69));
#655=CARTESIAN_POINT('',(1.09499999999991,0.,1.975));
#656=CARTESIAN_POINT('',(1.09499999999991,0.,2.005));
#657=CARTESIAN_POINT('',(1.09499999999991,72.,1.975));
#658=CARTESIAN_POINT('',(1.09499999999991,72.,2.005));
#659=CARTESIAN_POINT('',(1.09499999999991,72.,2.005));
#660=CARTESIAN_POINT('',(1.09499999999991,72.,1.975));
#661=CARTESIAN_POINT('',(1.09499999999991,0.,2.005));
#662=CARTESIAN_POINT('',(1.09499999999991,72.,2.005));
#663=CARTESIAN_POINT('',(1.09499999999991,72.,2.005));
#664=CARTESIAN_POINT('',(-1.09500000000009,72.,1.975));
#665=CARTESIAN_POINT('',(-1.09500000000009,0.,1.975));
#666=MECHANICAL_DESIGN_GEOMETRIC_PRESENTATION_REPRESENTATION('',(#86),#667);
#667=(
GEOMETRIC_REPRESENTATION_CONTEXT(3)
GLOBAL_UNCERTAINTY_ASSIGNED_CONTEXT((#668))
GLOBAL_UNIT_ASSIGNED_CONTEXT((#673,#670,#669))
REPRESENTATION_CONTEXT('C2--6','TOP_LEVEL_ASSEMBLY_PART')
);
#668=UNCERTAINTY_MEASURE_WITH_UNIT(LENGTH_MEASURE(0.00393700787401575),
#673,'DISTANCE_ACCURACY_VALUE','Maximum Tolerance applied to model');
#669=(
NAMED_UNIT(*)
SI_UNIT($,.STERADIAN.)
SOLID_ANGLE_UNIT()
);
#670=(
CONVERSION_BASED_UNIT('DEGREE',#671)
NAMED_UNIT(#675)
PLANE_ANGLE_UNIT()
);
#671=PLANE_ANGLE_MEASURE_WITH_UNIT(PLANE_ANGLE_MEASURE(0.0174532925),#672);
#672=(
NAMED_UNIT(*)
PLANE_ANGLE_UNIT()
SI_UNIT($,.RADIAN.)
);
#673=(
CONVERSION_BASED_UNIT('INCH',#676)
LENGTH_UNIT()
NAMED_UNIT(#674)
);
#674=DIMENSIONAL_EXPONENTS(1.,0.,0.,0.,0.,0.,0.);
#675=DIMENSIONAL_EXPONENTS(0.,0.,0.,0.,0.,0.,0.);
#676=LENGTH_MEASURE_WITH_UNIT(LENGTH_MEASURE(25.4),#677);
#677=(
LENGTH_UNIT()
NAMED_UNIT(*)
SI_UNIT(.MILLI.,.METRE.)
);
ENDSEC;
END-ISO-10303-21;
