  0
SECTION
  2
HEADER
  9
$ACADVER
  1
AC1015
  9
$ACADMAINTVER
 70
     6
  9
$DWGCODEPAGE
  3
ANSI_1252
  9
$INSBASE
 10
0.0
 20
0.0
 30
0.0
  9
$EXTMIN
 10
-0.0003661829982491
 20
-0.0002746372486868
 30
-0.0015258207003583
  9
$EXTMAX
 10
7.432800315591507
 20
4.950439469365448
 30
0.0000000349246037
  9
$LIMMIN
 10
0.0
 20
0.0
  9
$LIMMAX
 10
12.0
 20
9.0
  9
$ORTHOMODE
 70
     0
  9
$REGENMODE
 70
     1
  9
$FILLMODE
 70
     1
  9
$QTEXTMODE
 70
     0
  9
$MIRRTEXT
 70
     1
  9
$LTSCALE
 40
1.0
  9
$ATTMODE
 70
     1
  9
$TEXTSIZE
 40
0.2
  9
$TRACEWID
 40
0.05
  9
$TEXTSTYLE
  7
STANDARD
  9
$CLAYER
  8
0
  9
$CELTYPE
  6
ByLayer
  9
$CECOLOR
 62
   256
  9
$CELTSCALE
 40
1.0
  9
$DISPSILH
 70
     0
  9
$DIMSCALE
 40
1.0
  9
$DIMASZ
 40
0.18
  9
$DIMEXO
 40
0.0625
  9
$DIMDLI
 40
0.38
  9
$DIMRND
 40
0.0
  9
$DIMDLE
 40
0.0
  9
$DIMEXE
 40
0.18
  9
$DIMTP
 40
0.0
  9
$DIMTM
 40
0.0
  9
$DIMTXT
 40
0.18
  9
$DIMCEN
 40
0.09
  9
$DIMTSZ
 40
0.0
  9
$DIMTOL
 70
     0
  9
$DIMLIM
 70
     0
  9
$DIMTIH
 70
     1
  9
$DIMTOH
 70
     1
  9
$DIMSE1
 70
     0
  9
$DIMSE2
 70
     0
  9
$DIMTAD
 70
     0
  9
$DIMZIN
 70
     0
  9
$DIMBLK
  1

  9
$DIMASO
 70
     1
  9
$DIMSHO
 70
     1
  9
$DIMPOST
  1

  9
$DIMAPOST
  1

  9
$DIMALT
 70
     0
  9
$DIMALTD
 70
     2
  9
$DIMALTF
 40
25.4
  9
$DIMLFAC
 40
1.0
  9
$DIMTOFL
 70
     0
  9
$DIMTVP
 40
0.0
  9
$DIMTIX
 70
     0
  9
$DIMSOXD
 70
     0
  9
$DIMSAH
 70
     0
  9
$DIMBLK1
  1

  9
$DIMBLK2
  1

  9
$DIMSTYLE
  2
Standard
  9
$DIMCLRD
 70
     0
  9
$DIMCLRE
 70
     0
  9
$DIMCLRT
 70
     0
  9
$DIMTFAC
 40
1.0
  9
$DIMGAP
 40
0.09
  9
$DIMJUST
 70
     0
  9
$DIMSD1
 70
     0
  9
$DIMSD2
 70
     0
  9
$DIMTOLJ
 70
     1
  9
$DIMTZIN
 70
     0
  9
$DIMALTZ
 70
     0
  9
$DIMALTTZ
 70
     0
  9
$DIMUPT
 70
     0
  9
$DIMDEC
 70
     4
  9
$DIMTDEC
 70
     4
  9
$DIMALTU
 70
     2
  9
$DIMALTTD
 70
     2
  9
$DIMTXSTY
  7
STANDARD
  9
$DIMAUNIT
 70
     0
  9
$DIMADEC
 70
     0
  9
$DIMALTRND
 40
0.0
  9
$DIMAZIN
 70
     0
  9
$DIMDSEP
 70
    46
  9
$DIMATFIT
 70
     3
  9
$DIMFRAC
 70
     0
  9
$DIMLDRBLK
  1

  9
$DIMLUNIT
 70
     2
  9
$DIMLWD
 70
    -2
  9
$DIMLWE
 70
    -2
  9
$DIMTMOVE
 70
     2
  9
$LUNITS
 70
     2
  9
$LUPREC
 70
     4
  9
$SKETCHINC
 40
0.1
  9
$FILLETRAD
 40
0.0
  9
$AUNITS
 70
     0
  9
$AUPREC
 70
     0
  9
$MENU
  1
acad
  9
$ELEVATION
 40
0.0
  9
$PELEVATION
 40
0.0
  9
$THICKNESS
 40
0.0
  9
$LIMCHECK
 70
     0
  9
$CHAMFERA
 40
0.0
  9
$CHAMFERB
 40
0.0
  9
$CHAMFERC
 40
0.0
  9
$CHAMFERD
 40
0.0
  9
$SKPOLY
 70
     0
  9
$TDCREATE
 40
2454273.622418981
  9
$TDUCREATE
 40
2454273.830752315
  9
$TDUPDATE
 40
2454273.635456481
  9
$TDUUPDATE
 40
2454273.843789815
  9
$TDINDWG
 40
0.0002237037
  9
$TDUSRTIMER
 40
0.0002237037
  9
$USRTIMER
 70
     1
  9
$ANGBASE
 50
0.0
  9
$ANGDIR
 70
     0
  9
$PDMODE
 70
     0
  9
$PDSIZE
 40
0.0
  9
$PLINEWID
 40
0.0
  9
$SPLFRAME
 70
     0
  9
$SPLINETYPE
 70
     6
  9
$SPLINESEGS
 70
     8
  9
$HANDSEED
  5
71B
  9
$SURFTAB1
 70
     6
  9
$SURFTAB2
 70
     6
  9
$SURFTYPE
 70
     6
  9
$SURFU
 70
     6
  9
$SURFV
 70
     6
  9
$UCSBASE
  2

  9
$UCSNAME
  2

  9
$UCSORG
 10
0.0
 20
0.0
 30
0.0
  9
$UCSXDIR
 10
1.0
 20
0.0
 30
0.0
  9
$UCSYDIR
 10
0.0
 20
1.0
 30
0.0
  9
$UCSORTHOREF
  2

  9
$UCSORTHOVIEW
 70
     0
  9
$UCSORGTOP
 10
0.0
 20
0.0
 30
0.0
  9
$UCSORGBOTTOM
 10
0.0
 20
0.0
 30
0.0
  9
$UCSORGLEFT
 10
0.0
 20
0.0
 30
0.0
  9
$UCSORGRIGHT
 10
0.0
 20
0.0
 30
0.0
  9
$UCSORGFRONT
 10
0.0
 20
0.0
 30
0.0
  9
$UCSORGBACK
 10
0.0
 20
0.0
 30
0.0
  9
$PUCSBASE
  2

  9
$PUCSNAME
  2

  9
$PUCSORG
 10
0.0
 20
0.0
 30
0.0
  9
$PUCSXDIR
 10
1.0
 20
0.0
 30
0.0
  9
$PUCSYDIR
 10
0.0
 20
1.0
 30
0.0
  9
$PUCSORTHOREF
  2

  9
$PUCSORTHOVIEW
 70
     0
  9
$PUCSORGTOP
 10
0.0
 20
0.0
 30
0.0
  9
$PUCSORGBOTTOM
 10
0.0
 20
0.0
 30
0.0
  9
$PUCSORGLEFT
 10
0.0
 20
0.0
 30
0.0
  9
$PUCSORGRIGHT
 10
0.0
 20
0.0
 30
0.0
  9
$PUCSORGFRONT
 10
0.0
 20
0.0
 30
0.0
  9
$PUCSORGBACK
 10
0.0
 20
0.0
 30
0.0
  9
$USERI1
 70
     0
  9
$USERI2
 70
     0
  9
$USERI3
 70
     0
  9
$USERI4
 70
     0
  9
$USERI5
 70
     0
  9
$USERR1
 40
0.0
  9
$USERR2
 40
0.0
  9
$USERR3
 40
0.0
  9
$USERR4
 40
0.0
  9
$USERR5
 40
0.0
  9
$WORLDVIEW
 70
     1
  9
$SHADEDGE
 70
     3
  9
$SHADEDIF
 70
    70
  9
$TILEMODE
 70
     1
  9
$MAXACTVP
 70
    16
  9
$PINSBASE
 10
0.0
 20
0.0
 30
0.0
  9
$PLIMCHECK
 70
     0
  9
$PEXTMIN
 10
1.000000000000000E+20
 20
1.000000000000000E+20
 30
1.000000000000000E+20
  9
$PEXTMAX
 10
-1.000000000000000E+20
 20
-1.000000000000000E+20
 30
-1.000000000000000E+20
  9
$PLIMMIN
 10
0.0
 20
0.0
  9
$PLIMMAX
 10
12.0
 20
9.0
  9
$UNITMODE
 70
     0
  9
$VISRETAIN
 70
     0
  9
$PLINEGEN
 70
     0
  9
$PSLTSCALE
 70
     1
  9
$TREEDEPTH
 70
  3020
  9
$CMLSTYLE
  2
Standard
  9
$CMLJUST
 70
     0
  9
$CMLSCALE
 40
1.0
  9
$PROXYGRAPHICS
 70
     1
  9
$MEASUREMENT
 70
     0
  9
$CELWEIGHT
370
    -1
  9
$ENDCAPS
280
     0
  9
$JOINSTYLE
280
     0
  9
$LWDISPLAY
290
     0
  9
$INSUNITS
 70
     0
  9
$HYPERLINKBASE
  1

  9
$STYLESHEET
  1

  9
$XEDIT
290
     1
  9
$CEPSNTYPE
380
     0
  9
$PSTYLEMODE
290
     1
  9
$FINGERPRINTGUID
  2
{4D92ABA8-0028-4AD5-A223-398F91F37742}
  9
$VERSIONGUID
  2
{AA42BD03-8E6C-4BCE-BE74-3D9E8F3993AA}
  9
$EXTNAMES
290
     1
  9
$PSVPSCALE
 40
0.0
  9
$OLESTARTUP
290
     0
  0
ENDSEC
  0
SECTION
  2
CLASSES
  0
CLASS
  1
ACDBDICTIONARYWDFLT
  2
AcDbDictionaryWithDefault
  3
AutoCAD 2000
 90
        0
280
     0
281
     0
  0
CLASS
  1
ACDBPLACEHOLDER
  2
AcDbPlaceHolder
  3
AutoCAD 2000
 90
        0
280
     0
281
     0
  0
CLASS
  1
LAYOUT
  2
AcDbLayout
  3
AutoCAD 2000
 90
        0
280
     0
281
     0
  0
ENDSEC
  0
SECTION
  2
TABLES
  0
TABLE
  2
VPORT
  5
8
330
0
100
AcDbSymbolTable
 70
     2
  0
VPORT
  5
71A
330
8
100
AcDbSymbolTableRecord
100
AcDbViewportTableRecord
  2
*Active
 70
     0
 10
0.0
 20
0.0
 11
1.0
 21
1.0
 12
3.716217066296628
 22
2.475082416058381
 13
0.0
 23
0.0
 14
1.0
 24
1.0
 15
0.0
 25
0.0
 16
0.0
 26
0.0
 36
1.0
 17
0.0
 27
0.0
 37
0.0
 40
4.989492546091531
 41
1.609150326797385
 42
50.0
 43
0.0
 44
0.0
 50
0.0
 51
0.0
 71
     0
 72
   100
 73
     1
 74
     1
 75
     0
 76
     0
 77
     0
 78
     0
281
     0
 65
     1
110
0.0
120
0.0
130
0.0
111
1.0
121
0.0
131
0.0
112
0.0
122
1.0
132
0.0
 79
     0
146
0.0
  0
ENDTAB
  0
TABLE
  2
LTYPE
  5
5
330
0
100
AcDbSymbolTable
 70
    25
  0
LTYPE
  5
13
330
5
100
AcDbSymbolTableRecord
100
AcDbLinetypeTableRecord
  2
ByBlock
 70
     0
  3

 72
    65
 73
     0
 40
0.0
  0
LTYPE
  5
14
330
5
100
AcDbSymbolTableRecord
100
AcDbLinetypeTableRecord
  2
ByLayer
 70
     0
  3

 72
    65
 73
     0
 40
0.0
  0
LTYPE
  5
15
330
5
100
AcDbSymbolTableRecord
100
AcDbLinetypeTableRecord
  2
CONTINUOUS
 70
     0
  3
Solid line
 72
    65
 73
     0
 40
0.0
  0
LTYPE
  5
22
330
5
100
AcDbSymbolTableRecord
100
AcDbLinetypeTableRecord
  2
BORDER
 70
     0
  3
__ __ . __ __ . __ __ . __ __ . __ __ . __ __ .
 72
    65
 73
     6
 40
1.75
 49
0.5
 74
     0
 49
-0.25
 74
     0
 49
0.5
 74
     0
 49
-0.25
 74
     0
 49
0.5
 74
     0
 49
-0.25
 74
     0
  0
LTYPE
  5
23
330
5
100
AcDbSymbolTableRecord
100
AcDbLinetypeTableRecord
  2
BORDER2
 70
     0
  3
__.__.__.__.__.__.__.__.
 72
    65
 73
     6
 40
0.875
 49
0.25
 74
     0
 49
-0.125
 74
     0
 49
0.25
 74
     0
 49
-0.125
 74
     0
 49
0.25
 74
     0
 49
-0.125
 74
     0
  0
LTYPE
  5
24
330
5
100
AcDbSymbolTableRecord
100
AcDbLinetypeTableRecord
  2
BORDERX2
 70
     0
  3
____  ____  .  
 72
    65
 73
     6
 40
3.5
 49
1.0
 74
     0
 49
-0.5
 74
     0
 49
1.0
 74
     0
 49
-0.5
 74
     0
 49
1.0
 74
     0
 49
-0.5
 74
     0
  0
LTYPE
  5
25
330
5
100
AcDbSymbolTableRecord
100
AcDbLinetypeTableRecord
  2
CENTER
 70
     0
  3
____ _ ____ _ ____ _ 
 72
    65
 73
     4
 40
2.0
 49
1.25
 74
     0
 49
-0.25
 74
     0
 49
0.25
 74
     0
 49
-0.25
 74
     0
  0
LTYPE
  5
26
330
5
100
AcDbSymbolTableRecord
100
AcDbLinetypeTableRecord
  2
CENTER2
 70
     0
  3
____ _ ____ _ ____ _ 
 72
    65
 73
     4
 40
1.125
 49
0.75
 74
     0
 49
-0.125
 74
     0
 49
0.125
 74
     0
 49
-0.125
 74
     0
  0
LTYPE
  5
27
330
5
100
AcDbSymbolTableRecord
100
AcDbLinetypeTableRecord
  2
CENTERX2
 70
     0
  3
________  __  
 72
    65
 73
     4
 40
4.0
 49
2.5
 74
     0
 49
-0.5
 74
     0
 49
0.5
 74
     0
 49
-0.5
 74
     0
  0
LTYPE
  5
28
330
5
100
AcDbSymbolTableRecord
100
AcDbLinetypeTableRecord
  2
DASHDOT
 70
     0
  3
__ . __ . __ . __ . 
 72
    65
 73
     4
 40
1.0
 49
0.5
 74
     0
 49
-0.25
 74
     0
 49
0.0
 74
     0
 49
-0.25
 74
     0
  0
LTYPE
  5
29
330
5
100
AcDbSymbolTableRecord
100
AcDbLinetypeTableRecord
  2
DASHDOT2
 70
     0
  3
_._._._._._._._._.
 72
    65
 73
     4
 40
0.5
 49
0.25
 74
     0
 49
-0.125
 74
     0
 49
0.0
 74
     0
 49
-0.125
 74
     0
  0
LTYPE
  5
2A
330
5
100
AcDbSymbolTableRecord
100
AcDbLinetypeTableRecord
  2
DASHDOTX2
 70
     0
  3
____  .  ____  .  
 72
    65
 73
     4
 40
2.0
 49
1.0
 74
     0
 49
-0.5
 74
     0
 49
0.0
 74
     0
 49
-0.5
 74
     0
  0
LTYPE
  5
2B
330
5
100
AcDbSymbolTableRecord
100
AcDbLinetypeTableRecord
  2
DASHED
 70
     0
  3
__ __ __ __ __ __ __ 
 72
    65
 73
     2
 40
0.75
 49
0.5
 74
     0
 49
-0.25
 74
     0
  0
LTYPE
  5
2C
330
5
100
AcDbSymbolTableRecord
100
AcDbLinetypeTableRecord
  2
DASHED2
 70
     0
  3
_ _ _ _ _ _ _ _ _ _ 
 72
    65
 73
     2
 40
0.375
 49
0.25
 74
     0
 49
-0.125
 74
     0
  0
LTYPE
  5
2D
330
5
100
AcDbSymbolTableRecord
100
AcDbLinetypeTableRecord
  2
DASHEDX2
 70
     0
  3
____  ____  ____  
 72
    65
 73
     2
 40
1.5
 49
1.0
 74
     0
 49
-0.5
 74
     0
  0
LTYPE
  5
2E
330
5
100
AcDbSymbolTableRecord
100
AcDbLinetypeTableRecord
  2
DIVIDE
 70
     0
  3
____ . . ____ . . 
 72
    65
 73
     6
 40
1.25
 49
0.5
 74
     0
 49
-0.25
 74
     0
 49
0.0
 74
     0
 49
-0.25
 74
     0
 49
0.0
 74
     0
 49
-0.25
 74
     0
  0
LTYPE
  5
2F
330
5
100
AcDbSymbolTableRecord
100
AcDbLinetypeTableRecord
  2
DIVIDE2
 70
     0
  3
__..__..__..__..__..
 72
    65
 73
     6
 40
0.625
 49
0.25
 74
     0
 49
-0.125
 74
     0
 49
0.0
 74
     0
 49
-0.125
 74
     0
 49
0.0
 74
     0
 49
-0.125
 74
     0
  0
LTYPE
  5
30
330
5
100
AcDbSymbolTableRecord
100
AcDbLinetypeTableRecord
  2
DIVIDEX2
 70
     0
  3
________  .  .  
 72
    65
 73
     6
 40
2.5
 49
1.0
 74
     0
 49
-0.5
 74
     0
 49
0.0
 74
     0
 49
-0.5
 74
     0
 49
0.0
 74
     0
 49
-0.5
 74
     0
  0
LTYPE
  5
31
330
5
100
AcDbSymbolTableRecord
100
AcDbLinetypeTableRecord
  2
DOT
 70
     0
  3
. . . . . . . . . 
 72
    65
 73
     2
 40
0.25
 49
0.0
 74
     0
 49
-0.25
 74
     0
  0
LTYPE
  5
32
330
5
100
AcDbSymbolTableRecord
100
AcDbLinetypeTableRecord
  2
DOT2
 70
     0
  3
..................
 72
    65
 73
     2
 40
0.125
 49
0.0
 74
     0
 49
-0.125
 74
     0
  0
LTYPE
  5
33
330
5
100
AcDbSymbolTableRecord
100
AcDbLinetypeTableRecord
  2
DOTX2
 70
     0
  3
.  .  .  .  .  .  
 72
    65
 73
     2
 40
0.5
 49
0.0
 74
     0
 49
-0.5
 74
     0
  0
LTYPE
  5
34
330
5
100
AcDbSymbolTableRecord
100
AcDbLinetypeTableRecord
  2
HIDDEN
 70
     0
  3
__ __ __ __ __ __ 
 72
    65
 73
     2
 40
0.375
 49
0.25
 74
     0
 49
-0.125
 74
     0
  0
LTYPE
  5
35
330
5
100
AcDbSymbolTableRecord
100
AcDbLinetypeTableRecord
  2
HIDDEN2
 70
     0
  3
_ _ _ _ _ _ _ _ _ 
 72
    65
 73
     2
 40
0.1875
 49
0.125
 74
     0
 49
-0.0625
 74
     0
  0
LTYPE
  5
36
330
5
100
AcDbSymbolTableRecord
100
AcDbLinetypeTableRecord
  2
HIDDENX2
 70
     0
  3
____ ____ ____ ____ 
 72
    65
 73
     2
 40
0.75
 49
0.5
 74
     0
 49
-0.25
 74
     0
  0
LTYPE
  5
37
330
5
100
AcDbSymbolTableRecord
100
AcDbLinetypeTableRecord
  2
PHANTOM
 70
     0
  3
______  __  __  
 72
    65
 73
     6
 40
2.5
 49
1.25
 74
     0
 49
-0.25
 74
     0
 49
0.25
 74
     0
 49
-0.25
 74
     0
 49
0.25
 74
     0
 49
-0.25
 74
     0
  0
LTYPE
  5
38
330
5
100
AcDbSymbolTableRecord
100
AcDbLinetypeTableRecord
  2
PHANTOM2
 70
     0
  3
___ _ _ ___ _ _ 
 72
    65
 73
     6
 40
1.25
 49
0.625
 74
     0
 49
-0.125
 74
     0
 49
0.125
 74
     0
 49
-0.125
 74
     0
 49
0.125
 74
     0
 49
-0.125
 74
     0
  0
LTYPE
  5
39
330
5
100
AcDbSymbolTableRecord
100
AcDbLinetypeTableRecord
  2
PHANTOMX2
 70
     0
  3
___ _ _ ___ _ _ 
 72
    65
 73
     6
 40
5.0
 49
2.5
 74
     0
 49
-0.5
 74
     0
 49
0.5
 74
     0
 49
-0.5
 74
     0
 49
0.5
 74
     0
 49
-0.5
 74
     0
  0
ENDTAB
  0
TABLE
  2
LAYER
  5
2
330
0
100
AcDbSymbolTable
 70
   256
  0
LAYER
  5
10
330
2
100
AcDbSymbolTableRecord
100
AcDbLayerTableRecord
  2
0
 70
     0
 62
     7
  6
CONTINUOUS
370
    -3
390
F
  0
LAYER
  5
3A
330
2
100
AcDbSymbolTableRecord
100
AcDbLayerTableRecord
  2
1
 70
     0
 62
     1
  6
CONTINUOUS
370
    -3
390
F
  0
LAYER
  5
3B
330
2
100
AcDbSymbolTableRecord
100
AcDbLayerTableRecord
  2
2
 70
     0
 62
     2
  6
CONTINUOUS
370
    -3
390
F
  0
LAYER
  5
3C
330
2
100
AcDbSymbolTableRecord
100
AcDbLayerTableRecord
  2
3
 70
     0
 62
     3
  6
CONTINUOUS
370
    -3
390
F
  0
LAYER
  5
3D
330
2
100
AcDbSymbolTableRecord
100
AcDbLayerTableRecord
  2
4
 70
     0
 62
     4
  6
CONTINUOUS
370
    -3
390
F
  0
LAYER
  5
3E
330
2
100
AcDbSymbolTableRecord
100
AcDbLayerTableRecord
  2
5
 70
     0
 62
     5
  6
CONTINUOUS
370
    -3
390
F
  0
LAYER
  5
3F
330
2
100
AcDbSymbolTableRecord
100
AcDbLayerTableRecord
  2
6
 70
     0
 62
     6
  6
CONTINUOUS
370
    -3
390
F
  0
LAYER
  5
40
330
2
100
AcDbSymbolTableRecord
100
AcDbLayerTableRecord
  2
7
 70
     0
 62
     7
  6
CONTINUOUS
370
    -3
390
F
  0
LAYER
  5
41
330
2
100
AcDbSymbolTableRecord
100
AcDbLayerTableRecord
  2
8
 70
     0
 62
     8
  6
CONTINUOUS
370
    -3
390
F
  0
LAYER
  5
42
330
2
100
AcDbSymbolTableRecord
100
AcDbLayerTableRecord
  2
9
 70
     0
 62
     9
  6
CONTINUOUS
370
    -3
390
F
  0
LAYER
  5
43
330
2
100
AcDbSymbolTableRecord
100
AcDbLayerTableRecord
  2
10
 70
     0
 62
    10
  6
CONTINUOUS
370
    -3
390
F
  0
LAYER
  5
44
330
2
100
AcDbSymbolTableRecord
100
AcDbLayerTableRecord
  2
11
 70
     0
 62
    11
  6
CONTINUOUS
370
    -3
390
F
  0
LAYER
  5
45
330
2
100
AcDbSymbolTableRecord
100
AcDbLayerTableRecord
  2
12
 70
     0
 62
    12
  6
CONTINUOUS
370
    -3
390
F
  0
LAYER
  5
46
330
2
100
AcDbSymbolTableRecord
100
AcDbLayerTableRecord
  2
13
 70
     0
 62
    13
  6
CONTINUOUS
370
    -3
390
F
  0
LAYER
  5
47
330
2
100
AcDbSymbolTableRecord
100
AcDbLayerTableRecord
  2
14
 70
     0
 62
    14
  6
CONTINUOUS
370
    -3
390
F
  0
LAYER
  5
48
330
2
100
AcDbSymbolTableRecord
100
AcDbLayerTableRecord
  2
15
 70
     0
 62
    15
  6
CONTINUOUS
370
    -3
390
F
  0
LAYER
  5
49
330
2
100
AcDbSymbolTableRecord
100
AcDbLayerTableRecord
  2
16
 70
     0
 62
    16
  6
CONTINUOUS
370
    -3
390
F
  0
LAYER
  5
4A
330
2
100
AcDbSymbolTableRecord
100
AcDbLayerTableRecord
  2
17
 70
     0
 62
    17
  6
CONTINUOUS
370
    -3
390
F
  0
LAYER
  5
4B
330
2
100
AcDbSymbolTableRecord
100
AcDbLayerTableRecord
  2
18
 70
     0
 62
    18
  6
CONTINUOUS
370
    -3
390
F
  0
LAYER
  5
4C
330
2
100
AcDbSymbolTableRecord
100
AcDbLayerTableRecord
  2
19
 70
     0
 62
    19
  6
CONTINUOUS
370
    -3
390
F
  0
LAYER
  5
4D
330
2
100
AcDbSymbolTableRecord
100
AcDbLayerTableRecord
  2
20
 70
     0
 62
    20
  6
CONTINUOUS
370
    -3
390
F
  0
LAYER
  5
4E
330
2
100
AcDbSymbolTableRecord
100
AcDbLayerTableRecord
  2
21
 70
     0
 62
    21
  6
CONTINUOUS
370
    -3
390
F
  0
LAYER
  5
4F
330
2
100
AcDbSymbolTableRecord
100
AcDbLayerTableRecord
  2
22
 70
     0
 62
    22
  6
CONTINUOUS
370
    -3
390
F
  0
LAYER
  5
50
330
2
100
AcDbSymbolTableRecord
100
AcDbLayerTableRecord
  2
23
 70
     0
 62
    23
  6
CONTINUOUS
370
    -3
390
F
  0
LAYER
  5
51
330
2
100
AcDbSymbolTableRecord
100
AcDbLayerTableRecord
  2
24
 70
     0
 62
    24
  6
CONTINUOUS
370
    -3
390
F
  0
LAYER
  5
52
330
2
100
AcDbSymbolTableRecord
100
AcDbLayerTableRecord
  2
25
 70
     0
 62
    25
  6
CONTINUOUS
370
    -3
390
F
  0
LAYER
  5
53
330
2
100
AcDbSymbolTableRecord
100
AcDbLayerTableRecord
  2
26
 70
     0
 62
    26
  6
CONTINUOUS
370
    -3
390
F
  0
LAYER
  5
54
330
2
100
AcDbSymbolTableRecord
100
AcDbLayerTableRecord
  2
27
 70
     0
 62
    27
  6
CONTINUOUS
370
    -3
390
F
  0
LAYER
  5
55
330
2
100
AcDbSymbolTableRecord
100
AcDbLayerTableRecord
  2
28
 70
     0
 62
    28
  6
CONTINUOUS
370
    -3
390
F
  0
LAYER
  5
56
330
2
100
AcDbSymbolTableRecord
100
AcDbLayerTableRecord
  2
29
 70
     0
 62
    29
  6
CONTINUOUS
370
    -3
390
F
  0
LAYER
  5
57
330
2
100
AcDbSymbolTableRecord
100
AcDbLayerTableRecord
  2
30
 70
     0
 62
    30
  6
CONTINUOUS
370
    -3
390
F
  0
LAYER
  5
58
330
2
100
AcDbSymbolTableRecord
100
AcDbLayerTableRecord
  2
31
 70
     0
 62
    31
  6
CONTINUOUS
370
    -3
390
F
  0
LAYER
  5
59
330
2
100
AcDbSymbolTableRecord
100
AcDbLayerTableRecord
  2
32
 70
     0
 62
    32
  6
CONTINUOUS
370
    -3
390
F
  0
LAYER
  5
5A
330
2
100
AcDbSymbolTableRecord
100
AcDbLayerTableRecord
  2
33
 70
     0
 62
    33
  6
CONTINUOUS
370
    -3
390
F
  0
LAYER
  5
5B
330
2
100
AcDbSymbolTableRecord
100
AcDbLayerTableRecord
  2
34
 70
     0
 62
    34
  6
CONTINUOUS
370
    -3
390
F
  0
LAYER
  5
5C
330
2
100
AcDbSymbolTableRecord
100
AcDbLayerTableRecord
  2
35
 70
     0
 62
    35
  6
CONTINUOUS
370
    -3
390
F
  0
LAYER
  5
5D
330
2
100
AcDbSymbolTableRecord
100
AcDbLayerTableRecord
  2
36
 70
     0
 62
    36
  6
CONTINUOUS
370
    -3
390
F
  0
LAYER
  5
5E
330
2
100
AcDbSymbolTableRecord
100
AcDbLayerTableRecord
  2
37
 70
     0
 62
    37
  6
CONTINUOUS
370
    -3
390
F
  0
LAYER
  5
5F
330
2
100
AcDbSymbolTableRecord
100
AcDbLayerTableRecord
  2
38
 70
     0
 62
    38
  6
CONTINUOUS
370
    -3
390
F
  0
LAYER
  5
60
330
2
100
AcDbSymbolTableRecord
100
AcDbLayerTableRecord
  2
39
 70
     0
 62
    39
  6
CONTINUOUS
370
    -3
390
F
  0
LAYER
  5
61
330
2
100
AcDbSymbolTableRecord
100
AcDbLayerTableRecord
  2
40
 70
     0
 62
    40
  6
CONTINUOUS
370
    -3
390
F
  0
LAYER
  5
62
330
2
100
AcDbSymbolTableRecord
100
AcDbLayerTableRecord
  2
41
 70
     0
 62
    41
  6
CONTINUOUS
370
    -3
390
F
  0
LAYER
  5
63
330
2
100
AcDbSymbolTableRecord
100
AcDbLayerTableRecord
  2
42
 70
     0
 62
    42
  6
CONTINUOUS
370
    -3
390
F
  0
LAYER
  5
64
330
2
100
AcDbSymbolTableRecord
100
AcDbLayerTableRecord
  2
43
 70
     0
 62
    43
  6
CONTINUOUS
370
    -3
390
F
  0
LAYER
  5
65
330
2
100
AcDbSymbolTableRecord
100
AcDbLayerTableRecord
  2
44
 70
     0
 62
    44
  6
CONTINUOUS
370
    -3
390
F
  0
LAYER
  5
66
330
2
100
AcDbSymbolTableRecord
100
AcDbLayerTableRecord
  2
45
 70
     0
 62
    45
  6
CONTINUOUS
370
    -3
390
F
  0
LAYER
  5
67
330
2
100
AcDbSymbolTableRecord
100
AcDbLayerTableRecord
  2
46
 70
     0
 62
    46
  6
CONTINUOUS
370
    -3
390
F
  0
LAYER
  5
68
330
2
100
AcDbSymbolTableRecord
100
AcDbLayerTableRecord
  2
47
 70
     0
 62
    47
  6
CONTINUOUS
370
    -3
390
F
  0
LAYER
  5
69
330
2
100
AcDbSymbolTableRecord
100
AcDbLayerTableRecord
  2
48
 70
     0
 62
    48
  6
CONTINUOUS
370
    -3
390
F
  0
LAYER
  5
6A
330
2
100
AcDbSymbolTableRecord
100
AcDbLayerTableRecord
  2
49
 70
     0
 62
    49
  6
CONTINUOUS
370
    -3
390
F
  0
LAYER
  5
6B
330
2
100
AcDbSymbolTableRecord
100
AcDbLayerTableRecord
  2
50
 70
     0
 62
    50
  6
CONTINUOUS
370
    -3
390
F
  0
LAYER
  5
6C
330
2
100
AcDbSymbolTableRecord
100
AcDbLayerTableRecord
  2
51
 70
     0
 62
    51
  6
CONTINUOUS
370
    -3
390
F
  0
LAYER
  5
6D
330
2
100
AcDbSymbolTableRecord
100
AcDbLayerTableRecord
  2
52
 70
     0
 62
    52
  6
CONTINUOUS
370
    -3
390
F
  0
LAYER
  5
6E
330
2
100
AcDbSymbolTableRecord
100
AcDbLayerTableRecord
  2
53
 70
     0
 62
    53
  6
CONTINUOUS
370
    -3
390
F
  0
LAYER
  5
6F
330
2
100
AcDbSymbolTableRecord
100
AcDbLayerTableRecord
  2
54
 70
     0
 62
    54
  6
CONTINUOUS
370
    -3
390
F
  0
LAYER
  5
70
330
2
100
AcDbSymbolTableRecord
100
AcDbLayerTableRecord
  2
55
 70
     0
 62
    55
  6
CONTINUOUS
370
    -3
390
F
  0
LAYER
  5
71
330
2
100
AcDbSymbolTableRecord
100
AcDbLayerTableRecord
  2
56
 70
     0
 62
    56
  6
CONTINUOUS
370
    -3
390
F
  0
LAYER
  5
72
330
2
100
AcDbSymbolTableRecord
100
AcDbLayerTableRecord
  2
57
 70
     0
 62
    57
  6
CONTINUOUS
370
    -3
390
F
  0
LAYER
  5
73
330
2
100
AcDbSymbolTableRecord
100
AcDbLayerTableRecord
  2
58
 70
     0
 62
    58
  6
CONTINUOUS
370
    -3
390
F
  0
LAYER
  5
74
330
2
100
AcDbSymbolTableRecord
100
AcDbLayerTableRecord
  2
59
 70
     0
 62
    59
  6
CONTINUOUS
370
    -3
390
F
  0
LAYER
  5
75
330
2
100
AcDbSymbolTableRecord
100
AcDbLayerTableRecord
  2
60
 70
     0
 62
    60
  6
CONTINUOUS
370
    -3
390
F
  0
LAYER
  5
76
330
2
100
AcDbSymbolTableRecord
100
AcDbLayerTableRecord
  2
61
 70
     0
 62
    61
  6
CONTINUOUS
370
    -3
390
F
  0
LAYER
  5
77
330
2
100
AcDbSymbolTableRecord
100
AcDbLayerTableRecord
  2
62
 70
     0
 62
    62
  6
CONTINUOUS
370
    -3
390
F
  0
LAYER
  5
78
330
2
100
AcDbSymbolTableRecord
100
AcDbLayerTableRecord
  2
63
 70
     0
 62
    63
  6
CONTINUOUS
370
    -3
390
F
  0
LAYER
  5
79
330
2
100
AcDbSymbolTableRecord
100
AcDbLayerTableRecord
  2
64
 70
     0
 62
    64
  6
CONTINUOUS
370
    -3
390
F
  0
LAYER
  5
7A
330
2
100
AcDbSymbolTableRecord
100
AcDbLayerTableRecord
  2
65
 70
     0
 62
    65
  6
CONTINUOUS
370
    -3
390
F
  0
LAYER
  5
7B
330
2
100
AcDbSymbolTableRecord
100
AcDbLayerTableRecord
  2
66
 70
     0
 62
    66
  6
CONTINUOUS
370
    -3
390
F
  0
LAYER
  5
7C
330
2
100
AcDbSymbolTableRecord
100
AcDbLayerTableRecord
  2
67
 70
     0
 62
    67
  6
CONTINUOUS
370
    -3
390
F
  0
LAYER
  5
7D
330
2
100
AcDbSymbolTableRecord
100
AcDbLayerTableRecord
  2
68
 70
     0
 62
    68
  6
CONTINUOUS
370
    -3
390
F
  0
LAYER
  5
7E
330
2
100
AcDbSymbolTableRecord
100
AcDbLayerTableRecord
  2
69
 70
     0
 62
    69
  6
CONTINUOUS
370
    -3
390
F
  0
LAYER
  5
7F
330
2
100
AcDbSymbolTableRecord
100
AcDbLayerTableRecord
  2
70
 70
     0
 62
    70
  6
CONTINUOUS
370
    -3
390
F
  0
LAYER
  5
80
330
2
100
AcDbSymbolTableRecord
100
AcDbLayerTableRecord
  2
71
 70
     0
 62
    71
  6
CONTINUOUS
370
    -3
390
F
  0
LAYER
  5
81
330
2
100
AcDbSymbolTableRecord
100
AcDbLayerTableRecord
  2
72
 70
     0
 62
    72
  6
CONTINUOUS
370
    -3
390
F
  0
LAYER
  5
82
330
2
100
AcDbSymbolTableRecord
100
AcDbLayerTableRecord
  2
73
 70
     0
 62
    73
  6
CONTINUOUS
370
    -3
390
F
  0
LAYER
  5
83
330
2
100
AcDbSymbolTableRecord
100
AcDbLayerTableRecord
  2
74
 70
     0
 62
    74
  6
CONTINUOUS
370
    -3
390
F
  0
LAYER
  5
84
330
2
100
AcDbSymbolTableRecord
100
AcDbLayerTableRecord
  2
75
 70
     0
 62
    75
  6
CONTINUOUS
370
    -3
390
F
  0
LAYER
  5
85
330
2
100
AcDbSymbolTableRecord
100
AcDbLayerTableRecord
  2
76
 70
     0
 62
    76
  6
CONTINUOUS
370
    -3
390
F
  0
LAYER
  5
86
330
2
100
AcDbSymbolTableRecord
100
AcDbLayerTableRecord
  2
77
 70
     0
 62
    77
  6
CONTINUOUS
370
    -3
390
F
  0
LAYER
  5
87
330
2
100
AcDbSymbolTableRecord
100
AcDbLayerTableRecord
  2
78
 70
     0
 62
    78
  6
CONTINUOUS
370
    -3
390
F
  0
LAYER
  5
88
330
2
100
AcDbSymbolTableRecord
100
AcDbLayerTableRecord
  2
79
 70
     0
 62
    79
  6
CONTINUOUS
370
    -3
390
F
  0
LAYER
  5
89
330
2
100
AcDbSymbolTableRecord
100
AcDbLayerTableRecord
  2
80
 70
     0
 62
    80
  6
CONTINUOUS
370
    -3
390
F
  0
LAYER
  5
8A
330
2
100
AcDbSymbolTableRecord
100
AcDbLayerTableRecord
  2
81
 70
     0
 62
    81
  6
CONTINUOUS
370
    -3
390
F
  0
LAYER
  5
8B
330
2
100
AcDbSymbolTableRecord
100
AcDbLayerTableRecord
  2
82
 70
     0
 62
    82
  6
CONTINUOUS
370
    -3
390
F
  0
LAYER
  5
8C
330
2
100
AcDbSymbolTableRecord
100
AcDbLayerTableRecord
  2
83
 70
     0
 62
    83
  6
CONTINUOUS
370
    -3
390
F
  0
LAYER
  5
8D
330
2
100
AcDbSymbolTableRecord
100
AcDbLayerTableRecord
  2
84
 70
     0
 62
    84
  6
CONTINUOUS
370
    -3
390
F
  0
LAYER
  5
8E
330
2
100
AcDbSymbolTableRecord
100
AcDbLayerTableRecord
  2
85
 70
     0
 62
    85
  6
CONTINUOUS
370
    -3
390
F
  0
LAYER
  5
8F
330
2
100
AcDbSymbolTableRecord
100
AcDbLayerTableRecord
  2
86
 70
     0
 62
    86
  6
CONTINUOUS
370
    -3
390
F
  0
LAYER
  5
90
330
2
100
AcDbSymbolTableRecord
100
AcDbLayerTableRecord
  2
87
 70
     0
 62
    87
  6
CONTINUOUS
370
    -3
390
F
  0
LAYER
  5
91
330
2
100
AcDbSymbolTableRecord
100
AcDbLayerTableRecord
  2
88
 70
     0
 62
    88
  6
CONTINUOUS
370
    -3
390
F
  0
LAYER
  5
92
330
2
100
AcDbSymbolTableRecord
100
AcDbLayerTableRecord
  2
89
 70
     0
 62
    89
  6
CONTINUOUS
370
    -3
390
F
  0
LAYER
  5
93
330
2
100
AcDbSymbolTableRecord
100
AcDbLayerTableRecord
  2
90
 70
     0
 62
    90
  6
CONTINUOUS
370
    -3
390
F
  0
LAYER
  5
94
330
2
100
AcDbSymbolTableRecord
100
AcDbLayerTableRecord
  2
91
 70
     0
 62
    91
  6
CONTINUOUS
370
    -3
390
F
  0
LAYER
  5
95
330
2
100
AcDbSymbolTableRecord
100
AcDbLayerTableRecord
  2
92
 70
     0
 62
    92
  6
CONTINUOUS
370
    -3
390
F
  0
LAYER
  5
96
330
2
100
AcDbSymbolTableRecord
100
AcDbLayerTableRecord
  2
93
 70
     0
 62
    93
  6
CONTINUOUS
370
    -3
390
F
  0
LAYER
  5
97
330
2
100
AcDbSymbolTableRecord
100
AcDbLayerTableRecord
  2
94
 70
     0
 62
    94
  6
CONTINUOUS
370
    -3
390
F
  0
LAYER
  5
98
330
2
100
AcDbSymbolTableRecord
100
AcDbLayerTableRecord
  2
95
 70
     0
 62
    95
  6
CONTINUOUS
370
    -3
390
F
  0
LAYER
  5
99
330
2
100
AcDbSymbolTableRecord
100
AcDbLayerTableRecord
  2
96
 70
     0
 62
    96
  6
CONTINUOUS
370
    -3
390
F
  0
LAYER
  5
9A
330
2
100
AcDbSymbolTableRecord
100
AcDbLayerTableRecord
  2
97
 70
     0
 62
    97
  6
CONTINUOUS
370
    -3
390
F
  0
LAYER
  5
9B
330
2
100
AcDbSymbolTableRecord
100
AcDbLayerTableRecord
  2
98
 70
     0
 62
    98
  6
CONTINUOUS
370
    -3
390
F
  0
LAYER
  5
9C
330
2
100
AcDbSymbolTableRecord
100
AcDbLayerTableRecord
  2
99
 70
     0
 62
    99
  6
CONTINUOUS
370
    -3
390
F
  0
LAYER
  5
9D
330
2
100
AcDbSymbolTableRecord
100
AcDbLayerTableRecord
  2
100
 70
     0
 62
   100
  6
CONTINUOUS
370
    -3
390
F
  0
LAYER
  5
9E
330
2
100
AcDbSymbolTableRecord
100
AcDbLayerTableRecord
  2
101
 70
     0
 62
   101
  6
CONTINUOUS
370
    -3
390
F
  0
LAYER
  5
9F
330
2
100
AcDbSymbolTableRecord
100
AcDbLayerTableRecord
  2
102
 70
     0
 62
   102
  6
CONTINUOUS
370
    -3
390
F
  0
LAYER
  5
A0
330
2
100
AcDbSymbolTableRecord
100
AcDbLayerTableRecord
  2
103
 70
     0
 62
   103
  6
CONTINUOUS
370
    -3
390
F
  0
LAYER
  5
A1
330
2
100
AcDbSymbolTableRecord
100
AcDbLayerTableRecord
  2
104
 70
     0
 62
   104
  6
CONTINUOUS
370
    -3
390
F
  0
LAYER
  5
A2
330
2
100
AcDbSymbolTableRecord
100
AcDbLayerTableRecord
  2
105
 70
     0
 62
   105
  6
CONTINUOUS
370
    -3
390
F
  0
LAYER
  5
A3
330
2
100
AcDbSymbolTableRecord
100
AcDbLayerTableRecord
  2
106
 70
     0
 62
   106
  6
CONTINUOUS
370
    -3
390
F
  0
LAYER
  5
A4
330
2
100
AcDbSymbolTableRecord
100
AcDbLayerTableRecord
  2
107
 70
     0
 62
   107
  6
CONTINUOUS
370
    -3
390
F
  0
LAYER
  5
A5
330
2
100
AcDbSymbolTableRecord
100
AcDbLayerTableRecord
  2
108
 70
     0
 62
   108
  6
CONTINUOUS
370
    -3
390
F
  0
LAYER
  5
A6
330
2
100
AcDbSymbolTableRecord
100
AcDbLayerTableRecord
  2
109
 70
     0
 62
   109
  6
CONTINUOUS
370
    -3
390
F
  0
LAYER
  5
A7
330
2
100
AcDbSymbolTableRecord
100
AcDbLayerTableRecord
  2
110
 70
     0
 62
   110
  6
CONTINUOUS
370
    -3
390
F
  0
LAYER
  5
A8
330
2
100
AcDbSymbolTableRecord
100
AcDbLayerTableRecord
  2
111
 70
     0
 62
   111
  6
CONTINUOUS
370
    -3
390
F
  0
LAYER
  5
A9
330
2
100
AcDbSymbolTableRecord
100
AcDbLayerTableRecord
  2
112
 70
     0
 62
   112
  6
CONTINUOUS
370
    -3
390
F
  0
LAYER
  5
AA
330
2
100
AcDbSymbolTableRecord
100
AcDbLayerTableRecord
  2
113
 70
     0
 62
   113
  6
CONTINUOUS
370
    -3
390
F
  0
LAYER
  5
AB
330
2
100
AcDbSymbolTableRecord
100
AcDbLayerTableRecord
  2
114
 70
     0
 62
   114
  6
CONTINUOUS
370
    -3
390
F
  0
LAYER
  5
AC
330
2
100
AcDbSymbolTableRecord
100
AcDbLayerTableRecord
  2
115
 70
     0
 62
   115
  6
CONTINUOUS
370
    -3
390
F
  0
LAYER
  5
AD
330
2
100
AcDbSymbolTableRecord
100
AcDbLayerTableRecord
  2
116
 70
     0
 62
   116
  6
CONTINUOUS
370
    -3
390
F
  0
LAYER
  5
AE
330
2
100
AcDbSymbolTableRecord
100
AcDbLayerTableRecord
  2
117
 70
     0
 62
   117
  6
CONTINUOUS
370
    -3
390
F
  0
LAYER
  5
AF
330
2
100
AcDbSymbolTableRecord
100
AcDbLayerTableRecord
  2
118
 70
     0
 62
   118
  6
CONTINUOUS
370
    -3
390
F
  0
LAYER
  5
B0
330
2
100
AcDbSymbolTableRecord
100
AcDbLayerTableRecord
  2
119
 70
     0
 62
   119
  6
CONTINUOUS
370
    -3
390
F
  0
LAYER
  5
B1
330
2
100
AcDbSymbolTableRecord
100
AcDbLayerTableRecord
  2
120
 70
     0
 62
   120
  6
CONTINUOUS
370
    -3
390
F
  0
LAYER
  5
B2
330
2
100
AcDbSymbolTableRecord
100
AcDbLayerTableRecord
  2
121
 70
     0
 62
   121
  6
CONTINUOUS
370
    -3
390
F
  0
LAYER
  5
B3
330
2
100
AcDbSymbolTableRecord
100
AcDbLayerTableRecord
  2
122
 70
     0
 62
   122
  6
CONTINUOUS
370
    -3
390
F
  0
LAYER
  5
B4
330
2
100
AcDbSymbolTableRecord
100
AcDbLayerTableRecord
  2
123
 70
     0
 62
   123
  6
CONTINUOUS
370
    -3
390
F
  0
LAYER
  5
B5
330
2
100
AcDbSymbolTableRecord
100
AcDbLayerTableRecord
  2
124
 70
     0
 62
   124
  6
CONTINUOUS
370
    -3
390
F
  0
LAYER
  5
B6
330
2
100
AcDbSymbolTableRecord
100
AcDbLayerTableRecord
  2
125
 70
     0
 62
   125
  6
CONTINUOUS
370
    -3
390
F
  0
LAYER
  5
B7
330
2
100
AcDbSymbolTableRecord
100
AcDbLayerTableRecord
  2
126
 70
     0
 62
   126
  6
CONTINUOUS
370
    -3
390
F
  0
LAYER
  5
B8
330
2
100
AcDbSymbolTableRecord
100
AcDbLayerTableRecord
  2
127
 70
     0
 62
   127
  6
CONTINUOUS
370
    -3
390
F
  0
LAYER
  5
B9
330
2
100
AcDbSymbolTableRecord
100
AcDbLayerTableRecord
  2
128
 70
     0
 62
   128
  6
CONTINUOUS
370
    -3
390
F
  0
LAYER
  5
BA
330
2
100
AcDbSymbolTableRecord
100
AcDbLayerTableRecord
  2
129
 70
     0
 62
   129
  6
CONTINUOUS
370
    -3
390
F
  0
LAYER
  5
BB
330
2
100
AcDbSymbolTableRecord
100
AcDbLayerTableRecord
  2
130
 70
     0
 62
   130
  6
CONTINUOUS
370
    -3
390
F
  0
LAYER
  5
BC
330
2
100
AcDbSymbolTableRecord
100
AcDbLayerTableRecord
  2
131
 70
     0
 62
   131
  6
CONTINUOUS
370
    -3
390
F
  0
LAYER
  5
BD
330
2
100
AcDbSymbolTableRecord
100
AcDbLayerTableRecord
  2
132
 70
     0
 62
   132
  6
CONTINUOUS
370
    -3
390
F
  0
LAYER
  5
BE
330
2
100
AcDbSymbolTableRecord
100
AcDbLayerTableRecord
  2
133
 70
     0
 62
   133
  6
CONTINUOUS
370
    -3
390
F
  0
LAYER
  5
BF
330
2
100
AcDbSymbolTableRecord
100
AcDbLayerTableRecord
  2
134
 70
     0
 62
   134
  6
CONTINUOUS
370
    -3
390
F
  0
LAYER
  5
C0
330
2
100
AcDbSymbolTableRecord
100
AcDbLayerTableRecord
  2
135
 70
     0
 62
   135
  6
CONTINUOUS
370
    -3
390
F
  0
LAYER
  5
C1
330
2
100
AcDbSymbolTableRecord
100
AcDbLayerTableRecord
  2
136
 70
     0
 62
   136
  6
CONTINUOUS
370
    -3
390
F
  0
LAYER
  5
C2
330
2
100
AcDbSymbolTableRecord
100
AcDbLayerTableRecord
  2
137
 70
     0
 62
   137
  6
CONTINUOUS
370
    -3
390
F
  0
LAYER
  5
C3
330
2
100
AcDbSymbolTableRecord
100
AcDbLayerTableRecord
  2
138
 70
     0
 62
   138
  6
CONTINUOUS
370
    -3
390
F
  0
LAYER
  5
C4
330
2
100
AcDbSymbolTableRecord
100
AcDbLayerTableRecord
  2
139
 70
     0
 62
   139
  6
CONTINUOUS
370
    -3
390
F
  0
LAYER
  5
C5
330
2
100
AcDbSymbolTableRecord
100
AcDbLayerTableRecord
  2
140
 70
     0
 62
   140
  6
CONTINUOUS
370
    -3
390
F
  0
LAYER
  5
C6
330
2
100
AcDbSymbolTableRecord
100
AcDbLayerTableRecord
  2
141
 70
     0
 62
   141
  6
CONTINUOUS
370
    -3
390
F
  0
LAYER
  5
C7
330
2
100
AcDbSymbolTableRecord
100
AcDbLayerTableRecord
  2
142
 70
     0
 62
   142
  6
CONTINUOUS
370
    -3
390
F
  0
LAYER
  5
C8
330
2
100
AcDbSymbolTableRecord
100
AcDbLayerTableRecord
  2
143
 70
     0
 62
   143
  6
CONTINUOUS
370
    -3
390
F
  0
LAYER
  5
C9
330
2
100
AcDbSymbolTableRecord
100
AcDbLayerTableRecord
  2
144
 70
     0
 62
   144
  6
CONTINUOUS
370
    -3
390
F
  0
LAYER
  5
CA
330
2
100
AcDbSymbolTableRecord
100
AcDbLayerTableRecord
  2
145
 70
     0
 62
   145
  6
CONTINUOUS
370
    -3
390
F
  0
LAYER
  5
CB
330
2
100
AcDbSymbolTableRecord
100
AcDbLayerTableRecord
  2
146
 70
     0
 62
   146
  6
CONTINUOUS
370
    -3
390
F
  0
LAYER
  5
CC
330
2
100
AcDbSymbolTableRecord
100
AcDbLayerTableRecord
  2
147
 70
     0
 62
   147
  6
CONTINUOUS
370
    -3
390
F
  0
LAYER
  5
CD
330
2
100
AcDbSymbolTableRecord
100
AcDbLayerTableRecord
  2
148
 70
     0
 62
   148
  6
CONTINUOUS
370
    -3
390
F
  0
LAYER
  5
CE
330
2
100
AcDbSymbolTableRecord
100
AcDbLayerTableRecord
  2
149
 70
     0
 62
   149
  6
CONTINUOUS
370
    -3
390
F
  0
LAYER
  5
CF
330
2
100
AcDbSymbolTableRecord
100
AcDbLayerTableRecord
  2
150
 70
     0
 62
   150
  6
CONTINUOUS
370
    -3
390
F
  0
LAYER
  5
D0
330
2
100
AcDbSymbolTableRecord
100
AcDbLayerTableRecord
  2
151
 70
     0
 62
   151
  6
CONTINUOUS
370
    -3
390
F
  0
LAYER
  5
D1
330
2
100
AcDbSymbolTableRecord
100
AcDbLayerTableRecord
  2
152
 70
     0
 62
   152
  6
CONTINUOUS
370
    -3
390
F
  0
LAYER
  5
D2
330
2
100
AcDbSymbolTableRecord
100
AcDbLayerTableRecord
  2
153
 70
     0
 62
   153
  6
CONTINUOUS
370
    -3
390
F
  0
LAYER
  5
D3
330
2
100
AcDbSymbolTableRecord
100
AcDbLayerTableRecord
  2
154
 70
     0
 62
   154
  6
CONTINUOUS
370
    -3
390
F
  0
LAYER
  5
D4
330
2
100
AcDbSymbolTableRecord
100
AcDbLayerTableRecord
  2
155
 70
     0
 62
   155
  6
CONTINUOUS
370
    -3
390
F
  0
LAYER
  5
D5
330
2
100
AcDbSymbolTableRecord
100
AcDbLayerTableRecord
  2
156
 70
     0
 62
   156
  6
CONTINUOUS
370
    -3
390
F
  0
LAYER
  5
D6
330
2
100
AcDbSymbolTableRecord
100
AcDbLayerTableRecord
  2
157
 70
     0
 62
   157
  6
CONTINUOUS
370
    -3
390
F
  0
LAYER
  5
D7
330
2
100
AcDbSymbolTableRecord
100
AcDbLayerTableRecord
  2
158
 70
     0
 62
   158
  6
CONTINUOUS
370
    -3
390
F
  0
LAYER
  5
D8
330
2
100
AcDbSymbolTableRecord
100
AcDbLayerTableRecord
  2
159
 70
     0
 62
   159
  6
CONTINUOUS
370
    -3
390
F
  0
LAYER
  5
D9
330
2
100
AcDbSymbolTableRecord
100
AcDbLayerTableRecord
  2
160
 70
     0
 62
   160
  6
CONTINUOUS
370
    -3
390
F
  0
LAYER
  5
DA
330
2
100
AcDbSymbolTableRecord
100
AcDbLayerTableRecord
  2
161
 70
     0
 62
   161
  6
CONTINUOUS
370
    -3
390
F
  0
LAYER
  5
DB
330
2
100
AcDbSymbolTableRecord
100
AcDbLayerTableRecord
  2
162
 70
     0
 62
   162
  6
CONTINUOUS
370
    -3
390
F
  0
LAYER
  5
DC
330
2
100
AcDbSymbolTableRecord
100
AcDbLayerTableRecord
  2
163
 70
     0
 62
   163
  6
CONTINUOUS
370
    -3
390
F
  0
LAYER
  5
DD
330
2
100
AcDbSymbolTableRecord
100
AcDbLayerTableRecord
  2
164
 70
     0
 62
   164
  6
CONTINUOUS
370
    -3
390
F
  0
LAYER
  5
DE
330
2
100
AcDbSymbolTableRecord
100
AcDbLayerTableRecord
  2
165
 70
     0
 62
   165
  6
CONTINUOUS
370
    -3
390
F
  0
LAYER
  5
DF
330
2
100
AcDbSymbolTableRecord
100
AcDbLayerTableRecord
  2
166
 70
     0
 62
   166
  6
CONTINUOUS
370
    -3
390
F
  0
LAYER
  5
E0
330
2
100
AcDbSymbolTableRecord
100
AcDbLayerTableRecord
  2
167
 70
     0
 62
   167
  6
CONTINUOUS
370
    -3
390
F
  0
LAYER
  5
E1
330
2
100
AcDbSymbolTableRecord
100
AcDbLayerTableRecord
  2
168
 70
     0
 62
   168
  6
CONTINUOUS
370
    -3
390
F
  0
LAYER
  5
E2
330
2
100
AcDbSymbolTableRecord
100
AcDbLayerTableRecord
  2
169
 70
     0
 62
   169
  6
CONTINUOUS
370
    -3
390
F
  0
LAYER
  5
E3
330
2
100
AcDbSymbolTableRecord
100
AcDbLayerTableRecord
  2
170
 70
     0
 62
   170
  6
CONTINUOUS
370
    -3
390
F
  0
LAYER
  5
E4
330
2
100
AcDbSymbolTableRecord
100
AcDbLayerTableRecord
  2
171
 70
     0
 62
   171
  6
CONTINUOUS
370
    -3
390
F
  0
LAYER
  5
E5
330
2
100
AcDbSymbolTableRecord
100
AcDbLayerTableRecord
  2
172
 70
     0
 62
   172
  6
CONTINUOUS
370
    -3
390
F
  0
LAYER
  5
E6
330
2
100
AcDbSymbolTableRecord
100
AcDbLayerTableRecord
  2
173
 70
     0
 62
   173
  6
CONTINUOUS
370
    -3
390
F
  0
LAYER
  5
E7
330
2
100
AcDbSymbolTableRecord
100
AcDbLayerTableRecord
  2
174
 70
     0
 62
   174
  6
CONTINUOUS
370
    -3
390
F
  0
LAYER
  5
E8
330
2
100
AcDbSymbolTableRecord
100
AcDbLayerTableRecord
  2
175
 70
     0
 62
   175
  6
CONTINUOUS
370
    -3
390
F
  0
LAYER
  5
E9
330
2
100
AcDbSymbolTableRecord
100
AcDbLayerTableRecord
  2
176
 70
     0
 62
   176
  6
CONTINUOUS
370
    -3
390
F
  0
LAYER
  5
EA
330
2
100
AcDbSymbolTableRecord
100
AcDbLayerTableRecord
  2
177
 70
     0
 62
   177
  6
CONTINUOUS
370
    -3
390
F
  0
LAYER
  5
EB
330
2
100
AcDbSymbolTableRecord
100
AcDbLayerTableRecord
  2
178
 70
     0
 62
   178
  6
CONTINUOUS
370
    -3
390
F
  0
LAYER
  5
EC
330
2
100
AcDbSymbolTableRecord
100
AcDbLayerTableRecord
  2
179
 70
     0
 62
   179
  6
CONTINUOUS
370
    -3
390
F
  0
LAYER
  5
ED
330
2
100
AcDbSymbolTableRecord
100
AcDbLayerTableRecord
  2
180
 70
     0
 62
   180
  6
CONTINUOUS
370
    -3
390
F
  0
LAYER
  5
EE
330
2
100
AcDbSymbolTableRecord
100
AcDbLayerTableRecord
  2
181
 70
     0
 62
   181
  6
CONTINUOUS
370
    -3
390
F
  0
LAYER
  5
EF
330
2
100
AcDbSymbolTableRecord
100
AcDbLayerTableRecord
  2
182
 70
     0
 62
   182
  6
CONTINUOUS
370
    -3
390
F
  0
LAYER
  5
F0
330
2
100
AcDbSymbolTableRecord
100
AcDbLayerTableRecord
  2
183
 70
     0
 62
   183
  6
CONTINUOUS
370
    -3
390
F
  0
LAYER
  5
F1
330
2
100
AcDbSymbolTableRecord
100
AcDbLayerTableRecord
  2
184
 70
     0
 62
   184
  6
CONTINUOUS
370
    -3
390
F
  0
LAYER
  5
F2
330
2
100
AcDbSymbolTableRecord
100
AcDbLayerTableRecord
  2
185
 70
     0
 62
   185
  6
CONTINUOUS
370
    -3
390
F
  0
LAYER
  5
F3
330
2
100
AcDbSymbolTableRecord
100
AcDbLayerTableRecord
  2
186
 70
     0
 62
   186
  6
CONTINUOUS
370
    -3
390
F
  0
LAYER
  5
F4
330
2
100
AcDbSymbolTableRecord
100
AcDbLayerTableRecord
  2
187
 70
     0
 62
   187
  6
CONTINUOUS
370
    -3
390
F
  0
LAYER
  5
F5
330
2
100
AcDbSymbolTableRecord
100
AcDbLayerTableRecord
  2
188
 70
     0
 62
   188
  6
CONTINUOUS
370
    -3
390
F
  0
LAYER
  5
F6
330
2
100
AcDbSymbolTableRecord
100
AcDbLayerTableRecord
  2
189
 70
     0
 62
   189
  6
CONTINUOUS
370
    -3
390
F
  0
LAYER
  5
F7
330
2
100
AcDbSymbolTableRecord
100
AcDbLayerTableRecord
  2
190
 70
     0
 62
   190
  6
CONTINUOUS
370
    -3
390
F
  0
LAYER
  5
F8
330
2
100
AcDbSymbolTableRecord
100
AcDbLayerTableRecord
  2
191
 70
     0
 62
   191
  6
CONTINUOUS
370
    -3
390
F
  0
LAYER
  5
F9
330
2
100
AcDbSymbolTableRecord
100
AcDbLayerTableRecord
  2
192
 70
     0
 62
   192
  6
CONTINUOUS
370
    -3
390
F
  0
LAYER
  5
FA
330
2
100
AcDbSymbolTableRecord
100
AcDbLayerTableRecord
  2
193
 70
     0
 62
   193
  6
CONTINUOUS
370
    -3
390
F
  0
LAYER
  5
FB
330
2
100
AcDbSymbolTableRecord
100
AcDbLayerTableRecord
  2
194
 70
     0
 62
   194
  6
CONTINUOUS
370
    -3
390
F
  0
LAYER
  5
FC
330
2
100
AcDbSymbolTableRecord
100
AcDbLayerTableRecord
  2
195
 70
     0
 62
   195
  6
CONTINUOUS
370
    -3
390
F
  0
LAYER
  5
FD
330
2
100
AcDbSymbolTableRecord
100
AcDbLayerTableRecord
  2
196
 70
     0
 62
   196
  6
CONTINUOUS
370
    -3
390
F
  0
LAYER
  5
FE
330
2
100
AcDbSymbolTableRecord
100
AcDbLayerTableRecord
  2
197
 70
     0
 62
   197
  6
CONTINUOUS
370
    -3
390
F
  0
LAYER
  5
FF
330
2
100
AcDbSymbolTableRecord
100
AcDbLayerTableRecord
  2
198
 70
     0
 62
   198
  6
CONTINUOUS
370
    -3
390
F
  0
LAYER
  5
100
330
2
100
AcDbSymbolTableRecord
100
AcDbLayerTableRecord
  2
199
 70
     0
 62
   199
  6
CONTINUOUS
370
    -3
390
F
  0
LAYER
  5
101
330
2
100
AcDbSymbolTableRecord
100
AcDbLayerTableRecord
  2
200
 70
     0
 62
   200
  6
CONTINUOUS
370
    -3
390
F
  0
LAYER
  5
102
330
2
100
AcDbSymbolTableRecord
100
AcDbLayerTableRecord
  2
201
 70
     0
 62
   201
  6
CONTINUOUS
370
    -3
390
F
  0
LAYER
  5
103
330
2
100
AcDbSymbolTableRecord
100
AcDbLayerTableRecord
  2
202
 70
     0
 62
   202
  6
CONTINUOUS
370
    -3
390
F
  0
LAYER
  5
104
330
2
100
AcDbSymbolTableRecord
100
AcDbLayerTableRecord
  2
203
 70
     0
 62
   203
  6
CONTINUOUS
370
    -3
390
F
  0
LAYER
  5
105
330
2
100
AcDbSymbolTableRecord
100
AcDbLayerTableRecord
  2
204
 70
     0
 62
   204
  6
CONTINUOUS
370
    -3
390
F
  0
LAYER
  5
106
330
2
100
AcDbSymbolTableRecord
100
AcDbLayerTableRecord
  2
205
 70
     0
 62
   205
  6
CONTINUOUS
370
    -3
390
F
  0
LAYER
  5
107
330
2
100
AcDbSymbolTableRecord
100
AcDbLayerTableRecord
  2
206
 70
     0
 62
   206
  6
CONTINUOUS
370
    -3
390
F
  0
LAYER
  5
108
330
2
100
AcDbSymbolTableRecord
100
AcDbLayerTableRecord
  2
207
 70
     0
 62
   207
  6
CONTINUOUS
370
    -3
390
F
  0
LAYER
  5
109
330
2
100
AcDbSymbolTableRecord
100
AcDbLayerTableRecord
  2
208
 70
     0
 62
   208
  6
CONTINUOUS
370
    -3
390
F
  0
LAYER
  5
10A
330
2
100
AcDbSymbolTableRecord
100
AcDbLayerTableRecord
  2
209
 70
     0
 62
   209
  6
CONTINUOUS
370
    -3
390
F
  0
LAYER
  5
10B
330
2
100
AcDbSymbolTableRecord
100
AcDbLayerTableRecord
  2
210
 70
     0
 62
   210
  6
CONTINUOUS
370
    -3
390
F
  0
LAYER
  5
10C
330
2
100
AcDbSymbolTableRecord
100
AcDbLayerTableRecord
  2
211
 70
     0
 62
   211
  6
CONTINUOUS
370
    -3
390
F
  0
LAYER
  5
10D
330
2
100
AcDbSymbolTableRecord
100
AcDbLayerTableRecord
  2
212
 70
     0
 62
   212
  6
CONTINUOUS
370
    -3
390
F
  0
LAYER
  5
10E
330
2
100
AcDbSymbolTableRecord
100
AcDbLayerTableRecord
  2
213
 70
     0
 62
   213
  6
CONTINUOUS
370
    -3
390
F
  0
LAYER
  5
10F
330
2
100
AcDbSymbolTableRecord
100
AcDbLayerTableRecord
  2
214
 70
     0
 62
   214
  6
CONTINUOUS
370
    -3
390
F
  0
LAYER
  5
110
330
2
100
AcDbSymbolTableRecord
100
AcDbLayerTableRecord
  2
215
 70
     0
 62
   215
  6
CONTINUOUS
370
    -3
390
F
  0
LAYER
  5
111
330
2
100
AcDbSymbolTableRecord
100
AcDbLayerTableRecord
  2
216
 70
     0
 62
   216
  6
CONTINUOUS
370
    -3
390
F
  0
LAYER
  5
112
330
2
100
AcDbSymbolTableRecord
100
AcDbLayerTableRecord
  2
217
 70
     0
 62
   217
  6
CONTINUOUS
370
    -3
390
F
  0
LAYER
  5
113
330
2
100
AcDbSymbolTableRecord
100
AcDbLayerTableRecord
  2
218
 70
     0
 62
   218
  6
CONTINUOUS
370
    -3
390
F
  0
LAYER
  5
114
330
2
100
AcDbSymbolTableRecord
100
AcDbLayerTableRecord
  2
219
 70
     0
 62
   219
  6
CONTINUOUS
370
    -3
390
F
  0
LAYER
  5
115
330
2
100
AcDbSymbolTableRecord
100
AcDbLayerTableRecord
  2
220
 70
     0
 62
   220
  6
CONTINUOUS
370
    -3
390
F
  0
LAYER
  5
116
330
2
100
AcDbSymbolTableRecord
100
AcDbLayerTableRecord
  2
221
 70
     0
 62
   221
  6
CONTINUOUS
370
    -3
390
F
  0
LAYER
  5
117
330
2
100
AcDbSymbolTableRecord
100
AcDbLayerTableRecord
  2
222
 70
     0
 62
   222
  6
CONTINUOUS
370
    -3
390
F
  0
LAYER
  5
118
330
2
100
AcDbSymbolTableRecord
100
AcDbLayerTableRecord
  2
223
 70
     0
 62
   223
  6
CONTINUOUS
370
    -3
390
F
  0
LAYER
  5
119
330
2
100
AcDbSymbolTableRecord
100
AcDbLayerTableRecord
  2
224
 70
     0
 62
   224
  6
CONTINUOUS
370
    -3
390
F
  0
LAYER
  5
11A
330
2
100
AcDbSymbolTableRecord
100
AcDbLayerTableRecord
  2
225
 70
     0
 62
   225
  6
CONTINUOUS
370
    -3
390
F
  0
LAYER
  5
11B
330
2
100
AcDbSymbolTableRecord
100
AcDbLayerTableRecord
  2
226
 70
     0
 62
   226
  6
CONTINUOUS
370
    -3
390
F
  0
LAYER
  5
11C
330
2
100
AcDbSymbolTableRecord
100
AcDbLayerTableRecord
  2
227
 70
     0
 62
   227
  6
CONTINUOUS
370
    -3
390
F
  0
LAYER
  5
11D
330
2
100
AcDbSymbolTableRecord
100
AcDbLayerTableRecord
  2
228
 70
     0
 62
   228
  6
CONTINUOUS
370
    -3
390
F
  0
LAYER
  5
11E
330
2
100
AcDbSymbolTableRecord
100
AcDbLayerTableRecord
  2
229
 70
     0
 62
   229
  6
CONTINUOUS
370
    -3
390
F
  0
LAYER
  5
11F
330
2
100
AcDbSymbolTableRecord
100
AcDbLayerTableRecord
  2
230
 70
     0
 62
   230
  6
CONTINUOUS
370
    -3
390
F
  0
LAYER
  5
120
330
2
100
AcDbSymbolTableRecord
100
AcDbLayerTableRecord
  2
231
 70
     0
 62
   231
  6
CONTINUOUS
370
    -3
390
F
  0
LAYER
  5
121
330
2
100
AcDbSymbolTableRecord
100
AcDbLayerTableRecord
  2
232
 70
     0
 62
   232
  6
CONTINUOUS
370
    -3
390
F
  0
LAYER
  5
122
330
2
100
AcDbSymbolTableRecord
100
AcDbLayerTableRecord
  2
233
 70
     0
 62
   233
  6
CONTINUOUS
370
    -3
390
F
  0
LAYER
  5
123
330
2
100
AcDbSymbolTableRecord
100
AcDbLayerTableRecord
  2
234
 70
     0
 62
   234
  6
CONTINUOUS
370
    -3
390
F
  0
LAYER
  5
124
330
2
100
AcDbSymbolTableRecord
100
AcDbLayerTableRecord
  2
235
 70
     0
 62
   235
  6
CONTINUOUS
370
    -3
390
F
  0
LAYER
  5
125
330
2
100
AcDbSymbolTableRecord
100
AcDbLayerTableRecord
  2
236
 70
     0
 62
   236
  6
CONTINUOUS
370
    -3
390
F
  0
LAYER
  5
126
330
2
100
AcDbSymbolTableRecord
100
AcDbLayerTableRecord
  2
237
 70
     0
 62
   237
  6
CONTINUOUS
370
    -3
390
F
  0
LAYER
  5
127
330
2
100
AcDbSymbolTableRecord
100
AcDbLayerTableRecord
  2
238
 70
     0
 62
   238
  6
CONTINUOUS
370
    -3
390
F
  0
LAYER
  5
128
330
2
100
AcDbSymbolTableRecord
100
AcDbLayerTableRecord
  2
239
 70
     0
 62
   239
  6
CONTINUOUS
370
    -3
390
F
  0
LAYER
  5
129
330
2
100
AcDbSymbolTableRecord
100
AcDbLayerTableRecord
  2
240
 70
     0
 62
   240
  6
CONTINUOUS
370
    -3
390
F
  0
LAYER
  5
12A
330
2
100
AcDbSymbolTableRecord
100
AcDbLayerTableRecord
  2
241
 70
     0
 62
   241
  6
CONTINUOUS
370
    -3
390
F
  0
LAYER
  5
12B
330
2
100
AcDbSymbolTableRecord
100
AcDbLayerTableRecord
  2
242
 70
     0
 62
   242
  6
CONTINUOUS
370
    -3
390
F
  0
LAYER
  5
12C
330
2
100
AcDbSymbolTableRecord
100
AcDbLayerTableRecord
  2
243
 70
     0
 62
   243
  6
CONTINUOUS
370
    -3
390
F
  0
LAYER
  5
12D
330
2
100
AcDbSymbolTableRecord
100
AcDbLayerTableRecord
  2
244
 70
     0
 62
   244
  6
CONTINUOUS
370
    -3
390
F
  0
LAYER
  5
12E
330
2
100
AcDbSymbolTableRecord
100
AcDbLayerTableRecord
  2
245
 70
     0
 62
   245
  6
CONTINUOUS
370
    -3
390
F
  0
LAYER
  5
12F
330
2
100
AcDbSymbolTableRecord
100
AcDbLayerTableRecord
  2
246
 70
     0
 62
   246
  6
CONTINUOUS
370
    -3
390
F
  0
LAYER
  5
130
330
2
100
AcDbSymbolTableRecord
100
AcDbLayerTableRecord
  2
247
 70
     0
 62
   247
  6
CONTINUOUS
370
    -3
390
F
  0
LAYER
  5
131
330
2
100
AcDbSymbolTableRecord
100
AcDbLayerTableRecord
  2
248
 70
     0
 62
   248
  6
CONTINUOUS
370
    -3
390
F
  0
LAYER
  5
132
330
2
100
AcDbSymbolTableRecord
100
AcDbLayerTableRecord
  2
249
 70
     0
 62
   249
  6
CONTINUOUS
370
    -3
390
F
  0
LAYER
  5
133
330
2
100
AcDbSymbolTableRecord
100
AcDbLayerTableRecord
  2
250
 70
     0
 62
   250
  6
CONTINUOUS
370
    -3
390
F
  0
LAYER
  5
134
330
2
100
AcDbSymbolTableRecord
100
AcDbLayerTableRecord
  2
251
 70
     0
 62
   251
  6
CONTINUOUS
370
    -3
390
F
  0
LAYER
  5
135
330
2
100
AcDbSymbolTableRecord
100
AcDbLayerTableRecord
  2
252
 70
     0
 62
   252
  6
CONTINUOUS
370
    -3
390
F
  0
LAYER
  5
136
330
2
100
AcDbSymbolTableRecord
100
AcDbLayerTableRecord
  2
253
 70
     0
 62
   253
  6
CONTINUOUS
370
    -3
390
F
  0
LAYER
  5
137
330
2
100
AcDbSymbolTableRecord
100
AcDbLayerTableRecord
  2
254
 70
     0
 62
   254
  6
CONTINUOUS
370
    -3
390
F
  0
LAYER
  5
138
330
2
100
AcDbSymbolTableRecord
100
AcDbLayerTableRecord
  2
255
 70
     0
 62
   255
  6
CONTINUOUS
370
    -3
390
F
  0
ENDTAB
  0
TABLE
  2
STYLE
  5
3
330
0
100
AcDbSymbolTable
 70
     1
  0
STYLE
  5
11
330
3
100
AcDbSymbolTableRecord
100
AcDbTextStyleTableRecord
  2
STANDARD
 70
     0
 40
0.0
 41
1.0
 50
0.0
 71
     0
 42
0.2
  3
txt
  4

  0
ENDTAB
  0
TABLE
  2
VIEW
  5
6
330
0
100
AcDbSymbolTable
 70
     0
  0
ENDTAB
  0
TABLE
  2
UCS
  5
7
330
0
100
AcDbSymbolTable
 70
     0
  0
ENDTAB
  0
TABLE
  2
APPID
  5
9
330
0
100
AcDbSymbolTable
 70
     1
  0
APPID
  5
12
330
9
100
AcDbSymbolTableRecord
100
AcDbRegAppTableRecord
  2
ACAD
 70
     0
  0
ENDTAB
  0
TABLE
  2
DIMSTYLE
  5
A
330
0
100
AcDbSymbolTable
 70
     1
100
AcDbDimStyleTable
 71
     0
  0
DIMSTYLE
105
717
330
A
100
AcDbSymbolTableRecord
100
AcDbDimStyleTableRecord
  2
Standard
 70
     0
340
11
  0
ENDTAB
  0
TABLE
  2
BLOCK_RECORD
  5
1
330
0
100
AcDbSymbolTable
 70
     0
  0
BLOCK_RECORD
  5
1E
330
1
100
AcDbSymbolTableRecord
100
AcDbBlockTableRecord
  2
*Model_Space
340
21
  0
BLOCK_RECORD
  5
1A
330
1
100
AcDbSymbolTableRecord
100
AcDbBlockTableRecord
  2
*Paper_Space
340
1D
  0
ENDTAB
  0
ENDSEC
  0
SECTION
  2
BLOCKS
  0
BLOCK
  5
13B
330
1E
100
AcDbEntity
  8
0
100
AcDbBlockBegin
  2
*Model_Space
 70
     0
 10
0.0
 20
0.0
 30
0.0
  3
*Model_Space
  1

  0
ENDBLK
  5
13C
330
1E
100
AcDbEntity
  8
0
100
AcDbBlockEnd
  0
BLOCK
  5
139
330
1A
100
AcDbEntity
 67
     1
  8
0
100
AcDbBlockBegin
  2
*Paper_Space
 70
     0
 10
0.0
 20
0.0
 30
0.0
  3
*Paper_Space
  1

  0
ENDBLK
  5
13A
330
1A
100
AcDbEntity
 67
     1
  8
0
100
AcDbBlockEnd
  0
ENDSEC
  0
SECTION
  2
ENTITIES
  0
LWPOLYLINE
  5
13E
330
1E
100
AcDbEntity
  8
0
100
AcDbPolyline
 90
        3
 70
     0
 43
0.0
 10
0.0
 20
0.0049212598425197
 10
0.0
 20
0.0
 10
0.0049212598425197
 20
0.0
  0
LWPOLYLINE
  5
143
330
1E
100
AcDbEntity
  8
0
100
AcDbPolyline
 90
        3
 70
     0
 43
0.0
 10
7.432086614173227
 20
4.944881889763779
 10
7.432086614173227
 20
4.949803149606299
 10
7.427165354330708
 20
4.949803149606299
  0
LINE
  5
148
330
1E
100
AcDbEntity
  8
0
100
AcDbLine
 10
0.5255905511811024
 20
2.39271653543307
 30
0.0
 11
4.351377952755905
 21
2.39271653543307
 31
0.0
  0
LINE
  5
149
330
1E
100
AcDbEntity
  8
0
100
AcDbLine
 10
4.45767716535433
 20
0.7312992125984252
 30
0.0
 11
4.421259842519685
 21
0.7312992125984252
 31
0.0
  0
LINE
  5
14A
330
1E
100
AcDbEntity
  8
0
100
AcDbLine
 10
4.458661417322834
 20
0.7952755905511811
 30
0.0
 11
4.45767716535433
 21
0.7559055118110237
 31
0.0
  0
LWPOLYLINE
  5
14B
330
1E
100
AcDbEntity
  8
0
100
AcDbPolyline
 90
        4
 70
     0
 43
0.0
 10
4.45767716535433
 20
0.7559055118110237
 10
4.45767716535433
 20
0.7431102362204724
 10
4.45767716535433
 20
0.7342519685039371
 10
4.45767716535433
 20
0.7312992125984252
  0
LWPOLYLINE
  5
151
330
1E
100
AcDbEntity
  8
0
100
AcDbPolyline
 90
        4
 70
     0
 43
0.0
 10
0.4438976377952756
 20
2.355314960629921
 10
0.4291338582677166
 20
2.355314960629921
 10
0.4183070866141733
 20
2.355314960629921
 10
0.4133858267716536
 20
2.355314960629921
  0
LINE
  5
157
330
1E
100
AcDbEntity
  8
0
100
AcDbLine
 10
0.4438976377952756
 20
2.355314960629921
 30
0.0
 11
4.432086614173228
 21
2.355314960629921
 31
0.0
  0
LWPOLYLINE
  5
158
330
1E
100
AcDbEntity
  8
0
100
AcDbPolyline
 90
        4
 70
     0
 43
0.0
 10
4.432086614173228
 20
2.355314960629921
 10
4.447834645669291
 20
2.355314960629921
 10
4.458661417322834
 20
2.355314960629921
 10
4.46259842519685
 20
2.355314960629921
  0
LINE
  5
15E
330
1E
100
AcDbEntity
  8
0
100
AcDbLine
 10
4.43011811023622
 20
0.7952755905511811
 30
0.0
 11
4.098425196850393
 21
0.7952755905511811
 31
0.0
  0
LINE
  5
15F
330
1E
100
AcDbEntity
  8
0
100
AcDbLine
 10
4.509842519685038
 20
0.7952755905511811
 30
0.0
 11
4.470472440944881
 21
0.7952755905511811
 31
0.0
  0
LWPOLYLINE
  5
160
330
1E
100
AcDbEntity
  8
0
100
AcDbPolyline
 90
        3
 70
     0
 43
0.0
 10
4.470472440944881
 20
0.7952755905511811
 10
4.463582677165354
 20
0.7952755905511811
 10
4.460629921259842
 20
0.7952755905511811
  0
LWPOLYLINE
  5
165
330
1E
100
AcDbEntity
  8
0
100
AcDbPolyline
 90
        4
 70
     0
 43
0.0
 10
4.460629921259842
 20
0.7952755905511811
 10
4.455708661417323
 20
0.7952755905511811
 10
4.444881889763779
 20
0.7952755905511811
 10
4.43011811023622
 20
0.7952755905511811
  0
LINE
  5
16B
330
1E
100
AcDbEntity
  8
0
100
AcDbLine
 10
3.521653543307086
 20
1.70767716535433
 30
0.0
 11
1.355314960629921
 21
1.70767716535433
 31
0.0
  0
LINE
  5
16C
330
1E
100
AcDbEntity
  8
0
100
AcDbLine
 10
4.46259842519685
 20
2.355314960629921
 30
0.0
 11
4.468503937007874
 21
1.70767716535433
 31
0.0
  0
LINE
  5
16D
330
1E
100
AcDbEntity
  8
0
100
AcDbLine
 10
0.437992125984252
 20
1.70767716535433
 30
0.0
 11
4.437992125984251
 21
1.70767716535433
 31
0.0
  0
LINE
  5
16E
330
1E
100
AcDbEntity
  8
0
100
AcDbLine
 10
4.437992125984251
 20
1.70767716535433
 30
0.0
 11
4.432086614173228
 21
2.355314960629921
 31
0.0
  0
LINE
  5
16F
330
1E
100
AcDbEntity
  8
0
100
AcDbLine
 10
0.437992125984252
 20
1.70767716535433
 30
0.0
 11
0.4438976377952756
 21
2.355314960629921
 31
0.0
  0
LINE
  5
170
330
1E
100
AcDbEntity
  8
0
100
AcDbLine
 10
4.473425196850393
 20
2.23523622047244
 30
0.0
 11
4.513779527559054
 21
2.23523622047244
 31
0.0
  0
LINE
  5
171
330
1E
100
AcDbEntity
  8
0
100
AcDbLine
 10
4.513779527559054
 20
2.220472440944881
 30
0.0
 11
4.473425196850393
 21
2.220472440944881
 31
0.0
  0
LINE
  5
172
330
1E
100
AcDbEntity
  8
0
100
AcDbLine
 10
4.473425196850393
 20
2.220472440944881
 30
0.0
 11
4.478346456692912
 21
1.70767716535433
 31
0.0
  0
LINE
  5
173
330
1E
100
AcDbEntity
  8
0
100
AcDbLine
 10
4.478346456692912
 20
1.70767716535433
 30
0.0
 11
4.51771653543307
 21
1.70767716535433
 31
0.0
  0
LINE
  5
174
330
1E
100
AcDbEntity
  8
0
100
AcDbLine
 10
4.51771653543307
 20
1.70767716535433
 30
0.0
 11
4.513779527559054
 21
2.220472440944881
 31
0.0
  0
LINE
  5
175
330
1E
100
AcDbEntity
  8
0
100
AcDbLine
 10
4.420275590551181
 20
0.7952755905511811
 30
0.0
 11
4.421259842519685
 21
0.7559055118110237
 31
0.0
  0
LINE
  5
176
330
1E
100
AcDbEntity
  8
0
100
AcDbLine
 10
4.421259842519685
 20
0.7559055118110237
 30
0.0
 11
4.45767716535433
 21
0.7559055118110237
 31
0.0
  0
LWPOLYLINE
  5
177
330
1E
100
AcDbEntity
  8
0
100
AcDbPolyline
 90
        4
 70
     0
 43
0.0
 10
4.421259842519685
 20
0.7312992125984252
 10
4.421259842519685
 20
0.7342519685039371
 10
4.421259842519685
 20
0.7431102362204724
 10
4.421259842519685
 20
0.7559055118110237
  0
LINE
  5
17D
330
1E
100
AcDbEntity
  8
0
100
AcDbLine
 10
3.864173228346456
 20
0.9596456692913385
 30
0.0
 11
3.61515748031496
 21
1.641732283464566
 31
0.0
  0
LINE
  5
17E
330
1E
100
AcDbEntity
  8
0
100
AcDbLine
 10
4.361220472440944
 20
2.382874015748031
 30
0.0
 11
4.361220472440944
 21
2.355314960629921
 31
0.0
  0
LINE
  5
17F
330
1E
100
AcDbEntity
  8
0
100
AcDbLine
 10
4.351377952755905
 20
2.355314960629921
 30
0.0
 11
4.351377952755905
 21
2.382874015748031
 31
0.0
  0
LINE
  5
180
330
1E
100
AcDbEntity
  8
0
100
AcDbLine
 10
4.351377952755905
 20
2.382874015748031
 30
0.0
 11
0.5255905511811024
 21
2.382874015748031
 31
0.0
  0
LINE
  5
181
330
1E
100
AcDbEntity
  8
0
100
AcDbLine
 10
0.5255905511811024
 20
2.382874015748031
 30
0.0
 11
0.5255905511811024
 21
2.355314960629921
 31
0.0
  0
LINE
  5
182
330
1E
100
AcDbEntity
  8
0
100
AcDbLine
 10
4.468503937007874
 20
1.70767716535433
 30
0.0
 11
4.460629921259842
 21
0.7952755905511811
 31
0.0
  0
LINE
  5
183
330
1E
100
AcDbEntity
  8
0
100
AcDbLine
 10
4.51771653543307
 20
1.70767716535433
 30
0.0
 11
4.509842519685038
 21
0.7952755905511811
 31
0.0
  0
LINE
  5
184
330
1E
100
AcDbEntity
  8
0
100
AcDbLine
 10
4.478346456692912
 20
1.70767716535433
 30
0.0
 11
4.470472440944881
 21
0.7952755905511811
 31
0.0
  0
LWPOLYLINE
  5
185
330
1E
100
AcDbEntity
  8
0
100
AcDbPolyline
 90
        8
 70
     0
 43
0.0
 10
3.864173228346456
 20
0.9596456692913385
 10
3.881889763779527
 20
0.9202755905511811
 10
3.907480314960629
 20
0.8838582677165353
 10
3.937992125984251
 20
0.8533464566929133
 10
3.973425196850393
 20
0.8287401574803149
 10
4.01279527559055
 20
0.8100393700787401
 10
4.05511811023622
 20
0.798228346456693
 10
4.098425196850393
 20
0.7952755905511811
  0
LINE
  5
18F
330
1E
100
AcDbEntity
  8
0
100
AcDbLine
 10
4.43011811023622
 20
0.7952755905511811
 30
0.0
 11
4.437992125984251
 21
1.70767716535433
 31
0.0
  0
LINE
  5
190
330
1E
100
AcDbEntity
  8
0
100
AcDbLine
 10
0.4458661417322835
 20
0.7952755905511811
 30
0.0
 11
0.437992125984252
 21
1.70767716535433
 31
0.0
  0
LINE
  5
191
330
1E
100
AcDbEntity
  8
0
100
AcDbLine
 10
0.4458661417322835
 20
0.7952755905511811
 30
0.0
 11
0.7775590551181102
 21
0.7952755905511811
 31
0.0
  0
LWPOLYLINE
  5
192
330
1E
100
AcDbEntity
  8
0
100
AcDbPolyline
 90
        8
 70
     0
 43
0.0
 10
1.012795275590551
 20
0.9596456692913385
 10
0.9940944881889762
 20
0.9202755905511811
 10
0.9694881889763779
 20
0.8838582677165353
 10
0.937992125984252
 20
0.8533464566929133
 10
0.9025590551181101
 20
0.8287401574803149
 10
0.8631889763779527
 20
0.8100393700787401
 10
0.8208661417322835
 20
0.798228346456693
 10
0.7775590551181102
 20
0.7952755905511811
  0
LINE
  5
19C
330
1E
100
AcDbEntity
  8
0
100
AcDbLine
 10
1.012795275590551
 20
0.9596456692913385
 30
0.0
 11
1.260826771653543
 21
1.641732283464566
 31
0.0
  0
LWPOLYLINE
  5
19D
330
1E
100
AcDbEntity
  8
0
100
AcDbPolyline
 90
        5
 70
     0
 43
0.0
 10
1.355314960629921
 20
1.70767716535433
 10
1.324803149606299
 20
1.702755905511811
 10
1.297244094488188
 20
1.689960629921259
 10
1.275590551181102
 20
1.668307086614173
 10
1.260826771653543
 20
1.641732283464566
  0
LWPOLYLINE
  5
1A4
330
1E
100
AcDbEntity
  8
0
100
AcDbPolyline
 90
        5
 70
     0
 43
0.0
 10
3.521653543307086
 20
1.70767716535433
 10
3.551181102362204
 20
1.702755905511811
 10
3.578740157480314
 20
1.689960629921259
 10
3.600393700787401
 20
1.668307086614173
 10
3.61515748031496
 20
1.641732283464566
  0
LWPOLYLINE
  5
1AB
330
1E
100
AcDbEntity
  8
0
100
AcDbPolyline
 90
        3
 70
     0
 43
0.0
 10
4.513779527559054
 20
2.23523622047244
 10
4.513779527559054
 20
2.230314960629921
 10
4.513779527559054
 20
2.220472440944881
  0
LWPOLYLINE
  5
1B0
330
1E
100
AcDbEntity
  8
0
100
AcDbPolyline
 90
        3
 70
     0
 43
0.0
 10
4.473425196850393
 20
2.23523622047244
 10
4.473425196850393
 20
2.230314960629921
 10
4.473425196850393
 20
2.220472440944881
  0
LWPOLYLINE
  5
1B5
330
1E
100
AcDbEntity
  8
0
100
AcDbPolyline
 90
        4
 70
     0
 43
0.0
 10
4.437992125984251
 20
1.70767716535433
 10
4.452755905511811
 20
1.70767716535433
 10
4.464566929133858
 20
1.70767716535433
 10
4.468503937007874
 20
1.70767716535433
  0
LWPOLYLINE
  5
1BB
330
1E
100
AcDbEntity
  8
0
100
AcDbPolyline
 90
        3
 70
     0
 43
0.0
 10
4.468503937007874
 20
1.70767716535433
 10
4.471456692913386
 20
1.70767716535433
 10
4.478346456692912
 20
1.70767716535433
  0
LWPOLYLINE
  5
1C0
330
1E
100
AcDbEntity
  8
0
100
AcDbPolyline
 90
        3
 70
     0
 43
0.0
 10
4.463582677165354
 20
2.220472440944881
 10
4.466535433070865
 20
2.219488188976377
 10
4.473425196850393
 20
2.220472440944881
  0
LWPOLYLINE
  5
1C5
330
1E
100
AcDbEntity
  8
0
100
AcDbPolyline
 90
        3
 70
     0
 43
0.0
 10
4.473425196850393
 20
2.23523622047244
 10
4.466535433070865
 20
2.238188976377952
 10
4.463582677165354
 20
2.24507874015748
  0
LINE
  5
1CA
330
1E
100
AcDbEntity
  8
0
100
AcDbLine
 10
0.4547244094488189
 20
0.7312992125984252
 30
0.0
 11
0.4183070866141733
 21
0.7312992125984252
 31
0.0
  0
LWPOLYLINE
  5
1CB
330
1E
100
AcDbEntity
  8
0
100
AcDbPolyline
 90
        4
 70
     0
 43
0.0
 10
0.4183070866141733
 20
0.7312992125984252
 10
0.4183070866141733
 20
0.7342519685039371
 10
0.4183070866141733
 20
0.7431102362204724
 10
0.4183070866141733
 20
0.7559055118110237
  0
LINE
  5
1D1
330
1E
100
AcDbEntity
  8
0
100
AcDbLine
 10
0.4183070866141733
 20
0.7952755905511811
 30
0.0
 11
0.4183070866141733
 21
0.7559055118110237
 31
0.0
  0
LWPOLYLINE
  5
1D2
330
1E
100
AcDbEntity
  8
0
100
AcDbPolyline
 90
        4
 70
     0
 43
0.0
 10
0.4163385826771654
 20
0.7952755905511811
 10
0.4202755905511811
 20
0.7952755905511811
 10
0.4311023622047245
 20
0.7952755905511811
 10
0.4458661417322835
 20
0.7952755905511811
  0
LWPOLYLINE
  5
1D8
330
1E
100
AcDbEntity
  8
0
100
AcDbPolyline
 90
        3
 70
     0
 43
0.0
 10
0.4064960629921261
 20
0.7952755905511811
 10
0.4133858267716536
 20
0.7952755905511811
 10
0.4163385826771654
 20
0.7952755905511811
  0
LINE
  5
1DD
330
1E
100
AcDbEntity
  8
0
100
AcDbLine
 10
0.3661417322834646
 20
0.7952755905511811
 30
0.0
 11
0.4064960629921261
 21
0.7952755905511811
 31
0.0
  0
LINE
  5
1DE
330
1E
100
AcDbEntity
  8
0
100
AcDbLine
 10
0.4133858267716536
 20
2.355314960629921
 30
0.0
 11
0.4084645669291339
 21
1.70767716535433
 31
0.0
  0
LINE
  5
1DF
330
1E
100
AcDbEntity
  8
0
100
AcDbLine
 10
0.4025590551181103
 20
2.23523622047244
 30
0.0
 11
0.3631889763779528
 21
2.23523622047244
 31
0.0
  0
LINE
  5
1E0
330
1E
100
AcDbEntity
  8
0
100
AcDbLine
 10
0.3622047244094488
 20
2.220472440944881
 30
0.0
 11
0.4025590551181103
 21
2.220472440944881
 31
0.0
  0
LINE
  5
1E1
330
1E
100
AcDbEntity
  8
0
100
AcDbLine
 10
0.3582677165354331
 20
1.70767716535433
 30
0.0
 11
0.3622047244094488
 21
2.220472440944881
 31
0.0
  0
LINE
  5
1E2
330
1E
100
AcDbEntity
  8
0
100
AcDbLine
 10
0.3986220472440945
 20
1.70767716535433
 30
0.0
 11
0.3582677165354331
 21
1.70767716535433
 31
0.0
  0
LINE
  5
1E3
330
1E
100
AcDbEntity
  8
0
100
AcDbLine
 10
0.4025590551181103
 20
2.220472440944881
 30
0.0
 11
0.3986220472440945
 21
1.70767716535433
 31
0.0
  0
LINE
  5
1E4
330
1E
100
AcDbEntity
  8
0
100
AcDbLine
 10
0.4183070866141733
 20
0.7559055118110237
 30
0.0
 11
0.4557086614173228
 21
0.7559055118110237
 31
0.0
  0
LINE
  5
1E5
330
1E
100
AcDbEntity
  8
0
100
AcDbLine
 10
0.4557086614173228
 20
0.7952755905511811
 30
0.0
 11
0.4557086614173228
 21
0.7559055118110237
 31
0.0
  0
LWPOLYLINE
  5
1E6
330
1E
100
AcDbEntity
  8
0
100
AcDbPolyline
 90
        4
 70
     0
 43
0.0
 10
0.4557086614173228
 20
0.7559055118110237
 10
0.4557086614173228
 20
0.7431102362204724
 10
0.4547244094488189
 20
0.7342519685039371
 10
0.4547244094488189
 20
0.7312992125984252
  0
LINE
  5
1EC
330
1E
100
AcDbEntity
  8
0
100
AcDbLine
 10
0.5147637795275591
 20
2.355314960629921
 30
0.0
 11
0.515748031496063
 21
2.382874015748031
 31
0.0
  0
LINE
  5
1ED
330
1E
100
AcDbEntity
  8
0
100
AcDbLine
 10
0.4084645669291339
 20
1.70767716535433
 30
0.0
 11
0.4163385826771654
 21
0.7952755905511811
 31
0.0
  0
LINE
  5
1EE
330
1E
100
AcDbEntity
  8
0
100
AcDbLine
 10
0.3582677165354331
 20
1.70767716535433
 30
0.0
 11
0.3661417322834646
 21
0.7952755905511811
 31
0.0
  0
LINE
  5
1EF
330
1E
100
AcDbEntity
  8
0
100
AcDbLine
 10
0.3986220472440945
 20
1.70767716535433
 30
0.0
 11
0.4064960629921261
 21
0.7952755905511811
 31
0.0
  0
LWPOLYLINE
  5
1F0
330
1E
100
AcDbEntity
  8
0
100
AcDbPolyline
 90
        3
 70
     0
 43
0.0
 10
0.3631889763779528
 20
2.23523622047244
 10
0.3631889763779528
 20
2.230314960629921
 10
0.3622047244094488
 20
2.220472440944881
  0
LWPOLYLINE
  5
1F5
330
1E
100
AcDbEntity
  8
0
100
AcDbPolyline
 90
        3
 70
     0
 43
0.0
 10
0.4025590551181103
 20
2.23523622047244
 10
0.4025590551181103
 20
2.230314960629921
 10
0.4025590551181103
 20
2.220472440944881
  0
LWPOLYLINE
  5
1FA
330
1E
100
AcDbEntity
  8
0
100
AcDbPolyline
 90
        4
 70
     0
 43
0.0
 10
0.437992125984252
 20
1.70767716535433
 10
0.4232283464566929
 20
1.70767716535433
 10
0.4124015748031497
 20
1.70767716535433
 10
0.4084645669291339
 20
1.70767716535433
  0
LWPOLYLINE
  5
200
330
1E
100
AcDbEntity
  8
0
100
AcDbPolyline
 90
        3
 70
     0
 43
0.0
 10
0.4084645669291339
 20
1.70767716535433
 10
0.4055118110236221
 20
1.70767716535433
 10
0.3986220472440945
 20
1.70767716535433
  0
LWPOLYLINE
  5
205
330
1E
100
AcDbEntity
  8
0
100
AcDbPolyline
 90
        3
 70
     0
 43
0.0
 10
0.4124015748031497
 20
2.220472440944881
 10
0.4094488188976378
 20
2.219488188976377
 10
0.4025590551181103
 20
2.220472440944881
  0
LWPOLYLINE
  5
20A
330
1E
100
AcDbEntity
  8
0
100
AcDbPolyline
 90
        3
 70
     0
 43
0.0
 10
0.4025590551181103
 20
2.23523622047244
 10
0.4094488188976378
 20
2.238188976377952
 10
0.4124015748031497
 20
2.24507874015748
  0
LINE
  5
20F
330
1E
100
AcDbEntity
  8
0
100
AcDbLine
 10
2.371062992125984
 20
2.412401574803149
 30
0.0
 11
2.372047244094487
 21
2.39271653543307
 31
0.0
  0
LINE
  5
210
330
1E
100
AcDbEntity
  8
0
100
AcDbLine
 10
2.371062992125984
 20
2.412401574803149
 30
0.0
 11
2.283464566929133
 21
2.412401574803149
 31
0.0
  0
LINE
  5
211
330
1E
100
AcDbEntity
  8
0
100
AcDbLine
 10
2.283464566929133
 20
2.412401574803149
 30
0.0
 11
2.28248031496063
 21
2.39271653543307
 31
0.0
  0
LINE
  5
212
330
1E
100
AcDbEntity
  8
0
100
AcDbLine
 10
2.227362204724409
 20
2.412401574803149
 30
0.0
 11
2.283464566929133
 21
2.412401574803149
 31
0.0
  0
LINE
  5
213
330
1E
100
AcDbEntity
  8
0
100
AcDbLine
 10
2.227362204724409
 20
2.412401574803149
 30
0.0
 11
2.228346456692913
 21
2.39271653543307
 31
0.0
  0
LINE
  5
214
330
1E
100
AcDbEntity
  8
0
100
AcDbLine
 10
2.227362204724409
 20
2.412401574803149
 30
0.0
 11
2.096456692913385
 21
2.412401574803149
 31
0.0
  0
LINE
  5
215
330
1E
100
AcDbEntity
  8
0
100
AcDbLine
 10
2.096456692913385
 20
2.412401574803149
 30
0.0
 11
2.095472440944881
 21
2.39271653543307
 31
0.0
  0
LINE
  5
216
330
1E
100
AcDbEntity
  8
0
100
AcDbLine
 10
2.075787401574803
 20
2.412401574803149
 30
0.0
 11
2.096456692913385
 21
2.412401574803149
 31
0.0
  0
LINE
  5
217
330
1E
100
AcDbEntity
  8
0
100
AcDbLine
 10
2.075787401574803
 20
2.412401574803149
 30
0.0
 11
2.074803149606299
 21
2.39271653543307
 31
0.0
  0
LINE
  5
218
330
1E
100
AcDbEntity
  8
0
100
AcDbLine
 10
1.961614173228346
 20
2.412401574803149
 30
0.0
 11
2.075787401574803
 21
2.412401574803149
 31
0.0
  0
LINE
  5
219
330
1E
100
AcDbEntity
  8
0
100
AcDbLine
 10
1.961614173228346
 20
2.412401574803149
 30
0.0
 11
1.96259842519685
 21
2.39271653543307
 31
0.0
  0
LINE
  5
21A
330
1E
100
AcDbEntity
  8
0
100
AcDbLine
 10
1.943897637795275
 20
2.412401574803149
 30
0.0
 11
1.961614173228346
 21
2.412401574803149
 31
0.0
  0
LINE
  5
21B
330
1E
100
AcDbEntity
  8
0
100
AcDbLine
 10
1.943897637795275
 20
2.412401574803149
 30
0.0
 11
1.943897637795275
 21
2.39271653543307
 31
0.0
  0
LINE
  5
21C
330
1E
100
AcDbEntity
  8
0
100
AcDbLine
 10
1.943897637795275
 20
2.412401574803149
 30
0.0
 11
1.858267716535433
 21
2.412401574803149
 31
0.0
  0
LINE
  5
21D
330
1E
100
AcDbEntity
  8
0
100
AcDbLine
 10
1.858267716535433
 20
2.412401574803149
 30
0.0
 11
1.856299212598425
 21
2.39271653543307
 31
0.0
  0
LWPOLYLINE
  5
21E
330
1E
100
AcDbEntity
  8
0
100
AcDbPolyline
 90
        3
 70
     0
 43
0.0
 10
1.854330708661417
 20
2.412401574803149
 10
1.856299212598425
 20
2.412401574803149
 10
1.858267716535433
 20
2.412401574803149
  0
LINE
  5
223
330
1E
100
AcDbEntity
  8
0
100
AcDbLine
 10
1.854330708661417
 20
2.412401574803149
 30
0.0
 11
1.854330708661417
 21
2.39271653543307
 31
0.0
  0
LINE
  5
224
330
1E
100
AcDbEntity
  8
0
100
AcDbLine
 10
1.769685039370078
 20
2.412401574803149
 30
0.0
 11
1.854330708661417
 21
2.412401574803149
 31
0.0
  0
LINE
  5
225
330
1E
100
AcDbEntity
  8
0
100
AcDbLine
 10
1.769685039370078
 20
2.412401574803149
 30
0.0
 11
1.769685039370078
 21
2.39271653543307
 31
0.0
  0
LWPOLYLINE
  5
226
330
1E
100
AcDbEntity
  8
0
100
AcDbPolyline
 90
        3
 70
     0
 43
0.0
 10
1.769685039370078
 20
2.412401574803149
 10
1.761811023622047
 20
2.412401574803149
 10
1.758858267716535
 20
2.412401574803149
  0
LINE
  5
22B
330
1E
100
AcDbEntity
  8
0
100
AcDbLine
 10
1.758858267716535
 20
2.412401574803149
 30
0.0
 11
1.758858267716535
 21
2.39271653543307
 31
0.0
  0
LWPOLYLINE
  5
22C
330
1E
100
AcDbEntity
  8
0
100
AcDbPolyline
 90
        3
 70
     0
 43
0.0
 10
1.749015748031496
 20
2.412401574803149
 10
1.755905511811023
 20
2.412401574803149
 10
1.758858267716535
 20
2.412401574803149
  0
LINE
  5
231
330
1E
100
AcDbEntity
  8
0
100
AcDbLine
 10
1.749015748031496
 20
2.412401574803149
 30
0.0
 11
1.749015748031496
 21
2.39271653543307
 31
0.0
  0
LINE
  5
232
330
1E
100
AcDbEntity
  8
0
100
AcDbLine
 10
1.749015748031496
 20
2.412401574803149
 30
0.0
 11
1.595472440944881
 21
2.412401574803149
 31
0.0
  0
LINE
  5
233
330
1E
100
AcDbEntity
  8
0
100
AcDbLine
 10
1.595472440944881
 20
2.412401574803149
 30
0.0
 11
1.595472440944881
 21
2.39271653543307
 31
0.0
  0
LWPOLYLINE
  5
234
330
1E
100
AcDbEntity
  8
0
100
AcDbPolyline
 90
        3
 70
     0
 43
0.0
 10
1.585629921259842
 20
2.412401574803149
 10
1.588582677165354
 20
2.412401574803149
 10
1.595472440944881
 20
2.412401574803149
  0
LINE
  5
239
330
1E
100
AcDbEntity
  8
0
100
AcDbLine
 10
1.585629921259842
 20
2.412401574803149
 30
0.0
 11
1.585629921259842
 21
2.39271653543307
 31
0.0
  0
LINE
  5
23A
330
1E
100
AcDbEntity
  8
0
100
AcDbLine
 10
2.64271653543307
 20
2.412401574803149
 30
0.0
 11
2.643700787401574
 21
2.39271653543307
 31
0.0
  0
LWPOLYLINE
  5
23B
330
1E
100
AcDbEntity
  8
0
100
AcDbPolyline
 90
        5
 70
     0
 43
0.0
 10
2.590551181102362
 20
2.412401574803149
 10
2.61023622047244
 20
2.412401574803149
 10
2.626968503937007
 20
2.412401574803149
 10
2.638779527559055
 20
2.412401574803149
 10
2.64271653543307
 20
2.412401574803149
  0
LINE
  5
242
330
1E
100
AcDbEntity
  8
0
100
AcDbLine
 10
2.590551181102362
 20
2.412401574803149
 30
0.0
 11
2.590551181102362
 21
2.39271653543307
 31
0.0
  0
LINE
  5
243
330
1E
100
AcDbEntity
  8
0
100
AcDbLine
 10
2.590551181102362
 20
2.412401574803149
 30
0.0
 11
2.424212598425196
 21
2.412401574803149
 31
0.0
  0
LINE
  5
244
330
1E
100
AcDbEntity
  8
0
100
AcDbLine
 10
2.424212598425196
 20
2.412401574803149
 30
0.0
 11
2.424212598425196
 21
2.39271653543307
 31
0.0
  0
LINE
  5
245
330
1E
100
AcDbEntity
  8
0
100
AcDbLine
 10
2.748031496062992
 20
2.412401574803149
 30
0.0
 11
2.748031496062992
 21
2.39271653543307
 31
0.0
  0
LWPOLYLINE
  5
246
330
1E
100
AcDbEntity
  8
0
100
AcDbPolyline
 90
        5
 70
     0
 43
0.0
 10
2.695866141732283
 20
2.412401574803149
 10
2.699803149606299
 20
2.412401574803149
 10
2.710629921259842
 20
2.412401574803149
 10
2.727362204724409
 20
2.412401574803149
 10
2.748031496062992
 20
2.412401574803149
  0
LINE
  5
24D
330
1E
100
AcDbEntity
  8
0
100
AcDbLine
 10
2.695866141732283
 20
2.412401574803149
 30
0.0
 11
2.694881889763779
 21
2.39271653543307
 31
0.0
  0
LINE
  5
24E
330
1E
100
AcDbEntity
  8
0
100
AcDbLine
 10
2.853346456692913
 20
2.412401574803149
 30
0.0
 11
2.853346456692913
 21
2.39271653543307
 31
0.0
  0
LINE
  5
24F
330
1E
100
AcDbEntity
  8
0
100
AcDbLine
 10
2.748031496062992
 20
2.412401574803149
 30
0.0
 11
2.853346456692913
 21
2.412401574803149
 31
0.0
  0
LINE
  5
250
330
1E
100
AcDbEntity
  8
0
100
AcDbLine
 10
2.905511811023622
 20
2.412401574803149
 30
0.0
 11
2.906496062992125
 21
2.39271653543307
 31
0.0
  0
LWPOLYLINE
  5
251
330
1E
100
AcDbEntity
  8
0
100
AcDbPolyline
 90
        5
 70
     0
 43
0.0
 10
2.853346456692913
 20
2.412401574803149
 10
2.873031496062992
 20
2.412401574803149
 10
2.890748031496062
 20
2.412401574803149
 10
2.901574803149606
 20
2.412401574803149
 10
2.905511811023622
 20
2.412401574803149
  0
LINE
  5
258
330
1E
100
AcDbEntity
  8
0
100
AcDbLine
 10
3.036417322834645
 20
2.412401574803149
 30
0.0
 11
3.037401574803149
 21
2.39271653543307
 31
0.0
  0
LINE
  5
259
330
1E
100
AcDbEntity
  8
0
100
AcDbLine
 10
3.036417322834645
 20
2.412401574803149
 30
0.0
 11
2.958661417322834
 21
2.412401574803149
 31
0.0
  0
LINE
  5
25A
330
1E
100
AcDbEntity
  8
0
100
AcDbLine
 10
2.958661417322834
 20
2.412401574803149
 30
0.0
 11
2.95767716535433
 21
2.39271653543307
 31
0.0
  0
LINE
  5
25B
330
1E
100
AcDbEntity
  8
0
100
AcDbLine
 10
3.150590551181102
 20
2.412401574803149
 30
0.0
 11
3.149606299212598
 21
2.39271653543307
 31
0.0
  0
LINE
  5
25C
330
1E
100
AcDbEntity
  8
0
100
AcDbLine
 10
3.089566929133858
 20
2.412401574803149
 30
0.0
 11
3.150590551181102
 21
2.412401574803149
 31
0.0
  0
LINE
  5
25D
330
1E
100
AcDbEntity
  8
0
100
AcDbLine
 10
3.089566929133858
 20
2.412401574803149
 30
0.0
 11
3.088582677165354
 21
2.39271653543307
 31
0.0
  0
LINE
  5
25E
330
1E
100
AcDbEntity
  8
0
100
AcDbLine
 10
3.308070866141732
 20
2.412401574803149
 30
0.0
 11
3.308070866141732
 21
2.39271653543307
 31
0.0
  0
LINE
  5
25F
330
1E
100
AcDbEntity
  8
0
100
AcDbLine
 10
3.308070866141732
 20
2.412401574803149
 30
0.0
 11
3.239173228346456
 21
2.412401574803149
 31
0.0
  0
LINE
  5
260
330
1E
100
AcDbEntity
  8
0
100
AcDbLine
 10
3.239173228346456
 20
2.412401574803149
 30
0.0
 11
3.24015748031496
 21
2.39271653543307
 31
0.0
  0
LINE
  5
261
330
1E
100
AcDbEntity
  8
0
100
AcDbLine
 10
3.239173228346456
 20
2.412401574803149
 30
0.0
 11
3.150590551181102
 21
2.412401574803149
 31
0.0
  0
LWPOLYLINE
  5
262
330
1E
100
AcDbEntity
  8
0
100
AcDbPolyline
 90
        3
 70
     0
 43
0.0
 10
0.5255905511811024
 20
2.382874015748031
 10
0.5187007874015749
 20
2.382874015748031
 10
0.515748031496063
 20
2.382874015748031
  0
LWPOLYLINE
  5
267
330
1E
100
AcDbEntity
  8
0
100
AcDbPolyline
 90
        3
 70
     0
 43
0.0
 10
4.361220472440944
 20
2.382874015748031
 10
4.358267716535433
 20
2.382874015748031
 10
4.351377952755905
 20
2.382874015748031
  0
LWPOLYLINE
  5
26C
330
1E
100
AcDbEntity
  8
0
100
AcDbPolyline
 90
        3
 70
     0
 43
0.0
 10
4.351377952755905
 20
2.382874015748031
 10
4.351377952755905
 20
2.389763779527558
 10
4.351377952755905
 20
2.39271653543307
  0
LWPOLYLINE
  5
271
330
1E
100
AcDbEntity
  8
0
100
AcDbPolyline
 90
        3
 70
     0
 43
0.0
 10
4.351377952755905
 20
2.39271653543307
 10
4.358267716535433
 20
2.389763779527558
 10
4.361220472440944
 20
2.382874015748031
  0
LWPOLYLINE
  5
276
330
1E
100
AcDbEntity
  8
0
100
AcDbPolyline
 90
        3
 70
     0
 43
0.0
 10
0.5255905511811024
 20
2.382874015748031
 10
0.5255905511811024
 20
2.389763779527558
 10
0.5255905511811024
 20
2.39271653543307
  0
LWPOLYLINE
  5
27B
330
1E
100
AcDbEntity
  8
0
100
AcDbPolyline
 90
        3
 70
     0
 43
0.0
 10
0.515748031496063
 20
2.382874015748031
 10
0.5187007874015749
 20
2.389763779527558
 10
0.5255905511811024
 20
2.39271653543307
  0
LINE
  5
280
330
1E
100
AcDbEntity
  8
0
100
AcDbLine
 10
4.351377952755905
 20
3.886811023622047
 30
0.0
 11
0.5255905511811024
 21
3.886811023622047
 31
0.0
  0
LINE
  5
281
330
1E
100
AcDbEntity
  8
0
100
AcDbLine
 10
0.5255905511811024
 20
3.886811023622047
 30
0.0
 11
0.5255905511811024
 21
3.331692913385826
 31
0.0
  0
LINE
  5
282
330
1E
100
AcDbEntity
  8
0
100
AcDbLine
 10
0.5255905511811024
 20
3.331692913385826
 30
0.0
 11
4.351377952755905
 21
3.331692913385826
 31
0.0
  0
LINE
  5
283
330
1E
100
AcDbEntity
  8
0
100
AcDbLine
 10
4.351377952755905
 20
3.331692913385826
 30
0.0
 11
4.351377952755905
 21
3.886811023622047
 31
0.0
  0
LINE
  5
284
330
1E
100
AcDbEntity
  8
0
100
AcDbLine
 10
3.149606299212598
 20
3.441929133858267
 30
0.0
 11
3.149606299212598
 21
3.677165354330708
 31
0.0
  0
LINE
  5
285
330
1E
100
AcDbEntity
  8
0
100
AcDbLine
 10
3.088582677165354
 20
3.677165354330708
 30
0.0
 11
3.149606299212598
 21
3.677165354330708
 31
0.0
  0
LINE
  5
286
330
1E
100
AcDbEntity
  8
0
100
AcDbLine
 10
3.088582677165354
 20
3.738188976377952
 30
0.0
 11
3.088582677165354
 21
3.677165354330708
 31
0.0
  0
LINE
  5
287
330
1E
100
AcDbEntity
  8
0
100
AcDbLine
 10
3.088582677165354
 20
3.738188976377952
 30
0.0
 11
3.308070866141732
 21
3.738188976377952
 31
0.0
  0
LINE
  5
288
330
1E
100
AcDbEntity
  8
0
100
AcDbLine
 10
3.308070866141732
 20
3.677165354330708
 30
0.0
 11
3.308070866141732
 21
3.738188976377952
 31
0.0
  0
LINE
  5
289
330
1E
100
AcDbEntity
  8
0
100
AcDbLine
 10
3.308070866141732
 20
3.677165354330708
 30
0.0
 11
3.24015748031496
 21
3.677165354330708
 31
0.0
  0
LINE
  5
28A
330
1E
100
AcDbEntity
  8
0
100
AcDbLine
 10
3.24015748031496
 20
3.441929133858267
 30
0.0
 11
3.24015748031496
 21
3.677165354330708
 31
0.0
  0
LINE
  5
28B
330
1E
100
AcDbEntity
  8
0
100
AcDbLine
 10
3.24015748031496
 20
3.441929133858267
 30
0.0
 11
3.149606299212598
 21
3.441929133858267
 31
0.0
  0
LINE
  5
28C
330
1E
100
AcDbEntity
  8
0
100
AcDbLine
 10
3.037401574803149
 20
3.441929133858267
 30
0.0
 11
2.95767716535433
 21
3.441929133858267
 31
0.0
  0
LINE
  5
28D
330
1E
100
AcDbEntity
  8
0
100
AcDbLine
 10
2.95767716535433
 20
3.441929133858267
 30
0.0
 11
2.95767716535433
 21
3.738188976377952
 31
0.0
  0
LINE
  5
28E
330
1E
100
AcDbEntity
  8
0
100
AcDbLine
 10
2.95767716535433
 20
3.738188976377952
 30
0.0
 11
3.037401574803149
 21
3.738188976377952
 31
0.0
  0
LINE
  5
28F
330
1E
100
AcDbEntity
  8
0
100
AcDbLine
 10
3.037401574803149
 20
3.441929133858267
 30
0.0
 11
3.037401574803149
 21
3.738188976377952
 31
0.0
  0
LWPOLYLINE
  5
290
330
1E
100
AcDbEntity
  8
0
100
AcDbPolyline
 90
        5
 70
     0
 43
0.0
 10
2.694881889763779
 20
3.49507874015748
 10
2.698818897637795
 20
3.474409448818897
 10
2.710629921259842
 20
3.456692913385826
 10
2.727362204724409
 20
3.445866141732283
 10
2.748031496062992
 20
3.441929133858267
  0
LINE
  5
297
330
1E
100
AcDbEntity
  8
0
100
AcDbLine
 10
2.694881889763779
 20
3.49507874015748
 30
0.0
 11
2.694881889763779
 21
3.738188976377952
 31
0.0
  0
LINE
  5
298
330
1E
100
AcDbEntity
  8
0
100
AcDbLine
 10
2.694881889763779
 20
3.738188976377952
 30
0.0
 11
2.792322834645669
 21
3.738188976377952
 31
0.0
  0
LINE
  5
299
330
1E
100
AcDbEntity
  8
0
100
AcDbLine
 10
2.792322834645669
 20
3.738188976377952
 30
0.0
 11
2.792322834645669
 21
3.524606299212598
 31
0.0
  0
LWPOLYLINE
  5
29A
330
1E
100
AcDbEntity
  8
0
100
AcDbPolyline
 90
        3
 70
     0
 43
0.0
 10
2.792322834645669
 20
3.524606299212598
 10
2.797244094488188
 20
3.513779527559055
 10
2.808070866141732
 20
3.509842519685039
  0
LINE
  5
29F
330
1E
100
AcDbEntity
  8
0
100
AcDbLine
 10
2.808070866141732
 20
3.509842519685039
 30
0.0
 11
2.829724409448818
 21
3.509842519685039
 31
0.0
  0
LWPOLYLINE
  5
2A0
330
1E
100
AcDbEntity
  8
0
100
AcDbPolyline
 90
        3
 70
     0
 43
0.0
 10
2.829724409448818
 20
3.509842519685039
 10
2.839566929133858
 20
3.513779527559055
 10
2.844488188976377
 20
3.524606299212598
  0
LINE
  5
2A5
330
1E
100
AcDbEntity
  8
0
100
AcDbLine
 10
2.844488188976377
 20
3.524606299212598
 30
0.0
 11
2.844488188976377
 21
3.738188976377952
 31
0.0
  0
LINE
  5
2A6
330
1E
100
AcDbEntity
  8
0
100
AcDbLine
 10
2.844488188976377
 20
3.738188976377952
 30
0.0
 11
2.906496062992125
 21
3.738188976377952
 31
0.0
  0
LINE
  5
2A7
330
1E
100
AcDbEntity
  8
0
100
AcDbLine
 10
2.906496062992125
 20
3.738188976377952
 30
0.0
 11
2.906496062992125
 21
3.49507874015748
 31
0.0
  0
LWPOLYLINE
  5
2A8
330
1E
100
AcDbEntity
  8
0
100
AcDbPolyline
 90
        5
 70
     0
 43
0.0
 10
2.853346456692913
 20
3.441929133858267
 10
2.874015748031495
 20
3.445866141732283
 10
2.890748031496062
 20
3.456692913385826
 10
2.90255905511811
 20
3.474409448818897
 10
2.906496062992125
 20
3.49507874015748
  0
LINE
  5
2AF
330
1E
100
AcDbEntity
  8
0
100
AcDbLine
 10
2.748031496062992
 20
3.441929133858267
 30
0.0
 11
2.853346456692913
 21
3.441929133858267
 31
0.0
  0
LINE
  5
2B0
330
1E
100
AcDbEntity
  8
0
100
AcDbLine
 10
2.643700787401574
 20
3.68503937007874
 30
0.0
 11
2.643700787401574
 21
3.49507874015748
 31
0.0
  0
LWPOLYLINE
  5
2B1
330
1E
100
AcDbEntity
  8
0
100
AcDbPolyline
 90
        5
 70
     0
 43
0.0
 10
2.590551181102362
 20
3.441929133858267
 10
2.61023622047244
 20
3.445866141732283
 10
2.627952755905511
 20
3.456692913385826
 10
2.638779527559055
 20
3.474409448818897
 10
2.643700787401574
 20
3.49507874015748
  0
LINE
  5
2B8
330
1E
100
AcDbEntity
  8
0
100
AcDbLine
 10
2.590551181102362
 20
3.441929133858267
 30
0.0
 11
2.424212598425196
 21
3.441929133858267
 31
0.0
  0
LINE
  5
2B9
330
1E
100
AcDbEntity
  8
0
100
AcDbLine
 10
2.424212598425196
 20
3.441929133858267
 30
0.0
 11
2.424212598425196
 21
3.738188976377952
 31
0.0
  0
LINE
  5
2BA
330
1E
100
AcDbEntity
  8
0
100
AcDbLine
 10
2.424212598425196
 20
3.738188976377952
 30
0.0
 11
2.590551181102362
 21
3.738188976377952
 31
0.0
  0
LWPOLYLINE
  5
2BB
330
1E
100
AcDbEntity
  8
0
100
AcDbPolyline
 90
        5
 70
     0
 43
0.0
 10
2.643700787401574
 20
3.68503937007874
 10
2.638779527559055
 20
3.705708661417322
 10
2.627952755905511
 20
3.722440944881889
 10
2.61023622047244
 20
3.734251968503937
 10
2.590551181102362
 20
3.738188976377952
  0
LINE
  5
2C2
330
1E
100
AcDbEntity
  8
0
100
AcDbLine
 10
2.144685039370078
 20
3.545275590551181
 30
0.0
 11
2.144685039370078
 21
3.738188976377952
 31
0.0
  0
LINE
  5
2C3
330
1E
100
AcDbEntity
  8
0
100
AcDbLine
 10
2.144685039370078
 20
3.738188976377952
 30
0.0
 11
2.244094488188976
 21
3.738188976377952
 31
0.0
  0
LINE
  5
2C4
330
1E
100
AcDbEntity
  8
0
100
AcDbLine
 10
2.296259842519685
 20
3.630905511811023
 30
0.0
 11
2.244094488188976
 21
3.738188976377952
 31
0.0
  0
LINE
  5
2C5
330
1E
100
AcDbEntity
  8
0
100
AcDbLine
 10
2.296259842519685
 20
3.630905511811023
 30
0.0
 11
2.296259842519685
 21
3.738188976377952
 31
0.0
  0
LINE
  5
2C6
330
1E
100
AcDbEntity
  8
0
100
AcDbLine
 10
2.296259842519685
 20
3.738188976377952
 30
0.0
 11
2.372047244094487
 21
3.738188976377952
 31
0.0
  0
LINE
  5
2C7
330
1E
100
AcDbEntity
  8
0
100
AcDbLine
 10
2.372047244094487
 20
3.738188976377952
 30
0.0
 11
2.372047244094487
 21
3.441929133858267
 31
0.0
  0
LINE
  5
2C8
330
1E
100
AcDbEntity
  8
0
100
AcDbLine
 10
2.372047244094487
 20
3.441929133858267
 30
0.0
 11
2.28248031496063
 21
3.441929133858267
 31
0.0
  0
LINE
  5
2C9
330
1E
100
AcDbEntity
  8
0
100
AcDbLine
 10
2.228346456692913
 20
3.567913385826771
 30
0.0
 11
2.28248031496063
 21
3.441929133858267
 31
0.0
  0
LINE
  5
2CA
330
1E
100
AcDbEntity
  8
0
100
AcDbLine
 10
2.228346456692913
 20
3.441929133858267
 30
0.0
 11
2.228346456692913
 21
3.567913385826771
 31
0.0
  0
LINE
  5
2CB
330
1E
100
AcDbEntity
  8
0
100
AcDbLine
 10
2.228346456692913
 20
3.441929133858267
 30
0.0
 11
2.095472440944881
 21
3.441929133858267
 31
0.0
  0
LINE
  5
2CC
330
1E
100
AcDbEntity
  8
0
100
AcDbLine
 10
2.074803149606299
 20
3.484251968503937
 30
0.0
 11
2.095472440944881
 21
3.441929133858267
 31
0.0
  0
LINE
  5
2CD
330
1E
100
AcDbEntity
  8
0
100
AcDbLine
 10
1.96259842519685
 20
3.484251968503937
 30
0.0
 11
2.074803149606299
 21
3.484251968503937
 31
0.0
  0
LINE
  5
2CE
330
1E
100
AcDbEntity
  8
0
100
AcDbLine
 10
1.943897637795275
 20
3.441929133858267
 30
0.0
 11
1.96259842519685
 21
3.484251968503937
 31
0.0
  0
LINE
  5
2CF
330
1E
100
AcDbEntity
  8
0
100
AcDbLine
 10
1.943897637795275
 20
3.441929133858267
 30
0.0
 11
1.856299212598425
 21
3.441929133858267
 31
0.0
  0
LINE
  5
2D0
330
1E
100
AcDbEntity
  8
0
100
AcDbLine
 10
1.856299212598425
 20
3.441929133858267
 30
0.0
 11
1.912401574803149
 21
3.575787401574803
 31
0.0
  0
LWPOLYLINE
  5
2D1
330
1E
100
AcDbEntity
  8
0
100
AcDbPolyline
 90
        3
 70
     0
 43
0.0
 10
1.854330708661417
 20
3.562992125984251
 10
1.883858267716535
 20
3.565944881889763
 10
1.912401574803149
 20
3.575787401574803
  0
LINE
  5
2D6
330
1E
100
AcDbEntity
  8
0
100
AcDbLine
 10
1.769685039370078
 20
3.562992125984251
 30
0.0
 11
1.854330708661417
 21
3.562992125984251
 31
0.0
  0
LWPOLYLINE
  5
2D7
330
1E
100
AcDbEntity
  8
0
100
AcDbPolyline
 90
        3
 70
     0
 43
0.0
 10
1.769685039370078
 20
3.562992125984251
 10
1.761811023622047
 20
3.56003937007874
 10
1.758858267716535
 20
3.552165354330708
  0
LINE
  5
2DC
330
1E
100
AcDbEntity
  8
0
100
AcDbLine
 10
1.758858267716535
 20
3.552165354330708
 30
0.0
 11
1.758858267716535
 21
3.451771653543306
 31
0.0
  0
LWPOLYLINE
  5
2DD
330
1E
100
AcDbEntity
  8
0
100
AcDbPolyline
 90
        3
 70
     0
 43
0.0
 10
1.749015748031496
 20
3.441929133858267
 10
1.755905511811023
 20
3.444881889763779
 10
1.758858267716535
 20
3.451771653543306
  0
LINE
  5
2E2
330
1E
100
AcDbEntity
  8
0
100
AcDbLine
 10
1.749015748031496
 20
3.441929133858267
 30
0.0
 11
1.595472440944881
 21
3.441929133858267
 31
0.0
  0
LWPOLYLINE
  5
2E3
330
1E
100
AcDbEntity
  8
0
100
AcDbPolyline
 90
        3
 70
     0
 43
0.0
 10
1.585629921259842
 20
3.451771653543306
 10
1.588582677165354
 20
3.444881889763779
 10
1.595472440944881
 20
3.441929133858267
  0
LINE
  5
2E8
330
1E
100
AcDbEntity
  8
0
100
AcDbLine
 10
1.585629921259842
 20
3.451771653543306
 30
0.0
 11
1.585629921259842
 21
3.818897637795275
 31
0.0
  0
LWPOLYLINE
  5
2E9
330
1E
100
AcDbEntity
  8
0
100
AcDbPolyline
 90
        3
 70
     0
 43
0.0
 10
1.595472440944881
 20
3.828740157480314
 10
1.588582677165354
 20
3.825787401574803
 10
1.585629921259842
 20
3.818897637795275
  0
LINE
  5
2EE
330
1E
100
AcDbEntity
  8
0
100
AcDbLine
 10
1.595472440944881
 20
3.828740157480314
 30
0.0
 11
1.854330708661417
 21
3.828740157480314
 31
0.0
  0
LWPOLYLINE
  5
2EF
330
1E
100
AcDbEntity
  8
0
100
AcDbPolyline
 90
        6
 70
     0
 43
0.0
 10
1.980314960629921
 20
3.738188976377952
 10
1.965551181102362
 20
3.76771653543307
 10
1.944881889763779
 20
3.793307086614173
 10
1.918307086614173
 20
3.812992125984251
 10
1.886811023622047
 20
3.824803149606299
 10
1.854330708661417
 20
3.828740157480314
  0
LINE
  5
2F7
330
1E
100
AcDbEntity
  8
0
100
AcDbLine
 10
1.980314960629921
 20
3.738188976377952
 30
0.0
 11
2.058070866141732
 21
3.738188976377952
 31
0.0
  0
LINE
  5
2F8
330
1E
100
AcDbEntity
  8
0
100
AcDbLine
 10
2.058070866141732
 20
3.738188976377952
 30
0.0
 11
2.144685039370078
 21
3.545275590551181
 31
0.0
  0
LINE
  5
2F9
330
1E
100
AcDbEntity
  8
0
100
AcDbLine
 10
0.4438976377952756
 20
4.057086614173228
 30
0.0
 11
4.432086614173228
 21
4.057086614173228
 31
0.0
  0
LWPOLYLINE
  5
2FA
330
1E
100
AcDbEntity
  8
0
100
AcDbPolyline
 90
        4
 70
     0
 43
0.0
 10
0.4133858267716536
 20
4.026574803149606
 10
0.4183070866141733
 20
4.041338582677165
 10
0.4291338582677166
 20
4.053149606299212
 10
0.4438976377952756
 20
4.057086614173228
  0
LINE
  5
300
330
1E
100
AcDbEntity
  8
0
100
AcDbLine
 10
0.4133858267716536
 20
3.28248031496063
 30
0.0
 11
0.4133858267716536
 21
4.026574803149606
 31
0.0
  0
LWPOLYLINE
  5
301
330
1E
100
AcDbEntity
  8
0
100
AcDbPolyline
 90
        4
 70
     0
 43
0.0
 10
0.4438976377952756
 20
3.252952755905511
 10
0.4291338582677166
 20
3.256889763779527
 10
0.4183070866141733
 20
3.26771653543307
 10
0.4133858267716536
 20
3.28248031496063
  0
LINE
  5
307
330
1E
100
AcDbEntity
  8
0
100
AcDbLine
 10
0.4438976377952756
 20
3.252952755905511
 30
0.0
 11
4.432086614173228
 21
3.252952755905511
 31
0.0
  0
LWPOLYLINE
  5
308
330
1E
100
AcDbEntity
  8
0
100
AcDbPolyline
 90
        4
 70
     0
 43
0.0
 10
4.432086614173228
 20
3.252952755905511
 10
4.447834645669291
 20
3.256889763779527
 10
4.458661417322834
 20
3.26771653543307
 10
4.46259842519685
 20
3.28248031496063
  0
LINE
  5
30E
330
1E
100
AcDbEntity
  8
0
100
AcDbLine
 10
4.46259842519685
 20
3.28248031496063
 30
0.0
 11
4.46259842519685
 21
4.026574803149606
 31
0.0
  0
LWPOLYLINE
  5
30F
330
1E
100
AcDbEntity
  8
0
100
AcDbPolyline
 90
        4
 70
     0
 43
0.0
 10
4.46259842519685
 20
4.026574803149606
 10
4.458661417322834
 20
4.041338582677165
 10
4.447834645669291
 20
4.053149606299212
 10
4.432086614173228
 20
4.057086614173228
  0
LINE
  5
315
330
1E
100
AcDbEntity
  8
0
100
AcDbLine
 10
0.5255905511811024
 20
3.321850393700787
 30
0.0
 11
4.351377952755905
 21
3.321850393700787
 31
0.0
  0
LWPOLYLINE
  5
316
330
1E
100
AcDbEntity
  8
0
100
AcDbPolyline
 90
        3
 70
     0
 43
0.0
 10
0.5255905511811024
 20
3.321850393700787
 10
0.5177165354330709
 20
3.324803149606299
 10
0.5147637795275591
 20
3.331692913385826
  0
LINE
  5
31B
330
1E
100
AcDbEntity
  8
0
100
AcDbLine
 10
0.5147637795275591
 20
3.331692913385826
 30
0.0
 11
0.5147637795275591
 21
3.886811023622047
 31
0.0
  0
LWPOLYLINE
  5
31C
330
1E
100
AcDbEntity
  8
0
100
AcDbPolyline
 90
        3
 70
     0
 43
0.0
 10
0.5147637795275591
 20
3.886811023622047
 10
0.5177165354330709
 20
3.893700787401574
 10
0.5255905511811024
 20
3.896653543307086
  0
LINE
  5
321
330
1E
100
AcDbEntity
  8
0
100
AcDbLine
 10
0.5255905511811024
 20
3.896653543307086
 30
0.0
 11
4.351377952755905
 21
3.896653543307086
 31
0.0
  0
LWPOLYLINE
  5
322
330
1E
100
AcDbEntity
  8
0
100
AcDbPolyline
 90
        3
 70
     0
 43
0.0
 10
4.351377952755905
 20
3.896653543307086
 10
4.358267716535433
 20
3.893700787401574
 10
4.361220472440944
 20
3.886811023622047
  0
LINE
  5
327
330
1E
100
AcDbEntity
  8
0
100
AcDbLine
 10
4.361220472440944
 20
3.331692913385826
 30
0.0
 11
4.361220472440944
 21
3.886811023622047
 31
0.0
  0
LWPOLYLINE
  5
328
330
1E
100
AcDbEntity
  8
0
100
AcDbPolyline
 90
        3
 70
     0
 43
0.0
 10
4.361220472440944
 20
3.331692913385826
 10
4.358267716535433
 20
3.324803149606299
 10
4.351377952755905
 20
3.321850393700787
  0
LINE
  5
32D
330
1E
100
AcDbEntity
  8
0
100
AcDbLine
 10
4.475393700787401
 20
3.591535433070866
 30
0.0
 11
4.475393700787401
 21
3.928149606299212
 31
0.0
  0
LWPOLYLINE
  5
32E
330
1E
100
AcDbEntity
  8
0
100
AcDbPolyline
 90
        4
 70
     0
 43
0.0
 10
4.475393700787401
 20
3.591535433070866
 10
4.476377952755905
 20
3.586614173228346
 10
4.480314960629921
 20
3.58267716535433
 10
4.48523622047244
 20
3.581692913385826
  0
LINE
  5
334
330
1E
100
AcDbEntity
  8
0
100
AcDbLine
 10
4.510826771653543
 20
3.581692913385826
 30
0.0
 11
4.48523622047244
 21
3.581692913385826
 31
0.0
  0
LINE
  5
335
330
1E
100
AcDbEntity
  8
0
100
AcDbLine
 10
4.510826771653543
 20
3.581692913385826
 30
0.0
 11
4.510826771653543
 21
3.659448818897637
 31
0.0
  0
LINE
  5
336
330
1E
100
AcDbEntity
  8
0
100
AcDbLine
 10
4.510826771653543
 20
3.659448818897637
 30
0.0
 11
4.493110236220472
 21
3.660433070866141
 31
0.0
  0
LINE
  5
337
330
1E
100
AcDbEntity
  8
0
100
AcDbLine
 10
4.493110236220472
 20
3.660433070866141
 30
0.0
 11
4.493110236220472
 21
3.814960629921259
 31
0.0
  0
LINE
  5
338
330
1E
100
AcDbEntity
  8
0
100
AcDbLine
 10
4.510826771653543
 20
3.815944881889763
 30
0.0
 11
4.493110236220472
 21
3.814960629921259
 31
0.0
  0
LINE
  5
339
330
1E
100
AcDbEntity
  8
0
100
AcDbLine
 10
4.510826771653543
 20
3.815944881889763
 30
0.0
 11
4.510826771653543
 21
3.937007874015748
 31
0.0
  0
LINE
  5
33A
330
1E
100
AcDbEntity
  8
0
100
AcDbLine
 10
4.48523622047244
 20
3.937992125984251
 30
0.0
 11
4.510826771653543
 21
3.937007874015748
 31
0.0
  0
LWPOLYLINE
  5
33B
330
1E
100
AcDbEntity
  8
0
100
AcDbPolyline
 90
        4
 70
     0
 43
0.0
 10
4.48523622047244
 20
3.937992125984251
 10
4.480314960629921
 20
3.936023622047244
 10
4.476377952755905
 20
3.933070866141732
 10
4.475393700787401
 20
3.928149606299212
  0
LINE
  5
341
330
1E
100
AcDbEntity
  8
0
100
AcDbLine
 10
4.468503937007874
 20
3.381889763779527
 30
0.0
 11
4.468503937007874
 21
3.584645669291338
 31
0.0
  0
LINE
  5
342
330
1E
100
AcDbEntity
  8
0
100
AcDbLine
 10
4.468503937007874
 20
3.584645669291338
 30
0.0
 11
4.475393700787401
 21
3.591535433070866
 31
0.0
  0
LINE
  5
343
330
1E
100
AcDbEntity
  8
0
100
AcDbLine
 10
4.475393700787401
 20
3.928149606299212
 30
0.0
 11
4.463582677165354
 21
3.938976377952755
 31
0.0
  0
LWPOLYLINE
  5
344
330
1E
100
AcDbEntity
  8
0
100
AcDbPolyline
 90
        4
 70
     0
 43
0.0
 10
4.463582677165354
 20
3.938976377952755
 10
4.463582677165354
 20
3.941929133858267
 10
4.463582677165354
 20
3.951771653543307
 10
4.463582677165354
 20
3.963582677165354
  0
LINE
  5
34A
330
1E
100
AcDbEntity
  8
0
100
AcDbLine
 10
4.463582677165354
 20
3.963582677165354
 30
0.0
 11
4.463582677165354
 21
3.977362204724409
 31
0.0
  0
LWPOLYLINE
  5
34B
330
1E
100
AcDbEntity
  8
0
100
AcDbPolyline
 90
        4
 70
     0
 43
0.0
 10
4.463582677165354
 20
3.977362204724409
 10
4.463582677165354
 20
3.99015748031496
 10
4.463582677165354
 20
3.999015748031495
 10
4.463582677165354
 20
4.002952755905512
  0
LINE
  5
351
330
1E
100
AcDbEntity
  8
0
100
AcDbLine
 10
4.463582677165354
 20
4.002952755905512
 30
0.0
 11
4.468503937007874
 21
4.006889763779527
 31
0.0
  0
LINE
  5
352
330
1E
100
AcDbEntity
  8
0
100
AcDbLine
 10
4.468503937007874
 20
4.006889763779527
 30
0.0
 11
4.468503937007874
 21
4.029527559055117
 31
0.0
  0
LINE
  5
353
330
1E
100
AcDbEntity
  8
0
100
AcDbLine
 10
4.468503937007874
 20
4.029527559055117
 30
0.0
 11
4.46259842519685
 21
4.026574803149606
 31
0.0
  0
LINE
  5
354
330
1E
100
AcDbEntity
  8
0
100
AcDbLine
 10
4.46259842519685
 20
3.28248031496063
 30
0.0
 11
4.468503937007874
 21
3.279527559055118
 31
0.0
  0
LINE
  5
355
330
1E
100
AcDbEntity
  8
0
100
AcDbLine
 10
4.468503937007874
 20
3.279527559055118
 30
0.0
 11
4.468503937007874
 21
3.302165354330708
 31
0.0
  0
LINE
  5
356
330
1E
100
AcDbEntity
  8
0
100
AcDbLine
 10
4.468503937007874
 20
3.302165354330708
 30
0.0
 11
4.463582677165354
 21
3.307086614173228
 31
0.0
  0
LWPOLYLINE
  5
357
330
1E
100
AcDbEntity
  8
0
100
AcDbPolyline
 90
        4
 70
     0
 43
0.0
 10
4.463582677165354
 20
3.307086614173228
 10
4.463582677165354
 20
3.31003937007874
 10
4.463582677165354
 20
3.318897637795275
 10
4.463582677165354
 20
3.331692913385826
  0
LINE
  5
35D
330
1E
100
AcDbEntity
  8
0
100
AcDbLine
 10
4.463582677165354
 20
3.331692913385826
 30
0.0
 11
4.463582677165354
 21
3.352362204724409
 31
0.0
  0
LWPOLYLINE
  5
35E
330
1E
100
AcDbEntity
  8
0
100
AcDbPolyline
 90
        4
 70
     0
 43
0.0
 10
4.463582677165354
 20
3.352362204724409
 10
4.463582677165354
 20
3.36515748031496
 10
4.463582677165354
 20
3.374015748031495
 10
4.463582677165354
 20
3.377952755905511
  0
LINE
  5
364
330
1E
100
AcDbEntity
  8
0
100
AcDbLine
 10
4.463582677165354
 20
3.377952755905511
 30
0.0
 11
4.468503937007874
 21
3.381889763779527
 31
0.0
  0
LINE
  5
365
330
1E
100
AcDbEntity
  8
0
100
AcDbLine
 10
4.432086614173228
 20
4.057086614173228
 30
0.0
 11
4.437992125984251
 21
4.060039370078739
 31
0.0
  0
LINE
  5
366
330
1E
100
AcDbEntity
  8
0
100
AcDbLine
 10
4.437992125984251
 20
4.060039370078739
 30
0.0
 11
0.437992125984252
 21
4.060039370078739
 31
0.0
  0
LINE
  5
367
330
1E
100
AcDbEntity
  8
0
100
AcDbLine
 10
0.4438976377952756
 20
4.057086614173228
 30
0.0
 11
0.437992125984252
 21
4.060039370078739
 31
0.0
  0
LINE
  5
368
330
1E
100
AcDbEntity
  8
0
100
AcDbLine
 10
0.437992125984252
 20
3.25
 30
0.0
 11
4.437992125984251
 21
3.25
 31
0.0
  0
LINE
  5
369
330
1E
100
AcDbEntity
  8
0
100
AcDbLine
 10
4.437992125984251
 20
3.25
 30
0.0
 11
4.432086614173228
 21
3.252952755905511
 31
0.0
  0
LINE
  5
36A
330
1E
100
AcDbEntity
  8
0
100
AcDbLine
 10
0.437992125984252
 20
3.25
 30
0.0
 11
0.4438976377952756
 21
3.252952755905511
 31
0.0
  0
LINE
  5
36B
330
1E
100
AcDbEntity
  8
0
100
AcDbLine
 10
4.513779527559054
 20
3.352362204724409
 30
0.0
 11
4.473425196850393
 21
3.352362204724409
 31
0.0
  0
LINE
  5
36C
330
1E
100
AcDbEntity
  8
0
100
AcDbLine
 10
4.473425196850393
 20
3.352362204724409
 30
0.0
 11
4.473425196850393
 21
3.331692913385826
 31
0.0
  0
LINE
  5
36D
330
1E
100
AcDbEntity
  8
0
100
AcDbLine
 10
4.473425196850393
 20
3.331692913385826
 30
0.0
 11
4.513779527559054
 21
3.331692913385826
 31
0.0
  0
LINE
  5
36E
330
1E
100
AcDbEntity
  8
0
100
AcDbLine
 10
4.513779527559054
 20
3.331692913385826
 30
0.0
 11
4.513779527559054
 21
3.352362204724409
 31
0.0
  0
LINE
  5
36F
330
1E
100
AcDbEntity
  8
0
100
AcDbLine
 10
4.478346456692912
 20
3.372047244094487
 30
0.0
 11
4.51771653543307
 21
3.372047244094487
 31
0.0
  0
LINE
  5
370
330
1E
100
AcDbEntity
  8
0
100
AcDbLine
 10
4.478346456692912
 20
3.372047244094487
 30
0.0
 11
4.473425196850393
 21
3.368110236220472
 31
0.0
  0
LINE
  5
371
330
1E
100
AcDbEntity
  8
0
100
AcDbLine
 10
4.473425196850393
 20
3.368110236220472
 30
0.0
 11
4.513779527559054
 21
3.368110236220472
 31
0.0
  0
LINE
  5
372
330
1E
100
AcDbEntity
  8
0
100
AcDbLine
 10
4.513779527559054
 20
3.368110236220472
 30
0.0
 11
4.51771653543307
 21
3.372047244094487
 31
0.0
  0
LINE
  5
373
330
1E
100
AcDbEntity
  8
0
100
AcDbLine
 10
4.51771653543307
 20
3.372047244094487
 30
0.0
 11
4.51771653543307
 21
3.372047244094487
 31
0.0
  0
LINE
  5
374
330
1E
100
AcDbEntity
  8
0
100
AcDbLine
 10
4.513779527559054
 20
3.316929133858267
 30
0.0
 11
4.473425196850393
 21
3.316929133858267
 31
0.0
  0
LINE
  5
375
330
1E
100
AcDbEntity
  8
0
100
AcDbLine
 10
4.473425196850393
 20
3.316929133858267
 30
0.0
 11
4.478346456692912
 21
3.312007874015748
 31
0.0
  0
LINE
  5
376
330
1E
100
AcDbEntity
  8
0
100
AcDbLine
 10
4.478346456692912
 20
3.312007874015748
 30
0.0
 11
4.51771653543307
 21
3.312007874015748
 31
0.0
  0
LINE
  5
377
330
1E
100
AcDbEntity
  8
0
100
AcDbLine
 10
4.51771653543307
 20
3.312007874015748
 30
0.0
 11
4.513779527559054
 21
3.316929133858267
 31
0.0
  0
LINE
  5
378
330
1E
100
AcDbEntity
  8
0
100
AcDbLine
 10
4.513779527559054
 20
3.977362204724409
 30
0.0
 11
4.473425196850393
 21
3.977362204724409
 31
0.0
  0
LINE
  5
379
330
1E
100
AcDbEntity
  8
0
100
AcDbLine
 10
4.473425196850393
 20
3.977362204724409
 30
0.0
 11
4.473425196850393
 21
3.963582677165354
 31
0.0
  0
LINE
  5
37A
330
1E
100
AcDbEntity
  8
0
100
AcDbLine
 10
4.473425196850393
 20
3.963582677165354
 30
0.0
 11
4.513779527559054
 21
3.963582677165354
 31
0.0
  0
LINE
  5
37B
330
1E
100
AcDbEntity
  8
0
100
AcDbLine
 10
4.513779527559054
 20
3.963582677165354
 30
0.0
 11
4.513779527559054
 21
3.977362204724409
 31
0.0
  0
LINE
  5
37C
330
1E
100
AcDbEntity
  8
0
100
AcDbLine
 10
4.513779527559054
 20
3.948818897637795
 30
0.0
 11
4.473425196850393
 21
3.948818897637795
 31
0.0
  0
LINE
  5
37D
330
1E
100
AcDbEntity
  8
0
100
AcDbLine
 10
4.473425196850393
 20
3.948818897637795
 30
0.0
 11
4.48523622047244
 21
3.937992125984251
 31
0.0
  0
LINE
  5
37E
330
1E
100
AcDbEntity
  8
0
100
AcDbLine
 10
4.510826771653543
 20
3.937007874015748
 30
0.0
 11
4.51771653543307
 21
3.944881889763779
 31
0.0
  0
LINE
  5
37F
330
1E
100
AcDbEntity
  8
0
100
AcDbLine
 10
4.51771653543307
 20
3.944881889763779
 30
0.0
 11
4.513779527559054
 21
3.948818897637795
 31
0.0
  0
LWPOLYLINE
  5
380
330
1E
100
AcDbEntity
  8
0
100
AcDbPolyline
 90
        3
 70
     0
 43
0.0
 10
4.468503937007874
 20
3.381889763779527
 10
4.471456692913386
 20
3.375
 10
4.478346456692912
 20
3.372047244094487
  0
LINE
  5
385
330
1E
100
AcDbEntity
  8
0
100
AcDbLine
 10
4.51771653543307
 20
3.372047244094487
 30
0.0
 11
4.51771653543307
 21
3.574803149606299
 31
0.0
  0
LINE
  5
386
330
1E
100
AcDbEntity
  8
0
100
AcDbLine
 10
4.478346456692912
 20
3.574803149606299
 30
0.0
 11
4.51771653543307
 21
3.574803149606299
 31
0.0
  0
LWPOLYLINE
  5
387
330
1E
100
AcDbEntity
  8
0
100
AcDbPolyline
 90
        3
 70
     0
 43
0.0
 10
4.478346456692912
 20
3.574803149606299
 10
4.471456692913386
 20
3.577755905511811
 10
4.468503937007874
 20
3.584645669291338
  0
LINE
  5
38C
330
1E
100
AcDbEntity
  8
0
100
AcDbLine
 10
4.48523622047244
 20
3.581692913385826
 30
0.0
 11
4.478346456692912
 21
3.574803149606299
 31
0.0
  0
LINE
  5
38D
330
1E
100
AcDbEntity
  8
0
100
AcDbLine
 10
4.51771653543307
 20
3.574803149606299
 30
0.0
 11
4.510826771653543
 21
3.581692913385826
 31
0.0
  0
LINE
  5
38E
330
1E
100
AcDbEntity
  8
0
100
AcDbLine
 10
0.5255905511811024
 20
3.896653543307086
 30
0.0
 11
0.5255905511811024
 21
3.896653543307086
 31
0.0
  0
LINE
  5
38F
330
1E
100
AcDbEntity
  8
0
100
AcDbLine
 10
0.5255905511811024
 20
3.896653543307086
 30
0.0
 11
4.351377952755905
 21
3.896653543307086
 31
0.0
  0
LINE
  5
390
330
1E
100
AcDbEntity
  8
0
100
AcDbLine
 10
4.351377952755905
 20
3.896653543307086
 30
0.0
 11
4.351377952755905
 21
3.896653543307086
 31
0.0
  0
LINE
  5
391
330
1E
100
AcDbEntity
  8
0
100
AcDbLine
 10
4.361220472440944
 20
3.886811023622047
 30
0.0
 11
4.361220472440944
 21
3.886811023622047
 31
0.0
  0
LINE
  5
392
330
1E
100
AcDbEntity
  8
0
100
AcDbLine
 10
4.361220472440944
 20
3.886811023622047
 30
0.0
 11
4.361220472440944
 21
3.331692913385826
 31
0.0
  0
LINE
  5
393
330
1E
100
AcDbEntity
  8
0
100
AcDbLine
 10
4.361220472440944
 20
3.331692913385826
 30
0.0
 11
4.361220472440944
 21
3.331692913385826
 31
0.0
  0
LINE
  5
394
330
1E
100
AcDbEntity
  8
0
100
AcDbLine
 10
4.351377952755905
 20
3.321850393700787
 30
0.0
 11
4.351377952755905
 21
3.321850393700787
 31
0.0
  0
LINE
  5
395
330
1E
100
AcDbEntity
  8
0
100
AcDbLine
 10
4.351377952755905
 20
3.321850393700787
 30
0.0
 11
0.5255905511811024
 21
3.321850393700787
 31
0.0
  0
LINE
  5
396
330
1E
100
AcDbEntity
  8
0
100
AcDbLine
 10
0.5255905511811024
 20
3.321850393700787
 30
0.0
 11
0.5255905511811024
 21
3.321850393700787
 31
0.0
  0
LINE
  5
397
330
1E
100
AcDbEntity
  8
0
100
AcDbLine
 10
4.51771653543307
 20
3.944881889763779
 30
0.0
 11
4.51771653543307
 21
3.997047244094487
 31
0.0
  0
LINE
  5
398
330
1E
100
AcDbEntity
  8
0
100
AcDbLine
 10
4.51771653543307
 20
3.312007874015748
 30
0.0
 11
4.51771653543307
 21
3.372047244094487
 31
0.0
  0
LINE
  5
399
330
1E
100
AcDbEntity
  8
0
100
AcDbLine
 10
4.51771653543307
 20
3.997047244094487
 30
0.0
 11
4.478346456692912
 21
3.997047244094487
 31
0.0
  0
LINE
  5
39A
330
1E
100
AcDbEntity
  8
0
100
AcDbLine
 10
4.478346456692912
 20
3.997047244094487
 30
0.0
 11
4.473425196850393
 21
3.993110236220472
 31
0.0
  0
LINE
  5
39B
330
1E
100
AcDbEntity
  8
0
100
AcDbLine
 10
4.473425196850393
 20
3.993110236220472
 30
0.0
 11
4.513779527559054
 21
3.993110236220472
 31
0.0
  0
LINE
  5
39C
330
1E
100
AcDbEntity
  8
0
100
AcDbLine
 10
4.513779527559054
 20
3.993110236220472
 30
0.0
 11
4.51771653543307
 21
3.997047244094487
 31
0.0
  0
LWPOLYLINE
  5
39D
330
1E
100
AcDbEntity
  8
0
100
AcDbPolyline
 90
        3
 70
     0
 43
0.0
 10
4.513779527559054
 20
3.331692913385826
 10
4.513779527559054
 20
3.320866141732283
 10
4.513779527559054
 20
3.316929133858267
  0
LWPOLYLINE
  5
3A2
330
1E
100
AcDbEntity
  8
0
100
AcDbPolyline
 90
        3
 70
     0
 43
0.0
 10
4.513779527559054
 20
3.368110236220472
 10
4.513779527559054
 20
3.363188976377952
 10
4.513779527559054
 20
3.352362204724409
  0
LWPOLYLINE
  5
3A7
330
1E
100
AcDbEntity
  8
0
100
AcDbPolyline
 90
        3
 70
     0
 43
0.0
 10
4.513779527559054
 20
3.963582677165354
 10
4.513779527559054
 20
3.953740157480314
 10
4.513779527559054
 20
3.948818897637795
  0
LWPOLYLINE
  5
3AC
330
1E
100
AcDbEntity
  8
0
100
AcDbPolyline
 90
        3
 70
     0
 43
0.0
 10
4.513779527559054
 20
3.993110236220472
 10
4.513779527559054
 20
3.988188976377952
 10
4.513779527559054
 20
3.977362204724409
  0
LWPOLYLINE
  5
3B1
330
1E
100
AcDbEntity
  8
0
100
AcDbPolyline
 90
        3
 70
     0
 43
0.0
 10
4.473425196850393
 20
3.331692913385826
 10
4.473425196850393
 20
3.320866141732283
 10
4.473425196850393
 20
3.316929133858267
  0
LWPOLYLINE
  5
3B6
330
1E
100
AcDbEntity
  8
0
100
AcDbPolyline
 90
        3
 70
     0
 43
0.0
 10
4.473425196850393
 20
3.368110236220472
 10
4.473425196850393
 20
3.363188976377952
 10
4.473425196850393
 20
3.352362204724409
  0
LWPOLYLINE
  5
3BB
330
1E
100
AcDbEntity
  8
0
100
AcDbPolyline
 90
        3
 70
     0
 43
0.0
 10
4.473425196850393
 20
3.963582677165354
 10
4.473425196850393
 20
3.953740157480314
 10
4.473425196850393
 20
3.948818897637795
  0
LWPOLYLINE
  5
3C0
330
1E
100
AcDbEntity
  8
0
100
AcDbPolyline
 90
        3
 70
     0
 43
0.0
 10
4.473425196850393
 20
3.993110236220472
 10
4.473425196850393
 20
3.988188976377952
 10
4.473425196850393
 20
3.977362204724409
  0
LWPOLYLINE
  5
3C5
330
1E
100
AcDbEntity
  8
0
100
AcDbPolyline
 90
        4
 70
     0
 43
0.0
 10
4.437992125984251
 20
3.25
 10
4.452755905511811
 20
3.253937007874015
 10
4.464566929133858
 20
3.264763779527558
 10
4.468503937007874
 20
3.279527559055118
  0
LWPOLYLINE
  5
3CB
330
1E
100
AcDbEntity
  8
0
100
AcDbPolyline
 90
        4
 70
     0
 43
0.0
 10
4.468503937007874
 20
4.029527559055117
 10
4.464566929133858
 20
4.044291338582676
 10
4.452755905511811
 20
4.056102362204724
 10
4.437992125984251
 20
4.060039370078739
  0
LWPOLYLINE
  5
3D1
330
1E
100
AcDbEntity
  8
0
100
AcDbPolyline
 90
        3
 70
     0
 43
0.0
 10
4.473425196850393
 20
3.368110236220472
 10
4.466535433070865
 20
3.371062992125984
 10
4.463582677165354
 20
3.377952755905511
  0
LWPOLYLINE
  5
3D6
330
1E
100
AcDbEntity
  8
0
100
AcDbPolyline
 90
        3
 70
     0
 43
0.0
 10
4.468503937007874
 20
3.302165354330708
 10
4.471456692913386
 20
3.309055118110236
 10
4.478346456692912
 20
3.312007874015748
  0
LWPOLYLINE
  5
3DB
330
1E
100
AcDbEntity
  8
0
100
AcDbPolyline
 90
        3
 70
     0
 43
0.0
 10
4.473425196850393
 20
3.352362204724409
 10
4.466535433070865
 20
3.352362204724409
 10
4.463582677165354
 20
3.352362204724409
  0
LWPOLYLINE
  5
3E0
330
1E
100
AcDbEntity
  8
0
100
AcDbPolyline
 90
        3
 70
     0
 43
0.0
 10
4.463582677165354
 20
3.307086614173228
 10
4.466535433070865
 20
3.313976377952756
 10
4.473425196850393
 20
3.316929133858267
  0
LWPOLYLINE
  5
3E5
330
1E
100
AcDbEntity
  8
0
100
AcDbPolyline
 90
        3
 70
     0
 43
0.0
 10
4.473425196850393
 20
3.331692913385826
 10
4.466535433070865
 20
3.331692913385826
 10
4.463582677165354
 20
3.331692913385826
  0
LWPOLYLINE
  5
3EA
330
1E
100
AcDbEntity
  8
0
100
AcDbPolyline
 90
        3
 70
     0
 43
0.0
 10
4.478346456692912
 20
3.997047244094487
 10
4.471456692913386
 20
4.0
 10
4.468503937007874
 20
4.006889763779527
  0
LWPOLYLINE
  5
3EF
330
1E
100
AcDbEntity
  8
0
100
AcDbPolyline
 90
        3
 70
     0
 43
0.0
 10
4.473425196850393
 20
3.993110236220472
 10
4.466535433070865
 20
3.996062992125984
 10
4.463582677165354
 20
4.002952755905512
  0
LWPOLYLINE
  5
3F4
330
1E
100
AcDbEntity
  8
0
100
AcDbPolyline
 90
        3
 70
     0
 43
0.0
 10
4.473425196850393
 20
3.977362204724409
 10
4.466535433070865
 20
3.977362204724409
 10
4.463582677165354
 20
3.977362204724409
  0
LWPOLYLINE
  5
3F9
330
1E
100
AcDbEntity
  8
0
100
AcDbPolyline
 90
        3
 70
     0
 43
0.0
 10
4.463582677165354
 20
3.938976377952755
 10
4.466535433070865
 20
3.945866141732283
 10
4.473425196850393
 20
3.948818897637795
  0
LWPOLYLINE
  5
3FE
330
1E
100
AcDbEntity
  8
0
100
AcDbPolyline
 90
        3
 70
     0
 43
0.0
 10
4.473425196850393
 20
3.963582677165354
 10
4.466535433070865
 20
3.963582677165354
 10
4.463582677165354
 20
3.963582677165354
  0
LINE
  5
403
330
1E
100
AcDbEntity
  8
0
100
AcDbLine
 10
0.4015748031496063
 20
3.591535433070866
 30
0.0
 11
0.4015748031496063
 21
3.928149606299212
 31
0.0
  0
LWPOLYLINE
  5
404
330
1E
100
AcDbEntity
  8
0
100
AcDbPolyline
 90
        4
 70
     0
 43
0.0
 10
0.3907480314960629
 20
3.937992125984251
 10
0.3966535433070866
 20
3.936023622047244
 10
0.3996062992125984
 20
3.933070866141732
 10
0.4015748031496063
 20
3.928149606299212
  0
LINE
  5
40A
330
1E
100
AcDbEntity
  8
0
100
AcDbLine
 10
0.3907480314960629
 20
3.937992125984251
 30
0.0
 11
0.3651574803149606
 21
3.937007874015748
 31
0.0
  0
LINE
  5
40B
330
1E
100
AcDbEntity
  8
0
100
AcDbLine
 10
0.3651574803149606
 20
3.815944881889763
 30
0.0
 11
0.3651574803149606
 21
3.937007874015748
 31
0.0
  0
LINE
  5
40C
330
1E
100
AcDbEntity
  8
0
100
AcDbLine
 10
0.3651574803149606
 20
3.815944881889763
 30
0.0
 11
0.3828740157480315
 21
3.814960629921259
 31
0.0
  0
LINE
  5
40D
330
1E
100
AcDbEntity
  8
0
100
AcDbLine
 10
0.3828740157480315
 20
3.660433070866141
 30
0.0
 11
0.3828740157480315
 21
3.814960629921259
 31
0.0
  0
LINE
  5
40E
330
1E
100
AcDbEntity
  8
0
100
AcDbLine
 10
0.3651574803149606
 20
3.659448818897637
 30
0.0
 11
0.3828740157480315
 21
3.660433070866141
 31
0.0
  0
LINE
  5
40F
330
1E
100
AcDbEntity
  8
0
100
AcDbLine
 10
0.3651574803149606
 20
3.581692913385826
 30
0.0
 11
0.3651574803149606
 21
3.659448818897637
 31
0.0
  0
LINE
  5
410
330
1E
100
AcDbEntity
  8
0
100
AcDbLine
 10
0.3651574803149606
 20
3.581692913385826
 30
0.0
 11
0.3907480314960629
 21
3.581692913385826
 31
0.0
  0
LWPOLYLINE
  5
411
330
1E
100
AcDbEntity
  8
0
100
AcDbPolyline
 90
        4
 70
     0
 43
0.0
 10
0.4015748031496063
 20
3.591535433070866
 10
0.3996062992125984
 20
3.586614173228346
 10
0.3966535433070866
 20
3.58267716535433
 10
0.3907480314960629
 20
3.581692913385826
  0
LINE
  5
417
330
1E
100
AcDbEntity
  8
0
100
AcDbLine
 10
0.4084645669291339
 20
3.381889763779527
 30
0.0
 11
0.4084645669291339
 21
3.584645669291338
 31
0.0
  0
LINE
  5
418
330
1E
100
AcDbEntity
  8
0
100
AcDbLine
 10
0.4124015748031497
 20
3.377952755905511
 30
0.0
 11
0.4084645669291339
 21
3.381889763779527
 31
0.0
  0
LWPOLYLINE
  5
419
330
1E
100
AcDbEntity
  8
0
100
AcDbPolyline
 90
        4
 70
     0
 43
0.0
 10
0.4124015748031497
 20
3.352362204724409
 10
0.4124015748031497
 20
3.36515748031496
 10
0.4124015748031497
 20
3.374015748031495
 10
0.4124015748031497
 20
3.377952755905511
  0
LINE
  5
41F
330
1E
100
AcDbEntity
  8
0
100
AcDbLine
 10
0.4124015748031497
 20
3.331692913385826
 30
0.0
 11
0.4124015748031497
 21
3.352362204724409
 31
0.0
  0
LWPOLYLINE
  5
420
330
1E
100
AcDbEntity
  8
0
100
AcDbPolyline
 90
        4
 70
     0
 43
0.0
 10
0.4124015748031497
 20
3.307086614173228
 10
0.4124015748031497
 20
3.31003937007874
 10
0.4124015748031497
 20
3.318897637795275
 10
0.4124015748031497
 20
3.331692913385826
  0
LINE
  5
426
330
1E
100
AcDbEntity
  8
0
100
AcDbLine
 10
0.4084645669291339
 20
3.302165354330708
 30
0.0
 11
0.4124015748031497
 21
3.307086614173228
 31
0.0
  0
LINE
  5
427
330
1E
100
AcDbEntity
  8
0
100
AcDbLine
 10
0.4084645669291339
 20
3.279527559055118
 30
0.0
 11
0.4084645669291339
 21
3.302165354330708
 31
0.0
  0
LINE
  5
428
330
1E
100
AcDbEntity
  8
0
100
AcDbLine
 10
0.4133858267716536
 20
3.28248031496063
 30
0.0
 11
0.4084645669291339
 21
3.279527559055118
 31
0.0
  0
LINE
  5
429
330
1E
100
AcDbEntity
  8
0
100
AcDbLine
 10
0.4084645669291339
 20
4.029527559055117
 30
0.0
 11
0.4133858267716536
 21
4.026574803149606
 31
0.0
  0
LINE
  5
42A
330
1E
100
AcDbEntity
  8
0
100
AcDbLine
 10
0.4084645669291339
 20
4.006889763779527
 30
0.0
 11
0.4084645669291339
 21
4.029527559055117
 31
0.0
  0
LINE
  5
42B
330
1E
100
AcDbEntity
  8
0
100
AcDbLine
 10
0.4124015748031497
 20
4.002952755905512
 30
0.0
 11
0.4084645669291339
 21
4.006889763779527
 31
0.0
  0
LWPOLYLINE
  5
42C
330
1E
100
AcDbEntity
  8
0
100
AcDbPolyline
 90
        4
 70
     0
 43
0.0
 10
0.4124015748031497
 20
3.977362204724409
 10
0.4124015748031497
 20
3.99015748031496
 10
0.4124015748031497
 20
3.999015748031495
 10
0.4124015748031497
 20
4.002952755905512
  0
LINE
  5
432
330
1E
100
AcDbEntity
  8
0
100
AcDbLine
 10
0.4124015748031497
 20
3.963582677165354
 30
0.0
 11
0.4124015748031497
 21
3.977362204724409
 31
0.0
  0
LWPOLYLINE
  5
433
330
1E
100
AcDbEntity
  8
0
100
AcDbPolyline
 90
        4
 70
     0
 43
0.0
 10
0.4124015748031497
 20
3.938976377952755
 10
0.4124015748031497
 20
3.941929133858267
 10
0.4124015748031497
 20
3.951771653543307
 10
0.4124015748031497
 20
3.963582677165354
  0
LINE
  5
439
330
1E
100
AcDbEntity
  8
0
100
AcDbLine
 10
0.4015748031496063
 20
3.928149606299212
 30
0.0
 11
0.4124015748031497
 21
3.938976377952755
 31
0.0
  0
LINE
  5
43A
330
1E
100
AcDbEntity
  8
0
100
AcDbLine
 10
0.4084645669291339
 20
3.584645669291338
 30
0.0
 11
0.4015748031496063
 21
3.591535433070866
 31
0.0
  0
LINE
  5
43B
330
1E
100
AcDbEntity
  8
0
100
AcDbLine
 10
0.3631889763779528
 20
3.352362204724409
 30
0.0
 11
0.4025590551181103
 21
3.352362204724409
 31
0.0
  0
LINE
  5
43C
330
1E
100
AcDbEntity
  8
0
100
AcDbLine
 10
0.3631889763779528
 20
3.331692913385826
 30
0.0
 11
0.3631889763779528
 21
3.352362204724409
 31
0.0
  0
LINE
  5
43D
330
1E
100
AcDbEntity
  8
0
100
AcDbLine
 10
0.4025590551181103
 20
3.331692913385826
 30
0.0
 11
0.3631889763779528
 21
3.331692913385826
 31
0.0
  0
LINE
  5
43E
330
1E
100
AcDbEntity
  8
0
100
AcDbLine
 10
0.4025590551181103
 20
3.352362204724409
 30
0.0
 11
0.4025590551181103
 21
3.331692913385826
 31
0.0
  0
LINE
  5
43F
330
1E
100
AcDbEntity
  8
0
100
AcDbLine
 10
0.3986220472440945
 20
3.372047244094487
 30
0.0
 11
0.3582677165354331
 21
3.372047244094487
 31
0.0
  0
LINE
  5
440
330
1E
100
AcDbEntity
  8
0
100
AcDbLine
 10
0.3582677165354331
 20
3.372047244094487
 30
0.0
 11
0.3582677165354331
 21
3.372047244094487
 31
0.0
  0
LINE
  5
441
330
1E
100
AcDbEntity
  8
0
100
AcDbLine
 10
0.3622047244094488
 20
3.368110236220472
 30
0.0
 11
0.3582677165354331
 21
3.372047244094487
 31
0.0
  0
LINE
  5
442
330
1E
100
AcDbEntity
  8
0
100
AcDbLine
 10
0.4025590551181103
 20
3.368110236220472
 30
0.0
 11
0.3622047244094488
 21
3.368110236220472
 31
0.0
  0
LINE
  5
443
330
1E
100
AcDbEntity
  8
0
100
AcDbLine
 10
0.3986220472440945
 20
3.372047244094487
 30
0.0
 11
0.4025590551181103
 21
3.368110236220472
 31
0.0
  0
LINE
  5
444
330
1E
100
AcDbEntity
  8
0
100
AcDbLine
 10
0.3622047244094488
 20
3.316929133858267
 30
0.0
 11
0.4025590551181103
 21
3.316929133858267
 31
0.0
  0
LINE
  5
445
330
1E
100
AcDbEntity
  8
0
100
AcDbLine
 10
0.3582677165354331
 20
3.312007874015748
 30
0.0
 11
0.3622047244094488
 21
3.316929133858267
 31
0.0
  0
LINE
  5
446
330
1E
100
AcDbEntity
  8
0
100
AcDbLine
 10
0.3986220472440945
 20
3.312007874015748
 30
0.0
 11
0.3582677165354331
 21
3.312007874015748
 31
0.0
  0
LINE
  5
447
330
1E
100
AcDbEntity
  8
0
100
AcDbLine
 10
0.4025590551181103
 20
3.316929133858267
 30
0.0
 11
0.3986220472440945
 21
3.312007874015748
 31
0.0
  0
LINE
  5
448
330
1E
100
AcDbEntity
  8
0
100
AcDbLine
 10
0.3631889763779528
 20
3.977362204724409
 30
0.0
 11
0.4025590551181103
 21
3.977362204724409
 31
0.0
  0
LINE
  5
449
330
1E
100
AcDbEntity
  8
0
100
AcDbLine
 10
0.3631889763779528
 20
3.963582677165354
 30
0.0
 11
0.3631889763779528
 21
3.977362204724409
 31
0.0
  0
LINE
  5
44A
330
1E
100
AcDbEntity
  8
0
100
AcDbLine
 10
0.4025590551181103
 20
3.963582677165354
 30
0.0
 11
0.3631889763779528
 21
3.963582677165354
 31
0.0
  0
LINE
  5
44B
330
1E
100
AcDbEntity
  8
0
100
AcDbLine
 10
0.4025590551181103
 20
3.977362204724409
 30
0.0
 11
0.4025590551181103
 21
3.963582677165354
 31
0.0
  0
LINE
  5
44C
330
1E
100
AcDbEntity
  8
0
100
AcDbLine
 10
0.3622047244094488
 20
3.948818897637795
 30
0.0
 11
0.4025590551181103
 21
3.948818897637795
 31
0.0
  0
LINE
  5
44D
330
1E
100
AcDbEntity
  8
0
100
AcDbLine
 10
0.3582677165354331
 20
3.944881889763779
 30
0.0
 11
0.3622047244094488
 21
3.948818897637795
 31
0.0
  0
LINE
  5
44E
330
1E
100
AcDbEntity
  8
0
100
AcDbLine
 10
0.3651574803149606
 20
3.937007874015748
 30
0.0
 11
0.3582677165354331
 21
3.944881889763779
 31
0.0
  0
LINE
  5
44F
330
1E
100
AcDbEntity
  8
0
100
AcDbLine
 10
0.4025590551181103
 20
3.948818897637795
 30
0.0
 11
0.3907480314960629
 21
3.937992125984251
 31
0.0
  0
LWPOLYLINE
  5
450
330
1E
100
AcDbEntity
  8
0
100
AcDbPolyline
 90
        3
 70
     0
 43
0.0
 10
0.3986220472440945
 20
3.574803149606299
 10
0.4055118110236221
 20
3.577755905511811
 10
0.4084645669291339
 20
3.584645669291338
  0
LINE
  5
455
330
1E
100
AcDbEntity
  8
0
100
AcDbLine
 10
0.3986220472440945
 20
3.574803149606299
 30
0.0
 11
0.3582677165354331
 21
3.574803149606299
 31
0.0
  0
LINE
  5
456
330
1E
100
AcDbEntity
  8
0
100
AcDbLine
 10
0.3582677165354331
 20
3.372047244094487
 30
0.0
 11
0.3582677165354331
 21
3.574803149606299
 31
0.0
  0
LWPOLYLINE
  5
457
330
1E
100
AcDbEntity
  8
0
100
AcDbPolyline
 90
        3
 70
     0
 43
0.0
 10
0.4084645669291339
 20
3.381889763779527
 10
0.4055118110236221
 20
3.375
 10
0.3986220472440945
 20
3.372047244094487
  0
LINE
  5
45C
330
1E
100
AcDbEntity
  8
0
100
AcDbLine
 10
0.3582677165354331
 20
3.574803149606299
 30
0.0
 11
0.3651574803149606
 21
3.581692913385826
 31
0.0
  0
LINE
  5
45D
330
1E
100
AcDbEntity
  8
0
100
AcDbLine
 10
0.3907480314960629
 20
3.581692913385826
 30
0.0
 11
0.3986220472440945
 21
3.574803149606299
 31
0.0
  0
LINE
  5
45E
330
1E
100
AcDbEntity
  8
0
100
AcDbLine
 10
0.5147637795275591
 20
3.331692913385826
 30
0.0
 11
0.515748031496063
 21
3.331692913385826
 31
0.0
  0
LINE
  5
45F
330
1E
100
AcDbEntity
  8
0
100
AcDbLine
 10
0.515748031496063
 20
3.331692913385826
 30
0.0
 11
0.515748031496063
 21
3.886811023622047
 31
0.0
  0
LINE
  5
460
330
1E
100
AcDbEntity
  8
0
100
AcDbLine
 10
0.515748031496063
 20
3.886811023622047
 30
0.0
 11
0.5147637795275591
 21
3.886811023622047
 31
0.0
  0
LINE
  5
461
330
1E
100
AcDbEntity
  8
0
100
AcDbLine
 10
0.3582677165354331
 20
3.944881889763779
 30
0.0
 11
0.3582677165354331
 21
3.997047244094487
 31
0.0
  0
LINE
  5
462
330
1E
100
AcDbEntity
  8
0
100
AcDbLine
 10
0.3582677165354331
 20
3.312007874015748
 30
0.0
 11
0.3582677165354331
 21
3.372047244094487
 31
0.0
  0
LINE
  5
463
330
1E
100
AcDbEntity
  8
0
100
AcDbLine
 10
0.3582677165354331
 20
3.997047244094487
 30
0.0
 11
0.3986220472440945
 21
3.997047244094487
 31
0.0
  0
LINE
  5
464
330
1E
100
AcDbEntity
  8
0
100
AcDbLine
 10
0.3622047244094488
 20
3.993110236220472
 30
0.0
 11
0.3582677165354331
 21
3.997047244094487
 31
0.0
  0
LINE
  5
465
330
1E
100
AcDbEntity
  8
0
100
AcDbLine
 10
0.4025590551181103
 20
3.993110236220472
 30
0.0
 11
0.3622047244094488
 21
3.993110236220472
 31
0.0
  0
LINE
  5
466
330
1E
100
AcDbEntity
  8
0
100
AcDbLine
 10
0.3986220472440945
 20
3.997047244094487
 30
0.0
 11
0.4025590551181103
 21
3.993110236220472
 31
0.0
  0
LWPOLYLINE
  5
467
330
1E
100
AcDbEntity
  8
0
100
AcDbPolyline
 90
        3
 70
     0
 43
0.0
 10
0.3622047244094488
 20
3.368110236220472
 10
0.3631889763779528
 20
3.363188976377952
 10
0.3631889763779528
 20
3.352362204724409
  0
LWPOLYLINE
  5
46C
330
1E
100
AcDbEntity
  8
0
100
AcDbPolyline
 90
        3
 70
     0
 43
0.0
 10
0.3631889763779528
 20
3.331692913385826
 10
0.3631889763779528
 20
3.320866141732283
 10
0.3622047244094488
 20
3.316929133858267
  0
LWPOLYLINE
  5
471
330
1E
100
AcDbEntity
  8
0
100
AcDbPolyline
 90
        3
 70
     0
 43
0.0
 10
0.3622047244094488
 20
3.993110236220472
 10
0.3631889763779528
 20
3.988188976377952
 10
0.3631889763779528
 20
3.977362204724409
  0
LWPOLYLINE
  5
476
330
1E
100
AcDbEntity
  8
0
100
AcDbPolyline
 90
        3
 70
     0
 43
0.0
 10
0.3631889763779528
 20
3.963582677165354
 10
0.3631889763779528
 20
3.953740157480314
 10
0.3622047244094488
 20
3.948818897637795
  0
LWPOLYLINE
  5
47B
330
1E
100
AcDbEntity
  8
0
100
AcDbPolyline
 90
        3
 70
     0
 43
0.0
 10
0.4025590551181103
 20
3.331692913385826
 10
0.4025590551181103
 20
3.320866141732283
 10
0.4025590551181103
 20
3.316929133858267
  0
LWPOLYLINE
  5
480
330
1E
100
AcDbEntity
  8
0
100
AcDbPolyline
 90
        3
 70
     0
 43
0.0
 10
0.4025590551181103
 20
3.368110236220472
 10
0.4025590551181103
 20
3.363188976377952
 10
0.4025590551181103
 20
3.352362204724409
  0
LWPOLYLINE
  5
485
330
1E
100
AcDbEntity
  8
0
100
AcDbPolyline
 90
        3
 70
     0
 43
0.0
 10
0.4025590551181103
 20
3.963582677165354
 10
0.4025590551181103
 20
3.953740157480314
 10
0.4025590551181103
 20
3.948818897637795
  0
LWPOLYLINE
  5
48A
330
1E
100
AcDbEntity
  8
0
100
AcDbPolyline
 90
        3
 70
     0
 43
0.0
 10
0.4025590551181103
 20
3.993110236220472
 10
0.4025590551181103
 20
3.988188976377952
 10
0.4025590551181103
 20
3.977362204724409
  0
LWPOLYLINE
  5
48F
330
1E
100
AcDbEntity
  8
0
100
AcDbPolyline
 90
        4
 70
     0
 43
0.0
 10
0.437992125984252
 20
3.25
 10
0.4232283464566929
 20
3.253937007874015
 10
0.4124015748031497
 20
3.264763779527558
 10
0.4084645669291339
 20
3.279527559055118
  0
LWPOLYLINE
  5
495
330
1E
100
AcDbEntity
  8
0
100
AcDbPolyline
 90
        4
 70
     0
 43
0.0
 10
0.4084645669291339
 20
4.029527559055117
 10
0.4124015748031497
 20
4.044291338582676
 10
0.4232283464566929
 20
4.056102362204724
 10
0.437992125984252
 20
4.060039370078739
  0
LWPOLYLINE
  5
49B
330
1E
100
AcDbEntity
  8
0
100
AcDbPolyline
 90
        3
 70
     0
 43
0.0
 10
0.4025590551181103
 20
3.368110236220472
 10
0.4094488188976378
 20
3.371062992125984
 10
0.4124015748031497
 20
3.377952755905511
  0
LWPOLYLINE
  5
4A0
330
1E
100
AcDbEntity
  8
0
100
AcDbPolyline
 90
        3
 70
     0
 43
0.0
 10
0.4084645669291339
 20
3.302165354330708
 10
0.4055118110236221
 20
3.309055118110236
 10
0.3986220472440945
 20
3.312007874015748
  0
LWPOLYLINE
  5
4A5
330
1E
100
AcDbEntity
  8
0
100
AcDbPolyline
 90
        3
 70
     0
 43
0.0
 10
0.4025590551181103
 20
3.352362204724409
 10
0.4094488188976378
 20
3.352362204724409
 10
0.4124015748031497
 20
3.352362204724409
  0
LWPOLYLINE
  5
4AA
330
1E
100
AcDbEntity
  8
0
100
AcDbPolyline
 90
        3
 70
     0
 43
0.0
 10
0.4124015748031497
 20
3.307086614173228
 10
0.4094488188976378
 20
3.313976377952756
 10
0.4025590551181103
 20
3.316929133858267
  0
LWPOLYLINE
  5
4AF
330
1E
100
AcDbEntity
  8
0
100
AcDbPolyline
 90
        3
 70
     0
 43
0.0
 10
0.4025590551181103
 20
3.331692913385826
 10
0.4094488188976378
 20
3.331692913385826
 10
0.4124015748031497
 20
3.331692913385826
  0
LWPOLYLINE
  5
4B4
330
1E
100
AcDbEntity
  8
0
100
AcDbPolyline
 90
        3
 70
     0
 43
0.0
 10
0.3986220472440945
 20
3.997047244094487
 10
0.4055118110236221
 20
4.0
 10
0.4084645669291339
 20
4.006889763779527
  0
LWPOLYLINE
  5
4B9
330
1E
100
AcDbEntity
  8
0
100
AcDbPolyline
 90
        3
 70
     0
 43
0.0
 10
0.4025590551181103
 20
3.993110236220472
 10
0.4094488188976378
 20
3.996062992125984
 10
0.4124015748031497
 20
4.002952755905512
  0
LWPOLYLINE
  5
4BE
330
1E
100
AcDbEntity
  8
0
100
AcDbPolyline
 90
        3
 70
     0
 43
0.0
 10
0.4025590551181103
 20
3.977362204724409
 10
0.4094488188976378
 20
3.977362204724409
 10
0.4124015748031497
 20
3.977362204724409
  0
LWPOLYLINE
  5
4C3
330
1E
100
AcDbEntity
  8
0
100
AcDbPolyline
 90
        3
 70
     0
 43
0.0
 10
0.4124015748031497
 20
3.938976377952755
 10
0.4094488188976378
 20
3.945866141732283
 10
0.4025590551181103
 20
3.948818897637795
  0
LWPOLYLINE
  5
4C8
330
1E
100
AcDbEntity
  8
0
100
AcDbPolyline
 90
        3
 70
     0
 43
0.0
 10
0.4025590551181103
 20
3.963582677165354
 10
0.4094488188976378
 20
3.963582677165354
 10
0.4124015748031497
 20
3.963582677165354
  0
LINE
  5
4CD
330
1E
100
AcDbEntity
  8
0
100
AcDbLine
 10
1.758858267716535
 20
3.625
 30
0.0
 11
1.797244094488188
 21
3.625
 31
0.0
  0
LINE
  5
4CE
330
1E
100
AcDbEntity
  8
0
100
AcDbLine
 10
1.758858267716535
 20
3.624015748031495
 30
0.0
 11
1.758858267716535
 21
3.625
 31
0.0
  0
LINE
  5
4CF
330
1E
100
AcDbEntity
  8
0
100
AcDbLine
 10
1.758858267716535
 20
3.624015748031495
 30
0.0
 11
1.797244094488188
 21
3.624015748031495
 31
0.0
  0
LINE
  5
4D0
330
1E
100
AcDbEntity
  8
0
100
AcDbLine
 10
1.797244094488188
 20
3.624015748031495
 30
0.0
 11
1.797244094488188
 21
3.625
 31
0.0
  0
LWPOLYLINE
  5
4D1
330
1E
100
AcDbEntity
  8
0
100
AcDbPolyline
 90
        3
 70
     0
 43
0.0
 10
1.797244094488188
 20
3.625
 10
1.81003937007874
 20
3.629921259842519
 10
1.815944881889763
 20
3.643700787401574
  0
LWPOLYLINE
  5
4D6
330
1E
100
AcDbEntity
  8
0
100
AcDbPolyline
 90
        3
 70
     0
 43
0.0
 10
1.797244094488188
 20
3.624015748031495
 10
1.811023622047244
 20
3.629921259842519
 10
1.816929133858267
 20
3.643700787401574
  0
LINE
  5
4DB
330
1E
100
AcDbEntity
  8
0
100
AcDbLine
 10
1.816929133858267
 20
3.643700787401574
 30
0.0
 11
1.815944881889763
 21
3.643700787401574
 31
0.0
  0
LINE
  5
4DC
330
1E
100
AcDbEntity
  8
0
100
AcDbLine
 10
1.815944881889763
 20
3.643700787401574
 30
0.0
 11
1.815944881889763
 21
3.742125984251968
 31
0.0
  0
LINE
  5
4DD
330
1E
100
AcDbEntity
  8
0
100
AcDbLine
 10
1.816929133858267
 20
3.643700787401574
 30
0.0
 11
1.816929133858267
 21
3.742125984251968
 31
0.0
  0
LINE
  5
4DE
330
1E
100
AcDbEntity
  8
0
100
AcDbLine
 10
1.816929133858267
 20
3.742125984251968
 30
0.0
 11
1.815944881889763
 21
3.742125984251968
 31
0.0
  0
LWPOLYLINE
  5
4DF
330
1E
100
AcDbEntity
  8
0
100
AcDbPolyline
 90
        3
 70
     0
 43
0.0
 10
1.815944881889763
 20
3.742125984251968
 10
1.81003937007874
 20
3.754921259842519
 10
1.797244094488188
 20
3.760826771653543
  0
LWPOLYLINE
  5
4E4
330
1E
100
AcDbEntity
  8
0
100
AcDbPolyline
 90
        3
 70
     0
 43
0.0
 10
1.816929133858267
 20
3.742125984251968
 10
1.811023622047244
 20
3.755905511811023
 10
1.797244094488188
 20
3.761811023622047
  0
LINE
  5
4E9
330
1E
100
AcDbEntity
  8
0
100
AcDbLine
 10
1.797244094488188
 20
3.761811023622047
 30
0.0
 11
1.797244094488188
 21
3.760826771653543
 31
0.0
  0
LINE
  5
4EA
330
1E
100
AcDbEntity
  8
0
100
AcDbLine
 10
1.758858267716535
 20
3.760826771653543
 30
0.0
 11
1.797244094488188
 21
3.760826771653543
 31
0.0
  0
LINE
  5
4EB
330
1E
100
AcDbEntity
  8
0
100
AcDbLine
 10
1.758858267716535
 20
3.761811023622047
 30
0.0
 11
1.797244094488188
 21
3.761811023622047
 31
0.0
  0
LINE
  5
4EC
330
1E
100
AcDbEntity
  8
0
100
AcDbLine
 10
1.758858267716535
 20
3.761811023622047
 30
0.0
 11
1.758858267716535
 21
3.760826771653543
 31
0.0
  0
LINE
  5
4ED
330
1E
100
AcDbEntity
  8
0
100
AcDbLine
 10
1.981299212598425
 20
3.548228346456693
 30
0.0
 11
2.056102362204724
 21
3.548228346456693
 31
0.0
  0
LINE
  5
4EE
330
1E
100
AcDbEntity
  8
0
100
AcDbLine
 10
1.980314960629921
 20
3.548228346456693
 30
0.0
 11
1.981299212598425
 21
3.548228346456693
 31
0.0
  0
LINE
  5
4EF
330
1E
100
AcDbEntity
  8
0
100
AcDbLine
 10
1.980314960629921
 20
3.548228346456693
 30
0.0
 11
2.057086614173228
 21
3.548228346456693
 31
0.0
  0
LINE
  5
4F0
330
1E
100
AcDbEntity
  8
0
100
AcDbLine
 10
2.057086614173228
 20
3.548228346456693
 30
0.0
 11
2.056102362204724
 21
3.548228346456693
 31
0.0
  0
LINE
  5
4F1
330
1E
100
AcDbEntity
  8
0
100
AcDbLine
 10
2.01771653543307
 20
3.632874015748031
 30
0.0
 11
2.056102362204724
 21
3.548228346456693
 31
0.0
  0
LINE
  5
4F2
330
1E
100
AcDbEntity
  8
0
100
AcDbLine
 10
2.01771653543307
 20
3.633858267716535
 30
0.0
 11
2.057086614173228
 21
3.548228346456693
 31
0.0
  0
LINE
  5
4F3
330
1E
100
AcDbEntity
  8
0
100
AcDbLine
 10
2.01771653543307
 20
3.633858267716535
 30
0.0
 11
2.01771653543307
 21
3.632874015748031
 31
0.0
  0
LINE
  5
4F4
330
1E
100
AcDbEntity
  8
0
100
AcDbLine
 10
2.145669291338582
 20
3.737204724409448
 30
0.0
 11
2.144685039370078
 21
3.738188976377952
 31
0.0
  0
LINE
  5
4F5
330
1E
100
AcDbEntity
  8
0
100
AcDbLine
 10
2.145669291338582
 20
3.737204724409448
 30
0.0
 11
2.244094488188976
 21
3.737204724409448
 31
0.0
  0
LINE
  5
4F6
330
1E
100
AcDbEntity
  8
0
100
AcDbLine
 10
2.244094488188976
 20
3.737204724409448
 30
0.0
 11
2.244094488188976
 21
3.738188976377952
 31
0.0
  0
LINE
  5
4F7
330
1E
100
AcDbEntity
  8
0
100
AcDbLine
 10
2.297244094488188
 20
3.627952755905511
 30
0.0
 11
2.244094488188976
 21
3.737204724409448
 31
0.0
  0
LINE
  5
4F8
330
1E
100
AcDbEntity
  8
0
100
AcDbLine
 10
2.297244094488188
 20
3.627952755905511
 30
0.0
 11
2.296259842519685
 21
3.630905511811023
 31
0.0
  0
LINE
  5
4F9
330
1E
100
AcDbEntity
  8
0
100
AcDbLine
 10
2.297244094488188
 20
3.627952755905511
 30
0.0
 11
2.297244094488188
 21
3.737204724409448
 31
0.0
  0
LINE
  5
4FA
330
1E
100
AcDbEntity
  8
0
100
AcDbLine
 10
2.297244094488188
 20
3.737204724409448
 30
0.0
 11
2.296259842519685
 21
3.738188976377952
 31
0.0
  0
LINE
  5
4FB
330
1E
100
AcDbEntity
  8
0
100
AcDbLine
 10
2.297244094488188
 20
3.737204724409448
 30
0.0
 11
2.371062992125984
 21
3.737204724409448
 31
0.0
  0
LINE
  5
4FC
330
1E
100
AcDbEntity
  8
0
100
AcDbLine
 10
2.371062992125984
 20
3.737204724409448
 30
0.0
 11
2.372047244094487
 21
3.738188976377952
 31
0.0
  0
LINE
  5
4FD
330
1E
100
AcDbEntity
  8
0
100
AcDbLine
 10
2.371062992125984
 20
3.737204724409448
 30
0.0
 11
2.371062992125984
 21
3.441929133858267
 31
0.0
  0
LINE
  5
4FE
330
1E
100
AcDbEntity
  8
0
100
AcDbLine
 10
2.371062992125984
 20
3.441929133858267
 30
0.0
 11
2.372047244094487
 21
3.441929133858267
 31
0.0
  0
LINE
  5
4FF
330
1E
100
AcDbEntity
  8
0
100
AcDbLine
 10
2.371062992125984
 20
3.441929133858267
 30
0.0
 11
2.283464566929133
 21
3.441929133858267
 31
0.0
  0
LINE
  5
500
330
1E
100
AcDbEntity
  8
0
100
AcDbLine
 10
2.283464566929133
 20
3.441929133858267
 30
0.0
 11
2.28248031496063
 21
3.441929133858267
 31
0.0
  0
LINE
  5
501
330
1E
100
AcDbEntity
  8
0
100
AcDbLine
 10
2.227362204724409
 20
3.570866141732283
 30
0.0
 11
2.283464566929133
 21
3.441929133858267
 31
0.0
  0
LINE
  5
502
330
1E
100
AcDbEntity
  8
0
100
AcDbLine
 10
2.227362204724409
 20
3.570866141732283
 30
0.0
 11
2.228346456692913
 21
3.567913385826771
 31
0.0
  0
LINE
  5
503
330
1E
100
AcDbEntity
  8
0
100
AcDbLine
 10
2.227362204724409
 20
3.441929133858267
 30
0.0
 11
2.227362204724409
 21
3.570866141732283
 31
0.0
  0
LINE
  5
504
330
1E
100
AcDbEntity
  8
0
100
AcDbLine
 10
2.227362204724409
 20
3.441929133858267
 30
0.0
 11
2.228346456692913
 21
3.441929133858267
 31
0.0
  0
LINE
  5
505
330
1E
100
AcDbEntity
  8
0
100
AcDbLine
 10
2.227362204724409
 20
3.441929133858267
 30
0.0
 11
2.096456692913385
 21
3.441929133858267
 31
0.0
  0
LINE
  5
506
330
1E
100
AcDbEntity
  8
0
100
AcDbLine
 10
2.096456692913385
 20
3.441929133858267
 30
0.0
 11
2.095472440944881
 21
3.441929133858267
 31
0.0
  0
LINE
  5
507
330
1E
100
AcDbEntity
  8
0
100
AcDbLine
 10
2.075787401574803
 20
3.48523622047244
 30
0.0
 11
2.096456692913385
 21
3.441929133858267
 31
0.0
  0
LINE
  5
508
330
1E
100
AcDbEntity
  8
0
100
AcDbLine
 10
2.075787401574803
 20
3.48523622047244
 30
0.0
 11
2.074803149606299
 21
3.484251968503937
 31
0.0
  0
LINE
  5
509
330
1E
100
AcDbEntity
  8
0
100
AcDbLine
 10
1.961614173228346
 20
3.48523622047244
 30
0.0
 11
2.075787401574803
 21
3.48523622047244
 31
0.0
  0
LINE
  5
50A
330
1E
100
AcDbEntity
  8
0
100
AcDbLine
 10
1.961614173228346
 20
3.48523622047244
 30
0.0
 11
1.96259842519685
 21
3.484251968503937
 31
0.0
  0
LINE
  5
50B
330
1E
100
AcDbEntity
  8
0
100
AcDbLine
 10
1.943897637795275
 20
3.441929133858267
 30
0.0
 11
1.961614173228346
 21
3.48523622047244
 31
0.0
  0
LINE
  5
50C
330
1E
100
AcDbEntity
  8
0
100
AcDbLine
 10
1.943897637795275
 20
3.441929133858267
 30
0.0
 11
1.943897637795275
 21
3.441929133858267
 31
0.0
  0
LINE
  5
50D
330
1E
100
AcDbEntity
  8
0
100
AcDbLine
 10
1.943897637795275
 20
3.441929133858267
 30
0.0
 11
1.858267716535433
 21
3.441929133858267
 31
0.0
  0
LINE
  5
50E
330
1E
100
AcDbEntity
  8
0
100
AcDbLine
 10
1.858267716535433
 20
3.441929133858267
 30
0.0
 11
1.856299212598425
 21
3.441929133858267
 31
0.0
  0
LINE
  5
50F
330
1E
100
AcDbEntity
  8
0
100
AcDbLine
 10
1.858267716535433
 20
3.441929133858267
 30
0.0
 11
1.913385826771653
 21
3.577755905511811
 31
0.0
  0
LINE
  5
510
330
1E
100
AcDbEntity
  8
0
100
AcDbLine
 10
1.913385826771653
 20
3.577755905511811
 30
0.0
 11
1.912401574803149
 21
3.575787401574803
 31
0.0
  0
LWPOLYLINE
  5
511
330
1E
100
AcDbEntity
  8
0
100
AcDbPolyline
 90
        3
 70
     0
 43
0.0
 10
1.854330708661417
 20
3.562992125984251
 10
1.884842519685039
 20
3.566929133858267
 10
1.913385826771653
 20
3.577755905511811
  0
LINE
  5
516
330
1E
100
AcDbEntity
  8
0
100
AcDbLine
 10
1.854330708661417
 20
3.562992125984251
 30
0.0
 11
1.854330708661417
 21
3.562992125984251
 31
0.0
  0
LINE
  5
517
330
1E
100
AcDbEntity
  8
0
100
AcDbLine
 10
1.769685039370078
 20
3.562992125984251
 30
0.0
 11
1.854330708661417
 21
3.562992125984251
 31
0.0
  0
LINE
  5
518
330
1E
100
AcDbEntity
  8
0
100
AcDbLine
 10
1.769685039370078
 20
3.562992125984251
 30
0.0
 11
1.769685039370078
 21
3.562992125984251
 31
0.0
  0
LWPOLYLINE
  5
519
330
1E
100
AcDbEntity
  8
0
100
AcDbPolyline
 90
        3
 70
     0
 43
0.0
 10
1.769685039370078
 20
3.562992125984251
 10
1.761811023622047
 20
3.56003937007874
 10
1.758858267716535
 20
3.552165354330708
  0
LINE
  5
51E
330
1E
100
AcDbEntity
  8
0
100
AcDbLine
 10
1.758858267716535
 20
3.552165354330708
 30
0.0
 11
1.758858267716535
 21
3.552165354330708
 31
0.0
  0
LINE
  5
51F
330
1E
100
AcDbEntity
  8
0
100
AcDbLine
 10
1.758858267716535
 20
3.552165354330708
 30
0.0
 11
1.758858267716535
 21
3.451771653543306
 31
0.0
  0
LINE
  5
520
330
1E
100
AcDbEntity
  8
0
100
AcDbLine
 10
1.758858267716535
 20
3.451771653543306
 30
0.0
 11
1.758858267716535
 21
3.451771653543306
 31
0.0
  0
LWPOLYLINE
  5
521
330
1E
100
AcDbEntity
  8
0
100
AcDbPolyline
 90
        3
 70
     0
 43
0.0
 10
1.749015748031496
 20
3.441929133858267
 10
1.755905511811023
 20
3.444881889763779
 10
1.758858267716535
 20
3.451771653543306
  0
LINE
  5
526
330
1E
100
AcDbEntity
  8
0
100
AcDbLine
 10
1.749015748031496
 20
3.441929133858267
 30
0.0
 11
1.749015748031496
 21
3.441929133858267
 31
0.0
  0
LINE
  5
527
330
1E
100
AcDbEntity
  8
0
100
AcDbLine
 10
1.749015748031496
 20
3.441929133858267
 30
0.0
 11
1.595472440944881
 21
3.441929133858267
 31
0.0
  0
LINE
  5
528
330
1E
100
AcDbEntity
  8
0
100
AcDbLine
 10
1.595472440944881
 20
3.441929133858267
 30
0.0
 11
1.595472440944881
 21
3.441929133858267
 31
0.0
  0
LWPOLYLINE
  5
529
330
1E
100
AcDbEntity
  8
0
100
AcDbPolyline
 90
        3
 70
     0
 43
0.0
 10
1.585629921259842
 20
3.451771653543306
 10
1.588582677165354
 20
3.444881889763779
 10
1.595472440944881
 20
3.441929133858267
  0
LINE
  5
52E
330
1E
100
AcDbEntity
  8
0
100
AcDbLine
 10
1.585629921259842
 20
3.451771653543306
 30
0.0
 11
1.585629921259842
 21
3.451771653543306
 31
0.0
  0
LINE
  5
52F
330
1E
100
AcDbEntity
  8
0
100
AcDbLine
 10
1.585629921259842
 20
3.451771653543306
 30
0.0
 11
1.585629921259842
 21
3.818897637795275
 31
0.0
  0
LINE
  5
530
330
1E
100
AcDbEntity
  8
0
100
AcDbLine
 10
1.585629921259842
 20
3.818897637795275
 30
0.0
 11
1.585629921259842
 21
3.818897637795275
 31
0.0
  0
LWPOLYLINE
  5
531
330
1E
100
AcDbEntity
  8
0
100
AcDbPolyline
 90
        3
 70
     0
 43
0.0
 10
1.595472440944881
 20
3.827755905511811
 10
1.588582677165354
 20
3.825787401574803
 10
1.585629921259842
 20
3.818897637795275
  0
LINE
  5
536
330
1E
100
AcDbEntity
  8
0
100
AcDbLine
 10
1.595472440944881
 20
3.827755905511811
 30
0.0
 11
1.595472440944881
 21
3.828740157480314
 31
0.0
  0
LINE
  5
537
330
1E
100
AcDbEntity
  8
0
100
AcDbLine
 10
1.595472440944881
 20
3.827755905511811
 30
0.0
 11
1.854330708661417
 21
3.827755905511811
 31
0.0
  0
LINE
  5
538
330
1E
100
AcDbEntity
  8
0
100
AcDbLine
 10
1.854330708661417
 20
3.827755905511811
 30
0.0
 11
1.854330708661417
 21
3.828740157480314
 31
0.0
  0
LWPOLYLINE
  5
539
330
1E
100
AcDbEntity
  8
0
100
AcDbPolyline
 90
        6
 70
     0
 43
0.0
 10
1.980314960629921
 20
3.737204724409448
 10
1.965551181102362
 20
3.76771653543307
 10
1.944881889763779
 20
3.792322834645669
 10
1.917322834645669
 20
3.812007874015748
 10
1.886811023622047
 20
3.823818897637795
 10
1.854330708661417
 20
3.827755905511811
  0
LINE
  5
541
330
1E
100
AcDbEntity
  8
0
100
AcDbLine
 10
1.980314960629921
 20
3.737204724409448
 30
0.0
 11
1.980314960629921
 21
3.738188976377952
 31
0.0
  0
LINE
  5
542
330
1E
100
AcDbEntity
  8
0
100
AcDbLine
 10
1.980314960629921
 20
3.737204724409448
 30
0.0
 11
2.058070866141732
 21
3.737204724409448
 31
0.0
  0
LINE
  5
543
330
1E
100
AcDbEntity
  8
0
100
AcDbLine
 10
2.058070866141732
 20
3.737204724409448
 30
0.0
 11
2.058070866141732
 21
3.738188976377952
 31
0.0
  0
LINE
  5
544
330
1E
100
AcDbEntity
  8
0
100
AcDbLine
 10
2.058070866141732
 20
3.737204724409448
 30
0.0
 11
2.145669291338582
 21
3.542322834645669
 31
0.0
  0
LINE
  5
545
330
1E
100
AcDbEntity
  8
0
100
AcDbLine
 10
2.145669291338582
 20
3.542322834645669
 30
0.0
 11
2.144685039370078
 21
3.545275590551181
 31
0.0
  0
LINE
  5
546
330
1E
100
AcDbEntity
  8
0
100
AcDbLine
 10
1.981299212598425
 20
3.548228346456693
 30
0.0
 11
2.01771653543307
 21
3.632874015748031
 31
0.0
  0
LINE
  5
547
330
1E
100
AcDbEntity
  8
0
100
AcDbLine
 10
1.980314960629921
 20
3.548228346456693
 30
0.0
 11
2.01771653543307
 21
3.633858267716535
 31
0.0
  0
LINE
  5
548
330
1E
100
AcDbEntity
  8
0
100
AcDbLine
 10
2.145669291338582
 20
3.542322834645669
 30
0.0
 11
2.145669291338582
 21
3.737204724409448
 31
0.0
  0
LINE
  5
549
330
1E
100
AcDbEntity
  8
0
100
AcDbLine
 10
1.758858267716535
 20
3.625
 30
0.0
 11
1.758858267716535
 21
3.760826771653543
 31
0.0
  0
LINE
  5
54A
330
1E
100
AcDbEntity
  8
0
100
AcDbLine
 10
1.758858267716535
 20
3.624015748031495
 30
0.0
 11
1.758858267716535
 21
3.761811023622047
 31
0.0
  0
LWPOLYLINE
  5
54B
330
1E
100
AcDbEntity
  8
0
100
AcDbPolyline
 90
        3
 70
     0
 43
0.0
 10
2.541338582677165
 20
3.509842519685039
 10
2.552165354330708
 20
3.513779527559055
 10
2.557086614173228
 20
3.524606299212598
  0
LINE
  5
550
330
1E
100
AcDbEntity
  8
0
100
AcDbLine
 10
2.541338582677165
 20
3.508858267716535
 30
0.0
 11
2.541338582677165
 21
3.509842519685039
 31
0.0
  0
LWPOLYLINE
  5
551
330
1E
100
AcDbEntity
  8
0
100
AcDbPolyline
 90
        3
 70
     0
 43
0.0
 10
2.541338582677165
 20
3.508858267716535
 10
2.553149606299212
 20
3.513779527559055
 10
2.558070866141732
 20
3.524606299212598
  0
LINE
  5
556
330
1E
100
AcDbEntity
  8
0
100
AcDbLine
 10
2.558070866141732
 20
3.524606299212598
 30
0.0
 11
2.557086614173228
 21
3.524606299212598
 31
0.0
  0
LINE
  5
557
330
1E
100
AcDbEntity
  8
0
100
AcDbLine
 10
2.557086614173228
 20
3.661417322834645
 30
0.0
 11
2.557086614173228
 21
3.524606299212598
 31
0.0
  0
LINE
  5
558
330
1E
100
AcDbEntity
  8
0
100
AcDbLine
 10
2.558070866141732
 20
3.661417322834645
 30
0.0
 11
2.558070866141732
 21
3.524606299212598
 31
0.0
  0
LINE
  5
559
330
1E
100
AcDbEntity
  8
0
100
AcDbLine
 10
2.558070866141732
 20
3.661417322834645
 30
0.0
 11
2.557086614173228
 21
3.661417322834645
 31
0.0
  0
LWPOLYLINE
  5
55A
330
1E
100
AcDbEntity
  8
0
100
AcDbPolyline
 90
        3
 70
     0
 43
0.0
 10
2.557086614173228
 20
3.661417322834645
 10
2.552165354330708
 20
3.672244094488188
 10
2.541338582677165
 20
3.676181102362204
  0
LWPOLYLINE
  5
55F
330
1E
100
AcDbEntity
  8
0
100
AcDbPolyline
 90
        3
 70
     0
 43
0.0
 10
2.558070866141732
 20
3.661417322834645
 10
2.553149606299212
 20
3.672244094488188
 10
2.541338582677165
 20
3.677165354330708
  0
LINE
  5
564
330
1E
100
AcDbEntity
  8
0
100
AcDbLine
 10
2.541338582677165
 20
3.677165354330708
 30
0.0
 11
2.541338582677165
 21
3.676181102362204
 31
0.0
  0
LINE
  5
565
330
1E
100
AcDbEntity
  8
0
100
AcDbLine
 10
2.511811023622047
 20
3.676181102362204
 30
0.0
 11
2.541338582677165
 21
3.676181102362204
 31
0.0
  0
LINE
  5
566
330
1E
100
AcDbEntity
  8
0
100
AcDbLine
 10
2.510826771653543
 20
3.677165354330708
 30
0.0
 11
2.541338582677165
 21
3.677165354330708
 31
0.0
  0
LINE
  5
567
330
1E
100
AcDbEntity
  8
0
100
AcDbLine
 10
2.510826771653543
 20
3.677165354330708
 30
0.0
 11
2.511811023622047
 21
3.676181102362204
 31
0.0
  0
LINE
  5
568
330
1E
100
AcDbEntity
  8
0
100
AcDbLine
 10
2.511811023622047
 20
3.509842519685039
 30
0.0
 11
2.511811023622047
 21
3.676181102362204
 31
0.0
  0
LINE
  5
569
330
1E
100
AcDbEntity
  8
0
100
AcDbLine
 10
2.510826771653543
 20
3.508858267716535
 30
0.0
 11
2.510826771653543
 21
3.677165354330708
 31
0.0
  0
LINE
  5
56A
330
1E
100
AcDbEntity
  8
0
100
AcDbLine
 10
2.510826771653543
 20
3.508858267716535
 30
0.0
 11
2.511811023622047
 21
3.509842519685039
 31
0.0
  0
LINE
  5
56B
330
1E
100
AcDbEntity
  8
0
100
AcDbLine
 10
2.64271653543307
 20
3.68503937007874
 30
0.0
 11
2.643700787401574
 21
3.68503937007874
 31
0.0
  0
LINE
  5
56C
330
1E
100
AcDbEntity
  8
0
100
AcDbLine
 10
2.64271653543307
 20
3.68503937007874
 30
0.0
 11
2.64271653543307
 21
3.49507874015748
 31
0.0
  0
LINE
  5
56D
330
1E
100
AcDbEntity
  8
0
100
AcDbLine
 10
2.64271653543307
 20
3.49507874015748
 30
0.0
 11
2.643700787401574
 21
3.49507874015748
 31
0.0
  0
LWPOLYLINE
  5
56E
330
1E
100
AcDbEntity
  8
0
100
AcDbPolyline
 90
        5
 70
     0
 43
0.0
 10
2.590551181102362
 20
3.441929133858267
 10
2.61023622047244
 20
3.445866141732283
 10
2.626968503937007
 20
3.45767716535433
 10
2.638779527559055
 20
3.474409448818897
 10
2.64271653543307
 20
3.49507874015748
  0
LINE
  5
575
330
1E
100
AcDbEntity
  8
0
100
AcDbLine
 10
2.590551181102362
 20
3.441929133858267
 30
0.0
 11
2.590551181102362
 21
3.441929133858267
 31
0.0
  0
LINE
  5
576
330
1E
100
AcDbEntity
  8
0
100
AcDbLine
 10
2.590551181102362
 20
3.441929133858267
 30
0.0
 11
2.424212598425196
 21
3.441929133858267
 31
0.0
  0
LINE
  5
577
330
1E
100
AcDbEntity
  8
0
100
AcDbLine
 10
2.424212598425196
 20
3.441929133858267
 30
0.0
 11
2.424212598425196
 21
3.441929133858267
 31
0.0
  0
LINE
  5
578
330
1E
100
AcDbEntity
  8
0
100
AcDbLine
 10
2.424212598425196
 20
3.441929133858267
 30
0.0
 11
2.424212598425196
 21
3.737204724409448
 31
0.0
  0
LINE
  5
579
330
1E
100
AcDbEntity
  8
0
100
AcDbLine
 10
2.424212598425196
 20
3.737204724409448
 30
0.0
 11
2.424212598425196
 21
3.738188976377952
 31
0.0
  0
LINE
  5
57A
330
1E
100
AcDbEntity
  8
0
100
AcDbLine
 10
2.424212598425196
 20
3.737204724409448
 30
0.0
 11
2.590551181102362
 21
3.737204724409448
 31
0.0
  0
LINE
  5
57B
330
1E
100
AcDbEntity
  8
0
100
AcDbLine
 10
2.590551181102362
 20
3.737204724409448
 30
0.0
 11
2.590551181102362
 21
3.738188976377952
 31
0.0
  0
LWPOLYLINE
  5
57C
330
1E
100
AcDbEntity
  8
0
100
AcDbPolyline
 90
        5
 70
     0
 43
0.0
 10
2.64271653543307
 20
3.68503937007874
 10
2.638779527559055
 20
3.704724409448818
 10
2.626968503937007
 20
3.722440944881889
 10
2.61023622047244
 20
3.733267716535432
 10
2.590551181102362
 20
3.737204724409448
  0
LINE
  5
583
330
1E
100
AcDbEntity
  8
0
100
AcDbLine
 10
2.511811023622047
 20
3.509842519685039
 30
0.0
 11
2.541338582677165
 21
3.509842519685039
 31
0.0
  0
LINE
  5
584
330
1E
100
AcDbEntity
  8
0
100
AcDbLine
 10
2.510826771653543
 20
3.508858267716535
 30
0.0
 11
2.541338582677165
 21
3.508858267716535
 31
0.0
  0
LINE
  5
585
330
1E
100
AcDbEntity
  8
0
100
AcDbLine
 10
2.748031496062992
 20
3.441929133858267
 30
0.0
 11
2.748031496062992
 21
3.441929133858267
 31
0.0
  0
LWPOLYLINE
  5
586
330
1E
100
AcDbEntity
  8
0
100
AcDbPolyline
 90
        5
 70
     0
 43
0.0
 10
2.695866141732283
 20
3.49507874015748
 10
2.699803149606299
 20
3.474409448818897
 10
2.710629921259842
 20
3.45767716535433
 10
2.727362204724409
 20
3.445866141732283
 10
2.748031496062992
 20
3.441929133858267
  0
LINE
  5
58D
330
1E
100
AcDbEntity
  8
0
100
AcDbLine
 10
2.695866141732283
 20
3.49507874015748
 30
0.0
 11
2.694881889763779
 21
3.49507874015748
 31
0.0
  0
LINE
  5
58E
330
1E
100
AcDbEntity
  8
0
100
AcDbLine
 10
2.853346456692913
 20
3.441929133858267
 30
0.0
 11
2.853346456692913
 21
3.441929133858267
 31
0.0
  0
LINE
  5
58F
330
1E
100
AcDbEntity
  8
0
100
AcDbLine
 10
2.748031496062992
 20
3.441929133858267
 30
0.0
 11
2.853346456692913
 21
3.441929133858267
 31
0.0
  0
LINE
  5
590
330
1E
100
AcDbEntity
  8
0
100
AcDbLine
 10
2.905511811023622
 20
3.49507874015748
 30
0.0
 11
2.906496062992125
 21
3.49507874015748
 31
0.0
  0
LWPOLYLINE
  5
591
330
1E
100
AcDbEntity
  8
0
100
AcDbPolyline
 90
        5
 70
     0
 43
0.0
 10
2.853346456692913
 20
3.441929133858267
 10
2.873031496062992
 20
3.445866141732283
 10
2.890748031496062
 20
3.45767716535433
 10
2.901574803149606
 20
3.474409448818897
 10
2.905511811023622
 20
3.49507874015748
  0
LINE
  5
598
330
1E
100
AcDbEntity
  8
0
100
AcDbLine
 10
2.905511811023622
 20
3.737204724409448
 30
0.0
 11
2.906496062992125
 21
3.738188976377952
 31
0.0
  0
LINE
  5
599
330
1E
100
AcDbEntity
  8
0
100
AcDbLine
 10
2.905511811023622
 20
3.737204724409448
 30
0.0
 11
2.905511811023622
 21
3.49507874015748
 31
0.0
  0
LINE
  5
59A
330
1E
100
AcDbEntity
  8
0
100
AcDbLine
 10
2.845472440944881
 20
3.737204724409448
 30
0.0
 11
2.844488188976377
 21
3.738188976377952
 31
0.0
  0
LINE
  5
59B
330
1E
100
AcDbEntity
  8
0
100
AcDbLine
 10
2.845472440944881
 20
3.737204724409448
 30
0.0
 11
2.905511811023622
 21
3.737204724409448
 31
0.0
  0
LINE
  5
59C
330
1E
100
AcDbEntity
  8
0
100
AcDbLine
 10
2.845472440944881
 20
3.524606299212598
 30
0.0
 11
2.844488188976377
 21
3.524606299212598
 31
0.0
  0
LINE
  5
59D
330
1E
100
AcDbEntity
  8
0
100
AcDbLine
 10
2.845472440944881
 20
3.524606299212598
 30
0.0
 11
2.845472440944881
 21
3.737204724409448
 31
0.0
  0
LINE
  5
59E
330
1E
100
AcDbEntity
  8
0
100
AcDbLine
 10
2.829724409448818
 20
3.508858267716535
 30
0.0
 11
2.829724409448818
 21
3.509842519685039
 31
0.0
  0
LWPOLYLINE
  5
59F
330
1E
100
AcDbEntity
  8
0
100
AcDbPolyline
 90
        3
 70
     0
 43
0.0
 10
2.829724409448818
 20
3.508858267716535
 10
2.840551181102362
 20
3.513779527559055
 10
2.845472440944881
 20
3.524606299212598
  0
LINE
  5
5A4
330
1E
100
AcDbEntity
  8
0
100
AcDbLine
 10
2.808070866141732
 20
3.508858267716535
 30
0.0
 11
2.808070866141732
 21
3.509842519685039
 31
0.0
  0
LINE
  5
5A5
330
1E
100
AcDbEntity
  8
0
100
AcDbLine
 10
2.808070866141732
 20
3.508858267716535
 30
0.0
 11
2.829724409448818
 21
3.508858267716535
 31
0.0
  0
LINE
  5
5A6
330
1E
100
AcDbEntity
  8
0
100
AcDbLine
 10
2.792322834645669
 20
3.524606299212598
 30
0.0
 11
2.792322834645669
 21
3.524606299212598
 31
0.0
  0
LWPOLYLINE
  5
5A7
330
1E
100
AcDbEntity
  8
0
100
AcDbPolyline
 90
        3
 70
     0
 43
0.0
 10
2.792322834645669
 20
3.524606299212598
 10
2.796259842519685
 20
3.513779527559055
 10
2.808070866141732
 20
3.508858267716535
  0
LINE
  5
5AC
330
1E
100
AcDbEntity
  8
0
100
AcDbLine
 10
2.792322834645669
 20
3.737204724409448
 30
0.0
 11
2.792322834645669
 21
3.738188976377952
 31
0.0
  0
LINE
  5
5AD
330
1E
100
AcDbEntity
  8
0
100
AcDbLine
 10
2.792322834645669
 20
3.737204724409448
 30
0.0
 11
2.792322834645669
 21
3.524606299212598
 31
0.0
  0
LINE
  5
5AE
330
1E
100
AcDbEntity
  8
0
100
AcDbLine
 10
2.695866141732283
 20
3.737204724409448
 30
0.0
 11
2.694881889763779
 21
3.738188976377952
 31
0.0
  0
LINE
  5
5AF
330
1E
100
AcDbEntity
  8
0
100
AcDbLine
 10
2.695866141732283
 20
3.737204724409448
 30
0.0
 11
2.792322834645669
 21
3.737204724409448
 31
0.0
  0
LINE
  5
5B0
330
1E
100
AcDbEntity
  8
0
100
AcDbLine
 10
2.695866141732283
 20
3.49507874015748
 30
0.0
 11
2.695866141732283
 21
3.737204724409448
 31
0.0
  0
LINE
  5
5B1
330
1E
100
AcDbEntity
  8
0
100
AcDbLine
 10
3.036417322834645
 20
3.441929133858267
 30
0.0
 11
3.037401574803149
 21
3.441929133858267
 31
0.0
  0
LINE
  5
5B2
330
1E
100
AcDbEntity
  8
0
100
AcDbLine
 10
3.036417322834645
 20
3.441929133858267
 30
0.0
 11
2.958661417322834
 21
3.441929133858267
 31
0.0
  0
LINE
  5
5B3
330
1E
100
AcDbEntity
  8
0
100
AcDbLine
 10
2.958661417322834
 20
3.441929133858267
 30
0.0
 11
2.95767716535433
 21
3.441929133858267
 31
0.0
  0
LINE
  5
5B4
330
1E
100
AcDbEntity
  8
0
100
AcDbLine
 10
2.958661417322834
 20
3.441929133858267
 30
0.0
 11
2.958661417322834
 21
3.737204724409448
 31
0.0
  0
LINE
  5
5B5
330
1E
100
AcDbEntity
  8
0
100
AcDbLine
 10
2.958661417322834
 20
3.737204724409448
 30
0.0
 11
2.95767716535433
 21
3.738188976377952
 31
0.0
  0
LINE
  5
5B6
330
1E
100
AcDbEntity
  8
0
100
AcDbLine
 10
2.958661417322834
 20
3.737204724409448
 30
0.0
 11
3.036417322834645
 21
3.737204724409448
 31
0.0
  0
LINE
  5
5B7
330
1E
100
AcDbEntity
  8
0
100
AcDbLine
 10
3.036417322834645
 20
3.737204724409448
 30
0.0
 11
3.037401574803149
 21
3.738188976377952
 31
0.0
  0
LINE
  5
5B8
330
1E
100
AcDbEntity
  8
0
100
AcDbLine
 10
3.036417322834645
 20
3.441929133858267
 30
0.0
 11
3.036417322834645
 21
3.737204724409448
 31
0.0
  0
LINE
  5
5B9
330
1E
100
AcDbEntity
  8
0
100
AcDbLine
 10
3.150590551181102
 20
3.441929133858267
 30
0.0
 11
3.149606299212598
 21
3.441929133858267
 31
0.0
  0
LINE
  5
5BA
330
1E
100
AcDbEntity
  8
0
100
AcDbLine
 10
3.150590551181102
 20
3.441929133858267
 30
0.0
 11
3.150590551181102
 21
3.678149606299212
 31
0.0
  0
LINE
  5
5BB
330
1E
100
AcDbEntity
  8
0
100
AcDbLine
 10
3.150590551181102
 20
3.678149606299212
 30
0.0
 11
3.149606299212598
 21
3.677165354330708
 31
0.0
  0
LINE
  5
5BC
330
1E
100
AcDbEntity
  8
0
100
AcDbLine
 10
3.089566929133858
 20
3.678149606299212
 30
0.0
 11
3.150590551181102
 21
3.678149606299212
 31
0.0
  0
LINE
  5
5BD
330
1E
100
AcDbEntity
  8
0
100
AcDbLine
 10
3.089566929133858
 20
3.678149606299212
 30
0.0
 11
3.088582677165354
 21
3.677165354330708
 31
0.0
  0
LINE
  5
5BE
330
1E
100
AcDbEntity
  8
0
100
AcDbLine
 10
3.089566929133858
 20
3.737204724409448
 30
0.0
 11
3.089566929133858
 21
3.678149606299212
 31
0.0
  0
LINE
  5
5BF
330
1E
100
AcDbEntity
  8
0
100
AcDbLine
 10
3.089566929133858
 20
3.737204724409448
 30
0.0
 11
3.088582677165354
 21
3.738188976377952
 31
0.0
  0
LINE
  5
5C0
330
1E
100
AcDbEntity
  8
0
100
AcDbLine
 10
3.089566929133858
 20
3.737204724409448
 30
0.0
 11
3.308070866141732
 21
3.737204724409448
 31
0.0
  0
LINE
  5
5C1
330
1E
100
AcDbEntity
  8
0
100
AcDbLine
 10
3.308070866141732
 20
3.737204724409448
 30
0.0
 11
3.308070866141732
 21
3.738188976377952
 31
0.0
  0
LINE
  5
5C2
330
1E
100
AcDbEntity
  8
0
100
AcDbLine
 10
3.308070866141732
 20
3.678149606299212
 30
0.0
 11
3.308070866141732
 21
3.737204724409448
 31
0.0
  0
LINE
  5
5C3
330
1E
100
AcDbEntity
  8
0
100
AcDbLine
 10
3.308070866141732
 20
3.678149606299212
 30
0.0
 11
3.308070866141732
 21
3.677165354330708
 31
0.0
  0
LINE
  5
5C4
330
1E
100
AcDbEntity
  8
0
100
AcDbLine
 10
3.308070866141732
 20
3.678149606299212
 30
0.0
 11
3.239173228346456
 21
3.678149606299212
 31
0.0
  0
LINE
  5
5C5
330
1E
100
AcDbEntity
  8
0
100
AcDbLine
 10
3.239173228346456
 20
3.678149606299212
 30
0.0
 11
3.24015748031496
 21
3.677165354330708
 31
0.0
  0
LINE
  5
5C6
330
1E
100
AcDbEntity
  8
0
100
AcDbLine
 10
3.239173228346456
 20
3.441929133858267
 30
0.0
 11
3.239173228346456
 21
3.678149606299212
 31
0.0
  0
LINE
  5
5C7
330
1E
100
AcDbEntity
  8
0
100
AcDbLine
 10
3.239173228346456
 20
3.441929133858267
 30
0.0
 11
3.24015748031496
 21
3.441929133858267
 31
0.0
  0
LINE
  5
5C8
330
1E
100
AcDbEntity
  8
0
100
AcDbLine
 10
3.239173228346456
 20
3.441929133858267
 30
0.0
 11
3.150590551181102
 21
3.441929133858267
 31
0.0
  0
LWPOLYLINE
  5
5C9
330
1E
100
AcDbEntity
  8
0
100
AcDbPolyline
 90
        3
 70
     0
 43
0.0
 10
0.5255905511811024
 20
3.321850393700787
 10
0.5187007874015749
 20
3.324803149606299
 10
0.515748031496063
 20
3.331692913385826
  0
LWPOLYLINE
  5
5CE
330
1E
100
AcDbEntity
  8
0
100
AcDbPolyline
 90
        3
 70
     0
 43
0.0
 10
0.515748031496063
 20
3.886811023622047
 10
0.5187007874015749
 20
3.893700787401574
 10
0.5255905511811024
 20
3.896653543307086
  0
LWPOLYLINE
  5
5D3
330
1E
100
AcDbEntity
  8
0
100
AcDbPolyline
 90
        3
 70
     0
 43
0.0
 10
4.361220472440944
 20
3.331692913385826
 10
4.358267716535433
 20
3.324803149606299
 10
4.351377952755905
 20
3.321850393700787
  0
LWPOLYLINE
  5
5D8
330
1E
100
AcDbEntity
  8
0
100
AcDbPolyline
 90
        3
 70
     0
 43
0.0
 10
4.351377952755905
 20
3.896653543307086
 10
4.358267716535433
 20
3.893700787401574
 10
4.361220472440944
 20
3.886811023622047
  0
LWPOLYLINE
  5
5DD
330
1E
100
AcDbEntity
  8
0
100
AcDbPolyline
 90
        3
 70
     0
 43
0.0
 10
4.351377952755905
 20
3.321850393700787
 10
4.351377952755905
 20
3.324803149606299
 10
4.351377952755905
 20
3.331692913385826
  0
LWPOLYLINE
  5
5E2
330
1E
100
AcDbEntity
  8
0
100
AcDbPolyline
 90
        3
 70
     0
 43
0.0
 10
4.351377952755905
 20
3.331692913385826
 10
4.358267716535433
 20
3.331692913385826
 10
4.361220472440944
 20
3.331692913385826
  0
LWPOLYLINE
  5
5E7
330
1E
100
AcDbEntity
  8
0
100
AcDbPolyline
 90
        3
 70
     0
 43
0.0
 10
4.351377952755905
 20
3.886811023622047
 10
4.358267716535433
 20
3.886811023622047
 10
4.361220472440944
 20
3.886811023622047
  0
LWPOLYLINE
  5
5EC
330
1E
100
AcDbEntity
  8
0
100
AcDbPolyline
 90
        3
 70
     0
 43
0.0
 10
0.5255905511811024
 20
3.321850393700787
 10
0.5255905511811024
 20
3.324803149606299
 10
0.5255905511811024
 20
3.331692913385826
  0
LWPOLYLINE
  5
5F1
330
1E
100
AcDbEntity
  8
0
100
AcDbPolyline
 90
        3
 70
     0
 43
0.0
 10
4.351377952755905
 20
3.886811023622047
 10
4.351377952755905
 20
3.893700787401574
 10
4.351377952755905
 20
3.896653543307086
  0
LWPOLYLINE
  5
5F6
330
1E
100
AcDbEntity
  8
0
100
AcDbPolyline
 90
        3
 70
     0
 43
0.0
 10
0.515748031496063
 20
3.331692913385826
 10
0.5187007874015749
 20
3.331692913385826
 10
0.5255905511811024
 20
3.331692913385826
  0
LWPOLYLINE
  5
5FB
330
1E
100
AcDbEntity
  8
0
100
AcDbPolyline
 90
        3
 70
     0
 43
0.0
 10
0.5255905511811024
 20
3.886811023622047
 10
0.5255905511811024
 20
3.893700787401574
 10
0.5255905511811024
 20
3.896653543307086
  0
LWPOLYLINE
  5
600
330
1E
100
AcDbEntity
  8
0
100
AcDbPolyline
 90
        3
 70
     0
 43
0.0
 10
0.515748031496063
 20
3.886811023622047
 10
0.5187007874015749
 20
3.886811023622047
 10
0.5255905511811024
 20
3.886811023622047
  0
LINE
  5
605
330
1E
100
AcDbEntity
  8
0
100
AcDbLine
 10
5.568897637795275
 20
3.331692913385826
 30
0.0
 11
5.568897637795275
 21
3.886811023622047
 31
0.0
  0
LINE
  5
606
330
1E
100
AcDbEntity
  8
0
100
AcDbLine
 10
7.231299212598425
 20
3.65748031496063
 30
0.0
 11
7.231299212598425
 21
3.569881889763779
 31
0.0
  0
LINE
  5
607
330
1E
100
AcDbEntity
  8
0
100
AcDbLine
 10
7.231299212598425
 20
3.911417322834645
 30
0.0
 11
7.231299212598425
 21
3.816929133858267
 31
0.0
  0
LINE
  5
608
330
1E
100
AcDbEntity
  8
0
100
AcDbLine
 10
7.231299212598425
 20
3.65748031496063
 30
0.0
 11
7.231299212598425
 21
3.816929133858267
 31
0.0
  0
LINE
  5
609
330
1E
100
AcDbEntity
  8
0
100
AcDbLine
 10
7.167322834645669
 20
3.544291338582677
 30
0.0
 11
7.206692913385826
 21
3.545275590551181
 31
0.0
  0
LWPOLYLINE
  5
60A
330
1E
100
AcDbEntity
  8
0
100
AcDbPolyline
 90
        4
 70
     0
 43
0.0
 10
7.206692913385826
 20
3.545275590551181
 10
7.218503937007874
 20
3.548228346456693
 10
7.228346456692912
 20
3.558070866141732
 10
7.231299212598425
 20
3.569881889763779
  0
LINE
  5
610
330
1E
100
AcDbEntity
  8
0
100
AcDbLine
 10
7.231299212598425
 20
3.65748031496063
 30
0.0
 11
7.21751968503937
 21
3.65748031496063
 31
0.0
  0
LINE
  5
611
330
1E
100
AcDbEntity
  8
0
100
AcDbLine
 10
7.21751968503937
 20
3.65748031496063
 30
0.0
 11
7.167322834645669
 21
3.65748031496063
 31
0.0
  0
LINE
  5
612
330
1E
100
AcDbEntity
  8
0
100
AcDbLine
 10
7.21751968503937
 20
3.816929133858267
 30
0.0
 11
7.21751968503937
 21
3.65748031496063
 31
0.0
  0
LINE
  5
613
330
1E
100
AcDbEntity
  8
0
100
AcDbLine
 10
7.21751968503937
 20
3.816929133858267
 30
0.0
 11
7.167322834645669
 21
3.816929133858267
 31
0.0
  0
LINE
  5
614
330
1E
100
AcDbEntity
  8
0
100
AcDbLine
 10
7.167322834645669
 20
3.65748031496063
 30
0.0
 11
7.167322834645669
 21
3.816929133858267
 31
0.0
  0
LWPOLYLINE
  5
615
330
1E
100
AcDbEntity
  8
0
100
AcDbPolyline
 90
        4
 70
     0
 43
0.0
 10
5.607283464566928
 20
3.252952755905511
 10
5.607283464566928
 20
3.256889763779527
 10
5.607283464566928
 20
3.26771653543307
 10
5.607283464566928
 20
3.28248031496063
  0
LINE
  5
61B
330
1E
100
AcDbEntity
  8
0
100
AcDbLine
 10
5.607283464566928
 20
3.28248031496063
 30
0.0
 11
5.607283464566928
 21
4.026574803149606
 31
0.0
  0
LWPOLYLINE
  5
61C
330
1E
100
AcDbEntity
  8
0
100
AcDbPolyline
 90
        4
 70
     0
 43
0.0
 10
5.607283464566928
 20
4.026574803149606
 10
5.607283464566928
 20
4.041338582677165
 10
5.607283464566928
 20
4.053149606299212
 10
5.607283464566928
 20
4.057086614173228
  0
LINE
  5
622
330
1E
100
AcDbEntity
  8
0
100
AcDbLine
 10
7.167322834645669
 20
3.65748031496063
 30
0.0
 11
7.167322834645669
 21
3.319881889763779
 31
0.0
  0
LWPOLYLINE
  5
623
330
1E
100
AcDbEntity
  8
0
100
AcDbPolyline
 90
        3
 70
     0
 43
0.0
 10
7.167322834645669
 20
3.319881889763779
 10
7.167322834645669
 20
3.316929133858267
 10
7.167322834645669
 20
3.31003937007874
  0
LINE
  5
628
330
1E
100
AcDbEntity
  8
0
100
AcDbLine
 10
7.167322834645669
 20
3.31003937007874
 30
0.0
 11
7.167322834645669
 21
3.283464566929133
 31
0.0
  0
LWPOLYLINE
  5
629
330
1E
100
AcDbEntity
  8
0
100
AcDbPolyline
 90
        4
 70
     0
 43
0.0
 10
7.167322834645669
 20
3.283464566929133
 10
7.167322834645669
 20
3.268700787401574
 10
7.167322834645669
 20
3.257874015748031
 10
7.167322834645669
 20
3.253937007874015
  0
LINE
  5
62F
330
1E
100
AcDbEntity
  8
0
100
AcDbLine
 10
7.032480314960629
 20
3.591535433070866
 30
0.0
 11
7.032480314960629
 21
3.928149606299212
 31
0.0
  0
LWPOLYLINE
  5
630
330
1E
100
AcDbEntity
  8
0
100
AcDbPolyline
 90
        4
 70
     0
 43
0.0
 10
7.032480314960629
 20
3.591535433070866
 10
7.034448818897637
 20
3.586614173228346
 10
7.041338582677164
 20
3.58267716535433
 10
7.0501968503937
 20
3.581692913385826
  0
LINE
  5
636
330
1E
100
AcDbEntity
  8
0
100
AcDbLine
 10
7.094488188976377
 20
3.581692913385826
 30
0.0
 11
7.094488188976377
 21
3.659448818897637
 31
0.0
  0
LINE
  5
637
330
1E
100
AcDbEntity
  8
0
100
AcDbLine
 10
7.094488188976377
 20
3.659448818897637
 30
0.0
 11
7.063976377952755
 21
3.660433070866141
 31
0.0
  0
LINE
  5
638
330
1E
100
AcDbEntity
  8
0
100
AcDbLine
 10
7.063976377952755
 20
3.660433070866141
 30
0.0
 11
7.063976377952755
 21
3.814960629921259
 31
0.0
  0
LINE
  5
639
330
1E
100
AcDbEntity
  8
0
100
AcDbLine
 10
7.094488188976377
 20
3.815944881889763
 30
0.0
 11
7.063976377952755
 21
3.814960629921259
 31
0.0
  0
LINE
  5
63A
330
1E
100
AcDbEntity
  8
0
100
AcDbLine
 10
7.094488188976377
 20
3.815944881889763
 30
0.0
 11
7.094488188976377
 21
3.937007874015748
 31
0.0
  0
LWPOLYLINE
  5
63B
330
1E
100
AcDbEntity
  8
0
100
AcDbPolyline
 90
        4
 70
     0
 43
0.0
 10
7.0501968503937
 20
3.937992125984251
 10
7.041338582677164
 20
3.936023622047244
 10
7.034448818897637
 20
3.933070866141732
 10
7.032480314960629
 20
3.928149606299212
  0
LINE
  5
641
330
1E
100
AcDbEntity
  8
0
100
AcDbLine
 10
6.253937007874015
 20
3.584645669291338
 30
0.0
 11
7.032480314960629
 21
3.591535433070866
 31
0.0
  0
LINE
  5
642
330
1E
100
AcDbEntity
  8
0
100
AcDbLine
 10
7.032480314960629
 20
3.928149606299212
 30
0.0
 11
5.742125984251968
 21
3.938976377952755
 31
0.0
  0
LWPOLYLINE
  5
643
330
1E
100
AcDbEntity
  8
0
100
AcDbPolyline
 90
        4
 70
     0
 43
0.0
 10
5.742125984251968
 20
3.938976377952755
 10
5.729330708661417
 20
3.941929133858267
 10
5.720472440944881
 20
3.951771653543307
 10
5.71751968503937
 20
3.963582677165354
  0
LINE
  5
649
330
1E
100
AcDbEntity
  8
0
100
AcDbLine
 10
5.71751968503937
 20
3.963582677165354
 30
0.0
 11
5.71751968503937
 21
3.977362204724409
 31
0.0
  0
LWPOLYLINE
  5
64A
330
1E
100
AcDbEntity
  8
0
100
AcDbPolyline
 90
        4
 70
     0
 43
0.0
 10
5.71751968503937
 20
3.977362204724409
 10
5.720472440944881
 20
3.99015748031496
 10
5.729330708661417
 20
3.999015748031495
 10
5.742125984251968
 20
4.002952755905512
  0
LINE
  5
650
330
1E
100
AcDbEntity
  8
0
100
AcDbLine
 10
5.742125984251968
 20
4.002952755905512
 30
0.0
 11
6.253937007874015
 21
4.006889763779527
 31
0.0
  0
LINE
  5
651
330
1E
100
AcDbEntity
  8
0
100
AcDbLine
 10
6.253937007874015
 20
4.029527559055117
 30
0.0
 11
5.607283464566928
 21
4.026574803149606
 31
0.0
  0
LINE
  5
652
330
1E
100
AcDbEntity
  8
0
100
AcDbLine
 10
5.607283464566928
 20
3.28248031496063
 30
0.0
 11
6.253937007874015
 21
3.279527559055118
 31
0.0
  0
LINE
  5
653
330
1E
100
AcDbEntity
  8
0
100
AcDbLine
 10
6.253937007874015
 20
3.302165354330708
 30
0.0
 11
5.742125984251968
 21
3.307086614173228
 31
0.0
  0
LWPOLYLINE
  5
654
330
1E
100
AcDbEntity
  8
0
100
AcDbPolyline
 90
        4
 70
     0
 43
0.0
 10
5.742125984251968
 20
3.307086614173228
 10
5.729330708661417
 20
3.31003937007874
 10
5.720472440944881
 20
3.318897637795275
 10
5.71751968503937
 20
3.331692913385826
  0
LINE
  5
65A
330
1E
100
AcDbEntity
  8
0
100
AcDbLine
 10
5.71751968503937
 20
3.331692913385826
 30
0.0
 11
5.71751968503937
 21
3.352362204724409
 31
0.0
  0
LWPOLYLINE
  5
65B
330
1E
100
AcDbEntity
  8
0
100
AcDbPolyline
 90
        4
 70
     0
 43
0.0
 10
5.71751968503937
 20
3.352362204724409
 10
5.720472440944881
 20
3.36515748031496
 10
5.729330708661417
 20
3.374015748031495
 10
5.742125984251968
 20
3.377952755905511
  0
LINE
  5
661
330
1E
100
AcDbEntity
  8
0
100
AcDbLine
 10
5.742125984251968
 20
3.377952755905511
 30
0.0
 11
6.253937007874015
 21
3.381889763779527
 31
0.0
  0
LINE
  5
662
330
1E
100
AcDbEntity
  8
0
100
AcDbLine
 10
5.607283464566928
 20
4.057086614173228
 30
0.0
 11
6.253937007874015
 21
4.060039370078739
 31
0.0
  0
LWPOLYLINE
  5
663
330
1E
100
AcDbEntity
  8
0
100
AcDbPolyline
 90
        4
 70
     0
 43
0.0
 10
7.167322834645669
 20
4.056102362204724
 10
7.167322834645669
 20
4.051181102362204
 10
7.167322834645669
 20
4.040354330708661
 10
7.167322834645669
 20
4.025590551181101
  0
LINE
  5
669
330
1E
100
AcDbEntity
  8
0
100
AcDbLine
 10
7.167322834645669
 20
4.025590551181101
 30
0.0
 11
7.167322834645669
 21
3.999015748031495
 31
0.0
  0
LWPOLYLINE
  5
66A
330
1E
100
AcDbEntity
  8
0
100
AcDbPolyline
 90
        3
 70
     0
 43
0.0
 10
7.167322834645669
 20
3.999015748031495
 10
7.167322834645669
 20
3.992125984251968
 10
7.167322834645669
 20
3.989173228346456
  0
LINE
  5
66F
330
1E
100
AcDbEntity
  8
0
100
AcDbLine
 10
7.167322834645669
 20
3.989173228346456
 30
0.0
 11
7.167322834645669
 21
3.816929133858267
 31
0.0
  0
LINE
  5
670
330
1E
100
AcDbEntity
  8
0
100
AcDbLine
 10
6.253937007874015
 20
3.25
 30
0.0
 11
5.607283464566928
 21
3.252952755905511
 31
0.0
  0
LINE
  5
671
330
1E
100
AcDbEntity
  8
0
100
AcDbLine
 10
5.727362204724409
 20
3.331692913385826
 30
0.0
 11
5.727362204724409
 21
3.352362204724409
 31
0.0
  0
LINE
  5
672
330
1E
100
AcDbEntity
  8
0
100
AcDbLine
 10
5.742125984251968
 20
3.368110236220472
 30
0.0
 11
6.253937007874015
 21
3.372047244094487
 31
0.0
  0
LINE
  5
673
330
1E
100
AcDbEntity
  8
0
100
AcDbLine
 10
6.253937007874015
 20
3.372047244094487
 30
0.0
 11
6.253937007874015
 21
3.372047244094487
 31
0.0
  0
LINE
  5
674
330
1E
100
AcDbEntity
  8
0
100
AcDbLine
 10
6.253937007874015
 20
3.312007874015748
 30
0.0
 11
5.742125984251968
 21
3.316929133858267
 31
0.0
  0
LINE
  5
675
330
1E
100
AcDbEntity
  8
0
100
AcDbLine
 10
5.727362204724409
 20
3.963582677165354
 30
0.0
 11
5.727362204724409
 21
3.977362204724409
 31
0.0
  0
LINE
  5
676
330
1E
100
AcDbEntity
  8
0
100
AcDbLine
 10
7.094488188976377
 20
3.937007874015748
 30
0.0
 11
6.253937007874015
 21
3.944881889763779
 31
0.0
  0
LINE
  5
677
330
1E
100
AcDbEntity
  8
0
100
AcDbLine
 10
6.253937007874015
 20
3.944881889763779
 30
0.0
 11
5.742125984251968
 21
3.948818897637795
 31
0.0
  0
LINE
  5
678
330
1E
100
AcDbEntity
  8
0
100
AcDbLine
 10
6.253937007874015
 20
3.372047244094487
 30
0.0
 11
6.253937007874015
 21
3.574803149606299
 31
0.0
  0
LWPOLYLINE
  5
679
330
1E
100
AcDbEntity
  8
0
100
AcDbPolyline
 90
        3
 70
     0
 43
0.0
 10
6.253937007874015
 20
3.574803149606299
 10
6.253937007874015
 20
3.577755905511811
 10
6.253937007874015
 20
3.584645669291338
  0
LINE
  5
67E
330
1E
100
AcDbEntity
  8
0
100
AcDbLine
 10
6.253937007874015
 20
3.574803149606299
 30
0.0
 11
7.094488188976377
 21
3.581692913385826
 31
0.0
  0
LINE
  5
67F
330
1E
100
AcDbEntity
  8
0
100
AcDbLine
 10
7.191929133858267
 20
3.937007874015748
 30
0.0
 11
7.206692913385826
 21
3.937007874015748
 31
0.0
  0
LWPOLYLINE
  5
680
330
1E
100
AcDbEntity
  8
0
100
AcDbPolyline
 90
        4
 70
     0
 43
0.0
 10
7.231299212598425
 20
3.911417322834645
 10
7.228346456692912
 20
3.924212598425196
 10
7.218503937007874
 20
3.933070866141732
 10
7.206692913385826
 20
3.937007874015748
  0
LWPOLYLINE
  5
686
330
1E
100
AcDbEntity
  8
0
100
AcDbPolyline
 90
        4
 70
     0
 43
0.0
 10
7.191929133858267
 20
3.937007874015748
 10
7.179133858267716
 20
3.939960629921259
 10
7.17027559055118
 20
3.949803149606299
 10
7.167322834645669
 20
3.961614173228346
  0
LINE
  5
68C
330
1E
100
AcDbEntity
  8
0
100
AcDbLine
 10
7.231299212598425
 20
3.816929133858267
 30
0.0
 11
7.21751968503937
 21
3.816929133858267
 31
0.0
  0
LINE
  5
68D
330
1E
100
AcDbEntity
  8
0
100
AcDbLine
 10
7.094488188976377
 20
3.659448818897637
 30
0.0
 11
7.167322834645669
 21
3.65748031496063
 31
0.0
  0
LINE
  5
68E
330
1E
100
AcDbEntity
  8
0
100
AcDbLine
 10
7.167322834645669
 20
3.816929133858267
 30
0.0
 11
7.094488188976377
 21
3.815944881889763
 31
0.0
  0
LINE
  5
68F
330
1E
100
AcDbEntity
  8
0
100
AcDbLine
 10
5.578740157480314
 20
3.896653543307086
 30
0.0
 11
5.607283464566928
 21
3.896653543307086
 31
0.0
  0
LINE
  5
690
330
1E
100
AcDbEntity
  8
0
100
AcDbLine
 10
5.607283464566928
 20
3.886811023622047
 30
0.0
 11
5.578740157480314
 21
3.886811023622047
 31
0.0
  0
LINE
  5
691
330
1E
100
AcDbEntity
  8
0
100
AcDbLine
 10
5.578740157480314
 20
3.886811023622047
 30
0.0
 11
5.578740157480314
 21
3.331692913385826
 31
0.0
  0
LINE
  5
692
330
1E
100
AcDbEntity
  8
0
100
AcDbLine
 10
5.578740157480314
 20
3.331692913385826
 30
0.0
 11
5.607283464566928
 21
3.331692913385826
 31
0.0
  0
LINE
  5
693
330
1E
100
AcDbEntity
  8
0
100
AcDbLine
 10
5.607283464566928
 20
3.321850393700787
 30
0.0
 11
5.578740157480314
 21
3.321850393700787
 31
0.0
  0
LINE
  5
694
330
1E
100
AcDbEntity
  8
0
100
AcDbLine
 10
6.253937007874015
 20
4.006889763779527
 30
0.0
 11
7.167322834645669
 21
3.999015748031495
 31
0.0
  0
LINE
  5
695
330
1E
100
AcDbEntity
  8
0
100
AcDbLine
 10
7.167322834645669
 20
4.025590551181101
 30
0.0
 11
6.253937007874015
 21
4.029527559055117
 31
0.0
  0
LINE
  5
696
330
1E
100
AcDbEntity
  8
0
100
AcDbLine
 10
7.167322834645669
 20
3.31003937007874
 30
0.0
 11
6.253937007874015
 21
3.302165354330708
 31
0.0
  0
LINE
  5
697
330
1E
100
AcDbEntity
  8
0
100
AcDbLine
 10
6.253937007874015
 20
3.279527559055118
 30
0.0
 11
7.167322834645669
 21
3.283464566929133
 31
0.0
  0
LINE
  5
698
330
1E
100
AcDbEntity
  8
0
100
AcDbLine
 10
6.253937007874015
 20
4.060039370078739
 30
0.0
 11
7.167322834645669
 21
4.056102362204724
 31
0.0
  0
LINE
  5
699
330
1E
100
AcDbEntity
  8
0
100
AcDbLine
 10
7.167322834645669
 20
3.989173228346456
 30
0.0
 11
6.253937007874015
 21
3.997047244094487
 31
0.0
  0
LINE
  5
69A
330
1E
100
AcDbEntity
  8
0
100
AcDbLine
 10
6.253937007874015
 20
3.944881889763779
 30
0.0
 11
6.253937007874015
 21
3.997047244094487
 31
0.0
  0
LINE
  5
69B
330
1E
100
AcDbEntity
  8
0
100
AcDbLine
 10
6.253937007874015
 20
3.312007874015748
 30
0.0
 11
7.167322834645669
 21
3.319881889763779
 31
0.0
  0
LINE
  5
69C
330
1E
100
AcDbEntity
  8
0
100
AcDbLine
 10
7.167322834645669
 20
3.253937007874015
 30
0.0
 11
6.253937007874015
 21
3.25
 31
0.0
  0
LINE
  5
69D
330
1E
100
AcDbEntity
  8
0
100
AcDbLine
 10
5.742125984251968
 20
3.993110236220472
 30
0.0
 11
6.253937007874015
 21
3.997047244094487
 31
0.0
  0
LWPOLYLINE
  5
69E
330
1E
100
AcDbEntity
  8
0
100
AcDbPolyline
 90
        3
 70
     0
 43
0.0
 10
5.727362204724409
 20
3.331692913385826
 10
5.731299212598425
 20
3.320866141732283
 10
5.742125984251968
 20
3.316929133858267
  0
LWPOLYLINE
  5
6A3
330
1E
100
AcDbEntity
  8
0
100
AcDbPolyline
 90
        3
 70
     0
 43
0.0
 10
5.742125984251968
 20
3.368110236220472
 10
5.731299212598425
 20
3.363188976377952
 10
5.727362204724409
 20
3.352362204724409
  0
LWPOLYLINE
  5
6A8
330
1E
100
AcDbEntity
  8
0
100
AcDbPolyline
 90
        3
 70
     0
 43
0.0
 10
5.727362204724409
 20
3.963582677165354
 10
5.731299212598425
 20
3.953740157480314
 10
5.742125984251968
 20
3.948818897637795
  0
LWPOLYLINE
  5
6AD
330
1E
100
AcDbEntity
  8
0
100
AcDbPolyline
 90
        3
 70
     0
 43
0.0
 10
5.742125984251968
 20
3.993110236220472
 10
5.731299212598425
 20
3.988188976377952
 10
5.727362204724409
 20
3.977362204724409
  0
LWPOLYLINE
  5
6B2
330
1E
100
AcDbEntity
  8
0
100
AcDbPolyline
 90
        4
 70
     0
 43
0.0
 10
6.253937007874015
 20
3.25
 10
6.253937007874015
 20
3.253937007874015
 10
6.253937007874015
 20
3.264763779527558
 10
6.253937007874015
 20
3.279527559055118
  0
LWPOLYLINE
  5
6B8
330
1E
100
AcDbEntity
  8
0
100
AcDbPolyline
 90
        4
 70
     0
 43
0.0
 10
6.253937007874015
 20
4.029527559055117
 10
6.253937007874015
 20
4.044291338582676
 10
6.253937007874015
 20
4.056102362204724
 10
6.253937007874015
 20
4.060039370078739
  0
LWPOLYLINE
  5
6BE
330
1E
100
AcDbEntity
  8
0
100
AcDbPolyline
 90
        3
 70
     0
 43
0.0
 10
5.742125984251968
 20
3.368110236220472
 10
5.742125984251968
 20
3.371062992125984
 10
5.742125984251968
 20
3.377952755905511
  0
LWPOLYLINE
  5
6C3
330
1E
100
AcDbEntity
  8
0
100
AcDbPolyline
 90
        3
 70
     0
 43
0.0
 10
6.253937007874015
 20
3.302165354330708
 10
6.253937007874015
 20
3.309055118110236
 10
6.253937007874015
 20
3.312007874015748
  0
LWPOLYLINE
  5
6C8
330
1E
100
AcDbEntity
  8
0
100
AcDbPolyline
 90
        3
 70
     0
 43
0.0
 10
5.727362204724409
 20
3.352362204724409
 10
5.724409448818897
 20
3.352362204724409
 10
5.71751968503937
 20
3.352362204724409
  0
LWPOLYLINE
  5
6CD
330
1E
100
AcDbEntity
  8
0
100
AcDbPolyline
 90
        3
 70
     0
 43
0.0
 10
5.742125984251968
 20
3.307086614173228
 10
5.742125984251968
 20
3.313976377952756
 10
5.742125984251968
 20
3.316929133858267
  0
LWPOLYLINE
  5
6D2
330
1E
100
AcDbEntity
  8
0
100
AcDbPolyline
 90
        3
 70
     0
 43
0.0
 10
5.727362204724409
 20
3.331692913385826
 10
5.724409448818897
 20
3.331692913385826
 10
5.71751968503937
 20
3.331692913385826
  0
LWPOLYLINE
  5
6D7
330
1E
100
AcDbEntity
  8
0
100
AcDbPolyline
 90
        3
 70
     0
 43
0.0
 10
5.742125984251968
 20
3.993110236220472
 10
5.742125984251968
 20
3.996062992125984
 10
5.742125984251968
 20
4.002952755905512
  0
LWPOLYLINE
  5
6DC
330
1E
100
AcDbEntity
  8
0
100
AcDbPolyline
 90
        3
 70
     0
 43
0.0
 10
5.727362204724409
 20
3.977362204724409
 10
5.724409448818897
 20
3.977362204724409
 10
5.71751968503937
 20
3.977362204724409
  0
LWPOLYLINE
  5
6E1
330
1E
100
AcDbEntity
  8
0
100
AcDbPolyline
 90
        3
 70
     0
 43
0.0
 10
5.742125984251968
 20
3.938976377952755
 10
5.742125984251968
 20
3.945866141732283
 10
5.742125984251968
 20
3.948818897637795
  0
LWPOLYLINE
  5
6E6
330
1E
100
AcDbEntity
  8
0
100
AcDbPolyline
 90
        3
 70
     0
 43
0.0
 10
5.727362204724409
 20
3.963582677165354
 10
5.724409448818897
 20
3.963582677165354
 10
5.71751968503937
 20
3.963582677165354
  0
LINE
  5
6EB
330
1E
100
AcDbEntity
  8
0
100
AcDbLine
 10
5.549212598425197
 20
3.827755905511811
 30
0.0
 11
5.568897637795275
 21
3.828740157480314
 31
0.0
  0
LWPOLYLINE
  5
6EC
330
1E
100
AcDbEntity
  8
0
100
AcDbPolyline
 90
        6
 70
     0
 43
0.0
 10
5.549212598425197
 20
3.737204724409448
 10
5.549212598425197
 20
3.76771653543307
 10
5.549212598425197
 20
3.792322834645669
 10
5.549212598425197
 20
3.812007874015748
 10
5.549212598425197
 20
3.823818897637795
 10
5.549212598425197
 20
3.827755905511811
  0
LINE
  5
6F4
330
1E
100
AcDbEntity
  8
0
100
AcDbLine
 10
5.549212598425197
 20
3.737204724409448
 30
0.0
 11
5.568897637795275
 21
3.738188976377952
 31
0.0
  0
LINE
  5
6F5
330
1E
100
AcDbEntity
  8
0
100
AcDbLine
 10
5.549212598425197
 20
3.678149606299212
 30
0.0
 11
5.549212598425197
 21
3.737204724409448
 31
0.0
  0
LINE
  5
6F6
330
1E
100
AcDbEntity
  8
0
100
AcDbLine
 10
5.549212598425197
 20
3.678149606299212
 30
0.0
 11
5.568897637795275
 21
3.677165354330708
 31
0.0
  0
LINE
  5
6F7
330
1E
100
AcDbEntity
  8
0
100
AcDbLine
 10
5.549212598425197
 20
3.441929133858267
 30
0.0
 11
5.549212598425197
 21
3.678149606299212
 31
0.0
  0
LINE
  5
6F8
330
1E
100
AcDbEntity
  8
0
100
AcDbLine
 10
5.549212598425197
 20
3.441929133858267
 30
0.0
 11
5.568897637795275
 21
3.441929133858267
 31
0.0
  0
LWPOLYLINE
  5
6F9
330
1E
100
AcDbEntity
  8
0
100
AcDbPolyline
 90
        3
 70
     0
 43
0.0
 10
5.578740157480314
 20
3.331692913385826
 10
5.578740157480314
 20
3.324803149606299
 10
5.578740157480314
 20
3.321850393700787
  0
LWPOLYLINE
  5
6FE
330
1E
100
AcDbEntity
  8
0
100
AcDbPolyline
 90
        3
 70
     0
 43
0.0
 10
5.578740157480314
 20
3.896653543307086
 10
5.578740157480314
 20
3.893700787401574
 10
5.578740157480314
 20
3.886811023622047
  0
LWPOLYLINE
  5
703
330
1E
100
AcDbEntity
  8
0
100
AcDbPolyline
 90
        3
 70
     0
 43
0.0
 10
5.578740157480314
 20
3.321850393700787
 10
5.571850393700787
 20
3.324803149606299
 10
5.568897637795275
 20
3.331692913385826
  0
LWPOLYLINE
  5
708
330
1E
100
AcDbEntity
  8
0
100
AcDbPolyline
 90
        3
 70
     0
 43
0.0
 10
5.568897637795275
 20
3.331692913385826
 10
5.571850393700787
 20
3.331692913385826
 10
5.578740157480314
 20
3.331692913385826
  0
LWPOLYLINE
  5
70D
330
1E
100
AcDbEntity
  8
0
100
AcDbPolyline
 90
        3
 70
     0
 43
0.0
 10
5.568897637795275
 20
3.886811023622047
 10
5.571850393700787
 20
3.886811023622047
 10
5.578740157480314
 20
3.886811023622047
  0
LWPOLYLINE
  5
712
330
1E
100
AcDbEntity
  8
0
100
AcDbPolyline
 90
        3
 70
     0
 43
0.0
 10
5.568897637795275
 20
3.886811023622047
 10
5.571850393700787
 20
3.893700787401574
 10
5.578740157480314
 20
3.896653543307086
  0
ENDSEC
  0
SECTION
  2
OBJECTS
  0
DICTIONARY
  5
C
330
0
100
AcDbDictionary
281
     1
  3
ACAD_GROUP
350
D
  3
ACAD_PLOTSTYLENAME
350
E
  3
ACAD_MLINESTYLE
350
16
  3
ACAD_PLOTSETTINGS
350
18
  3
ACAD_LAYOUT
350
19
  0
DICTIONARY
  5
D
102
{ACAD_REACTORS
330
C
102
}
330
C
100
AcDbDictionary
281
     1
  0
ACDBDICTIONARYWDFLT
  5
E
102
{ACAD_REACTORS
330
C
102
}
330
C
100
AcDbDictionary
281
     1
  3
Normal
350
F
100
AcDbDictionaryWithDefault
340
F
  0
DICTIONARY
  5
16
102
{ACAD_REACTORS
330
C
102
}
330
C
100
AcDbDictionary
281
     1
  3
Standard
350
17
  0
DICTIONARY
  5
18
102
{ACAD_REACTORS
330
C
102
}
330
C
100
AcDbDictionary
281
     1
  0
DICTIONARY
  5
19
102
{ACAD_REACTORS
330
C
102
}
330
C
100
AcDbDictionary
281
     1
  3
Layout1
350
1D
  3
Model
350
21
  0
ACDBPLACEHOLDER
  5
F
102
{ACAD_REACTORS
330
E
102
}
330
E
  0
MLINESTYLE
  5
17
102
{ACAD_REACTORS
330
16
102
}
330
16
100
AcDbMlineStyle
  2
STANDARD
 70
     0
  3

 62
   256
 51
90.0
 52
90.0
 71
     2
 49
0.5
 62
   256
  6
BYLAYER
 49
-0.5
 62
   256
  6
BYLAYER
  0
LAYOUT
  5
1D
102
{ACAD_REACTORS
330
19
102
}
330
19
100
AcDbPlotSettings
  1

  2
\\NSENG\OPLaser1
  4

  6

 40
0.0
 41
0.0
 42
0.0
 43
0.0
 44
0.0
 45
0.0
 46
0.0
 47
0.0
 48
0.0
 49
0.0
140
0.0
141
0.0
142
1.0
143
1.0
 70
   688
 72
     0
 73
     0
 74
     5
  7

 75
    16
147
1.0
148
0.0
149
0.0
100
AcDbLayout
  1
Layout1
 70
     1
 71
     1
 10
0.0
 20
0.0
 11
12.0
 21
9.0
 12
0.0
 22
0.0
 32
0.0
 14
1.000000000000000E+20
 24
1.000000000000000E+20
 34
1.000000000000000E+20
 15
-1.000000000000000E+20
 25
-1.000000000000000E+20
 35
-1.000000000000000E+20
146
0.0
 13
0.0
 23
0.0
 33
0.0
 16
1.0
 26
0.0
 36
0.0
 17
0.0
 27
1.0
 37
0.0
 76
     0
330
1A
  0
LAYOUT
  5
21
102
{ACAD_REACTORS
330
19
102
}
330
19
100
AcDbPlotSettings
  1

  2
\\NSENG\OPLaser1
  4

  6

 40
0.0
 41
0.0
 42
0.0
 43
0.0
 44
0.0
 45
0.0
 46
0.0
 47
0.0
 48
0.0
 49
0.0
140
0.0
141
0.0
142
1.0
143
1.0
 70
  1712
 72
     0
 73
     0
 74
     0
  7

 75
     0
147
1.0
148
0.0
149
0.0
100
AcDbLayout
  1
Model
 70
     1
 71
     0
 10
0.0
 20
0.0
 11
12.0
 21
9.0
 12
0.0
 22
0.0
 32
0.0
 14
0.0
 24
0.0
 34
0.0
 15
0.0
 25
0.0
 35
0.0
146
0.0
 13
0.0
 23
0.0
 33
0.0
 16
1.0
 26
0.0
 36
0.0
 17
0.0
 27
1.0
 37
0.0
 76
     0
330
1E
  0
ENDSEC
  0
EOF
