  0
SECTION
  2
HEADER
  9
$ACADVER
  1
AC1018
  9
$ACADMAINTVER
 70
   104
  9
$DWGCODEPAGE
  3
ANSI_1252
  9
$LASTSAVEDBY
  1
mdjr
  9
$INSBASE
 10
0.0
 20
0.0
 30
0.0
  9
$EXTMIN
 10
0.0
 20
0.0
 30
0.0
  9
$EXTMAX
 10
7.27263779527559
 20
11.0
 30
0.0
  9
$LIMMIN
 10
0.0
 20
0.0
  9
$LIMMAX
 10
12.0
 20
9.0
  9
$ORTHOMODE
 70
     0
  9
$REGENMODE
 70
     1
  9
$FILLMODE
 70
     1
  9
$QTEXTMODE
 70
     0
  9
$MIRRTEXT
 70
     1
  9
$LTSCALE
 40
1.0
  9
$ATTMODE
 70
     1
  9
$TEXTSIZE
 40
0.2
  9
$TRACEWID
 40
0.05
  9
$TEXTSTYLE
  7
Standard
  9
$CLAYER
  8
0
  9
$CELTYPE
  6
ByLayer
  9
$CECOLOR
 62
   256
  9
$CELTSCALE
 40
1.0
  9
$DISPSILH
 70
     0
  9
$DIMSCALE
 40
1.0
  9
$DIMASZ
 40
0.18
  9
$DIMEXO
 40
0.0625
  9
$DIMDLI
 40
0.38
  9
$DIMRND
 40
0.0
  9
$DIMDLE
 40
0.0
  9
$DIMEXE
 40
0.18
  9
$DIMTP
 40
0.0
  9
$DIMTM
 40
0.0
  9
$DIMTXT
 40
0.18
  9
$DIMCEN
 40
0.09
  9
$DIMTSZ
 40
0.0
  9
$DIMTOL
 70
     0
  9
$DIMLIM
 70
     0
  9
$DIMTIH
 70
     1
  9
$DIMTOH
 70
     1
  9
$DIMSE1
 70
     0
  9
$DIMSE2
 70
     0
  9
$DIMTAD
 70
     0
  9
$DIMZIN
 70
     0
  9
$DIMBLK
  1

  9
$DIMASO
 70
     1
  9
$DIMSHO
 70
     1
  9
$DIMPOST
  1

  9
$DIMAPOST
  1

  9
$DIMALT
 70
     0
  9
$DIMALTD
 70
     2
  9
$DIMALTF
 40
25.4
  9
$DIMLFAC
 40
1.0
  9
$DIMTOFL
 70
     0
  9
$DIMTVP
 40
0.0
  9
$DIMTIX
 70
     0
  9
$DIMSOXD
 70
     0
  9
$DIMSAH
 70
     0
  9
$DIMBLK1
  1

  9
$DIMBLK2
  1

  9
$DIMSTYLE
  2
Standard
  9
$DIMCLRD
 70
     0
  9
$DIMCLRE
 70
     0
  9
$DIMCLRT
 70
     0
  9
$DIMTFAC
 40
1.0
  9
$DIMGAP
 40
0.09
  9
$DIMJUST
 70
     0
  9
$DIMSD1
 70
     0
  9
$DIMSD2
 70
     0
  9
$DIMTOLJ
 70
     1
  9
$DIMTZIN
 70
     0
  9
$DIMALTZ
 70
     0
  9
$DIMALTTZ
 70
     0
  9
$DIMUPT
 70
     0
  9
$DIMDEC
 70
     4
  9
$DIMTDEC
 70
     4
  9
$DIMALTU
 70
     2
  9
$DIMALTTD
 70
     2
  9
$DIMTXSTY
  7
Standard
  9
$DIMAUNIT
 70
     0
  9
$DIMADEC
 70
     0
  9
$DIMALTRND
 40
0.0
  9
$DIMAZIN
 70
     0
  9
$DIMDSEP
 70
    46
  9
$DIMATFIT
 70
     3
  9
$DIMFRAC
 70
     0
  9
$DIMLDRBLK
  1

  9
$DIMLUNIT
 70
     2
  9
$DIMLWD
 70
    -2
  9
$DIMLWE
 70
    -2
  9
$DIMTMOVE
 70
     0
  9
$LUNITS
 70
     2
  9
$LUPREC
 70
     4
  9
$SKETCHINC
 40
0.1
  9
$FILLETRAD
 40
0.5
  9
$AUNITS
 70
     0
  9
$AUPREC
 70
     0
  9
$MENU
  1
.
  9
$ELEVATION
 40
0.0
  9
$PELEVATION
 40
0.0
  9
$THICKNESS
 40
0.0
  9
$LIMCHECK
 70
     0
  9
$CHAMFERA
 40
0.5
  9
$CHAMFERB
 40
0.5
  9
$CHAMFERC
 40
1.0
  9
$CHAMFERD
 40
0.0
  9
$SKPOLY
 70
     0
  9
$TDCREATE
 40
2455754.616862442
  9
$TDUCREATE
 40
2455754.825195775
  9
$TDUPDATE
 40
2455754.621381134
  9
$TDUUPDATE
 40
2455754.829714468
  9
$TDINDWG
 40
0.0007430556
  9
$TDUSRTIMER
 40
0.0007430556
  9
$USRTIMER
 70
     1
  9
$ANGBASE
 50
0.0
  9
$ANGDIR
 70
     0
  9
$PDMODE
 70
     0
  9
$PDSIZE
 40
0.0
  9
$PLINEWID
 40
0.0
  9
$SPLFRAME
 70
     0
  9
$SPLINETYPE
 70
     6
  9
$SPLINESEGS
 70
     8
  9
$HANDSEED
  5
52A
  9
$SURFTAB1
 70
     6
  9
$SURFTAB2
 70
     6
  9
$SURFTYPE
 70
     6
  9
$SURFU
 70
     6
  9
$SURFV
 70
     6
  9
$UCSBASE
  2

  9
$UCSNAME
  2

  9
$UCSORG
 10
0.0
 20
0.0
 30
0.0
  9
$UCSXDIR
 10
1.0
 20
0.0
 30
0.0
  9
$UCSYDIR
 10
0.0
 20
1.0
 30
0.0
  9
$UCSORTHOREF
  2

  9
$UCSORTHOVIEW
 70
     0
  9
$UCSORGTOP
 10
0.0
 20
0.0
 30
0.0
  9
$UCSORGBOTTOM
 10
0.0
 20
0.0
 30
0.0
  9
$UCSORGLEFT
 10
0.0
 20
0.0
 30
0.0
  9
$UCSORGRIGHT
 10
0.0
 20
0.0
 30
0.0
  9
$UCSORGFRONT
 10
0.0
 20
0.0
 30
0.0
  9
$UCSORGBACK
 10
0.0
 20
0.0
 30
0.0
  9
$PUCSBASE
  2

  9
$PUCSNAME
  2

  9
$PUCSORG
 10
0.0
 20
0.0
 30
0.0
  9
$PUCSXDIR
 10
1.0
 20
0.0
 30
0.0
  9
$PUCSYDIR
 10
0.0
 20
1.0
 30
0.0
  9
$PUCSORTHOREF
  2

  9
$PUCSORTHOVIEW
 70
     0
  9
$PUCSORGTOP
 10
0.0
 20
0.0
 30
0.0
  9
$PUCSORGBOTTOM
 10
0.0
 20
0.0
 30
0.0
  9
$PUCSORGLEFT
 10
0.0
 20
0.0
 30
0.0
  9
$PUCSORGRIGHT
 10
0.0
 20
0.0
 30
0.0
  9
$PUCSORGFRONT
 10
0.0
 20
0.0
 30
0.0
  9
$PUCSORGBACK
 10
0.0
 20
0.0
 30
0.0
  9
$USERI1
 70
     0
  9
$USERI2
 70
     0
  9
$USERI3
 70
     0
  9
$USERI4
 70
     0
  9
$USERI5
 70
     0
  9
$USERR1
 40
0.0
  9
$USERR2
 40
0.0
  9
$USERR3
 40
0.0
  9
$USERR4
 40
0.0
  9
$USERR5
 40
0.0
  9
$WORLDVIEW
 70
     1
  9
$SHADEDGE
 70
     3
  9
$SHADEDIF
 70
    70
  9
$TILEMODE
 70
     1
  9
$MAXACTVP
 70
    64
  9
$PINSBASE
 10
0.0
 20
0.0
 30
0.0
  9
$PLIMCHECK
 70
     0
  9
$PEXTMIN
 10
1.000000000000000E+20
 20
1.000000000000000E+20
 30
1.000000000000000E+20
  9
$PEXTMAX
 10
-1.000000000000000E+20
 20
-1.000000000000000E+20
 30
-1.000000000000000E+20
  9
$PLIMMIN
 10
0.0
 20
0.0
  9
$PLIMMAX
 10
12.0
 20
9.0
  9
$UNITMODE
 70
     0
  9
$VISRETAIN
 70
     1
  9
$PLINEGEN
 70
     0
  9
$PSLTSCALE
 70
     1
  9
$TREEDEPTH
 70
  3020
  9
$CMLSTYLE
  2
Standard
  9
$CMLJUST
 70
     0
  9
$CMLSCALE
 40
1.0
  9
$PROXYGRAPHICS
 70
     1
  9
$MEASUREMENT
 70
     0
  9
$CELWEIGHT
370
    -1
  9
$ENDCAPS
280
     0
  9
$JOINSTYLE
280
     0
  9
$LWDISPLAY
290
     0
  9
$INSUNITS
 70
     1
  9
$HYPERLINKBASE
  1

  9
$STYLESHEET
  1

  9
$XEDIT
290
     1
  9
$CEPSNTYPE
380
     0
  9
$PSTYLEMODE
290
     1
  9
$FINGERPRINTGUID
  2
{1CD0110F-191A-467C-9226-1312BD037DC4}
  9
$VERSIONGUID
  2
{63943529-4898-4707-95AE-26A2DF7BC86F}
  9
$EXTNAMES
290
     1
  9
$PSVPSCALE
 40
0.0
  9
$OLESTARTUP
290
     0
  9
$SORTENTS
280
   127
  9
$INDEXCTL
280
     0
  9
$HIDETEXT
280
     0
  9
$XCLIPFRAME
290
     0
  9
$HALOGAP
280
     0
  9
$OBSCOLOR
 70
   257
  9
$OBSLTYPE
280
     0
  9
$INTERSECTIONDISPLAY
280
     0
  9
$INTERSECTIONCOLOR
 70
   257
  9
$DIMASSOC
280
     1
  9
$PROJECTNAME
  1

  0
ENDSEC
  0
SECTION
  2
CLASSES
  0
CLASS
  1
ACDBDICTIONARYWDFLT
  2
AcDbDictionaryWithDefault
  3
ObjectDBX Classes
 90
        0
 91
        1
280
     0
281
     0
  0
CLASS
  1
VISUALSTYLE
  2
AcDbVisualStyle
  3
ObjectDBX Classes
 90
     4095
 91
       16
280
     0
281
     0
  0
CLASS
  1
MATERIAL
  2
AcDbMaterial
  3
ObjectDBX Classes
 90
     1024
 91
        3
280
     0
281
     0
  0
CLASS
  1
TABLESTYLE
  2
AcDbTableStyle
  3
ObjectDBX Classes
 90
     4095
 91
        1
280
     0
281
     0
  0
CLASS
  1
DICTIONARYVAR
  2
AcDbDictionaryVar
  3
ObjectDBX Classes
 90
        0
 91
        2
280
     0
281
     0
  0
ENDSEC
  0
SECTION
  2
TABLES
  0
TABLE
  2
VPORT
  5
8
330
0
100
AcDbSymbolTable
 70
     1
  0
VPORT
  5
29
330
8
100
AcDbSymbolTableRecord
100
AcDbViewportTableRecord
  2
*Active
 70
     0
 10
0.0
 20
0.0
 11
1.0
 21
1.0
 12
7.091702055370303
 22
0.0
 13
0.0
 23
0.0
 14
0.5
 24
0.5
 15
0.5
 25
0.5
 16
0.0
 26
0.0
 36
1.0
 17
3.636318897637795
 27
5.5
 37
0.0
 40
11.22
 41
1.92526690391459
 42
50.0
 43
0.0
 44
0.0
 50
0.0
 51
0.0
 71
     0
 72
   100
 73
     1
 74
     3
 75
     0
 76
     0
 77
     0
 78
     0
281
     0
 65
     1
110
0.0
120
0.0
130
0.0
111
1.0
121
0.0
131
0.0
112
0.0
122
1.0
132
0.0
 79
     0
146
0.0
  0
ENDTAB
  0
TABLE
  2
LTYPE
  5
5
330
0
100
AcDbSymbolTable
 70
    25
  0
LTYPE
  5
14
330
5
100
AcDbSymbolTableRecord
100
AcDbLinetypeTableRecord
  2
ByBlock
 70
     0
  3

 72
    65
 73
     0
 40
0.0
  0
LTYPE
  5
15
330
5
100
AcDbSymbolTableRecord
100
AcDbLinetypeTableRecord
  2
ByLayer
 70
     0
  3

 72
    65
 73
     0
 40
0.0
  0
LTYPE
  5
16
330
5
100
AcDbSymbolTableRecord
100
AcDbLinetypeTableRecord
  2
Continuous
 70
     0
  3
Solid line
 72
    65
 73
     0
 40
0.0
  0
LTYPE
  5
42
330
5
100
AcDbSymbolTableRecord
100
AcDbLinetypeTableRecord
  2
Dashed
 70
     0
  3
__ __ __ __ __ __ __ 
 72
    65
 73
     2
 40
0.75
 49
0.5
 74
     0
 49
-0.25
 74
     0
  0
LTYPE
  5
43
330
5
100
AcDbSymbolTableRecord
100
AcDbLinetypeTableRecord
  2
Dashed2
 70
     0
  3
_ _ _ _ _ _ _ _ _ _ 
 72
    65
 73
     2
 40
0.375
 49
0.25
 74
     0
 49
-0.125
 74
     0
  0
LTYPE
  5
44
330
5
100
AcDbSymbolTableRecord
100
AcDbLinetypeTableRecord
  2
DashedX2
 70
     0
  3
____  ____  ____  
 72
    65
 73
     2
 40
1.5
 49
1.0
 74
     0
 49
-0.5
 74
     0
  0
LTYPE
  5
45
330
5
100
AcDbSymbolTableRecord
100
AcDbLinetypeTableRecord
  2
Border
 70
     0
  3
__ __ . __ __ . __ __ . __ __ . __ __ . __ __ .
 72
    65
 73
     6
 40
1.75
 49
0.5
 74
     0
 49
-0.25
 74
     0
 49
0.5
 74
     0
 49
-0.25
 74
     0
 49
0.5
 74
     0
 49
-0.25
 74
     0
  0
LTYPE
  5
46
330
5
100
AcDbSymbolTableRecord
100
AcDbLinetypeTableRecord
  2
Border2
 70
     0
  3
__.__.__.__.__.__.__.__.
 72
    65
 73
     6
 40
0.875
 49
0.25
 74
     0
 49
-0.125
 74
     0
 49
0.25
 74
     0
 49
-0.125
 74
     0
 49
0.25
 74
     0
 49
-0.125
 74
     0
  0
LTYPE
  5
47
330
5
100
AcDbSymbolTableRecord
100
AcDbLinetypeTableRecord
  2
BORDERX2
 70
     0
  3
____  ____  .  
 72
    65
 73
     6
 40
3.5
 49
1.0
 74
     0
 49
-0.5
 74
     0
 49
1.0
 74
     0
 49
-0.5
 74
     0
 49
1.0
 74
     0
 49
-0.5
 74
     0
  0
LTYPE
  5
48
330
5
100
AcDbSymbolTableRecord
100
AcDbLinetypeTableRecord
  2
Center
 70
     0
  3
____ _ ____ _ ____ _ 
 72
    65
 73
     4
 40
2.0
 49
1.25
 74
     0
 49
-0.25
 74
     0
 49
0.25
 74
     0
 49
-0.25
 74
     0
  0
LTYPE
  5
49
330
5
100
AcDbSymbolTableRecord
100
AcDbLinetypeTableRecord
  2
Center2
 70
     0
  3
____ _ ____ _ ____ _ 
 72
    65
 73
     4
 40
1.125
 49
0.75
 74
     0
 49
-0.125
 74
     0
 49
0.125
 74
     0
 49
-0.125
 74
     0
  0
LTYPE
  5
4A
330
5
100
AcDbSymbolTableRecord
100
AcDbLinetypeTableRecord
  2
CenterX2
 70
     0
  3
________  __  
 72
    65
 73
     4
 40
4.0
 49
2.5
 74
     0
 49
-0.5
 74
     0
 49
0.5
 74
     0
 49
-0.5
 74
     0
  0
LTYPE
  5
4B
330
5
100
AcDbSymbolTableRecord
100
AcDbLinetypeTableRecord
  2
DashDot
 70
     0
  3
__ . __ . __ . __ . 
 72
    65
 73
     4
 40
1.0
 49
0.5
 74
     0
 49
-0.25
 74
     0
 49
0.0
 74
     0
 49
-0.25
 74
     0
  0
LTYPE
  5
4C
330
5
100
AcDbSymbolTableRecord
100
AcDbLinetypeTableRecord
  2
DashDot2
 70
     0
  3
_._._._._._._._._.
 72
    65
 73
     4
 40
0.5
 49
0.25
 74
     0
 49
-0.125
 74
     0
 49
0.0
 74
     0
 49
-0.125
 74
     0
  0
LTYPE
  5
4D
330
5
100
AcDbSymbolTableRecord
100
AcDbLinetypeTableRecord
  2
DashDotX2
 70
     0
  3
____  .  ____  .  
 72
    65
 73
     4
 40
2.0
 49
1.0
 74
     0
 49
-0.5
 74
     0
 49
0.0
 74
     0
 49
-0.5
 74
     0
  0
LTYPE
  5
4E
330
5
100
AcDbSymbolTableRecord
100
AcDbLinetypeTableRecord
  2
Divide
 70
     0
  3
____ . . ____ . . 
 72
    65
 73
     6
 40
1.25
 49
0.5
 74
     0
 49
-0.25
 74
     0
 49
0.0
 74
     0
 49
-0.25
 74
     0
 49
0.0
 74
     0
 49
-0.25
 74
     0
  0
LTYPE
  5
4F
330
5
100
AcDbSymbolTableRecord
100
AcDbLinetypeTableRecord
  2
Divide2
 70
     0
  3
__..__..__..__..__..
 72
    65
 73
     6
 40
0.625
 49
0.25
 74
     0
 49
-0.125
 74
     0
 49
0.0
 74
     0
 49
-0.125
 74
     0
 49
0.0
 74
     0
 49
-0.125
 74
     0
  0
LTYPE
  5
50
330
5
100
AcDbSymbolTableRecord
100
AcDbLinetypeTableRecord
  2
DivideX2
 70
     0
  3
________  .  .  
 72
    65
 73
     6
 40
2.5
 49
1.0
 74
     0
 49
-0.5
 74
     0
 49
0.0
 74
     0
 49
-0.5
 74
     0
 49
0.0
 74
     0
 49
-0.5
 74
     0
  0
LTYPE
  5
51
330
5
100
AcDbSymbolTableRecord
100
AcDbLinetypeTableRecord
  2
Dot
 70
     0
  3
. . . . . . . . . 
 72
    65
 73
     2
 40
0.25
 49
0.0
 74
     0
 49
-0.25
 74
     0
  0
LTYPE
  5
52
330
5
100
AcDbSymbolTableRecord
100
AcDbLinetypeTableRecord
  2
Dot2
 70
     0
  3
..................
 72
    65
 73
     2
 40
0.125
 49
0.0
 74
     0
 49
-0.125
 74
     0
  0
LTYPE
  5
53
330
5
100
AcDbSymbolTableRecord
100
AcDbLinetypeTableRecord
  2
DotX2
 70
     0
  3
.  .  .  .  .  .  
 72
    65
 73
     2
 40
0.5
 49
0.0
 74
     0
 49
-0.5
 74
     0
  0
LTYPE
  5
54
330
5
100
AcDbSymbolTableRecord
100
AcDbLinetypeTableRecord
  2
Hidden
 70
     0
  3
__ __ __ __ __ __ 
 72
    65
 73
     2
 40
0.375
 49
0.25
 74
     0
 49
-0.125
 74
     0
  0
LTYPE
  5
55
330
5
100
AcDbSymbolTableRecord
100
AcDbLinetypeTableRecord
  2
Hidden2
 70
     0
  3
_ _ _ _ _ _ _ _ _ 
 72
    65
 73
     2
 40
0.1875
 49
0.125
 74
     0
 49
-0.0625
 74
     0
  0
LTYPE
  5
56
330
5
100
AcDbSymbolTableRecord
100
AcDbLinetypeTableRecord
  2
HiddenX2
 70
     0
  3
____ ____ ____ ____ 
 72
    65
 73
     2
 40
0.75
 49
0.5
 74
     0
 49
-0.25
 74
     0
  0
LTYPE
  5
57
330
5
100
AcDbSymbolTableRecord
100
AcDbLinetypeTableRecord
  2
Phantom
 70
     0
  3
______  __  __  
 72
    65
 73
     6
 40
2.5
 49
1.25
 74
     0
 49
-0.25
 74
     0
 49
0.25
 74
     0
 49
-0.25
 74
     0
 49
0.25
 74
     0
 49
-0.25
 74
     0
  0
LTYPE
  5
58
330
5
100
AcDbSymbolTableRecord
100
AcDbLinetypeTableRecord
  2
Phantom2
 70
     0
  3
___ _ _ ___ _ _ 
 72
    65
 73
     6
 40
1.25
 49
0.625
 74
     0
 49
-0.125
 74
     0
 49
0.125
 74
     0
 49
-0.125
 74
     0
 49
0.125
 74
     0
 49
-0.125
 74
     0
  0
LTYPE
  5
59
330
5
100
AcDbSymbolTableRecord
100
AcDbLinetypeTableRecord
  2
PhantomX2
 70
     0
  3
___ _ _ ___ _ _ 
 72
    65
 73
     6
 40
5.0
 49
2.5
 74
     0
 49
-0.5
 74
     0
 49
0.5
 74
     0
 49
-0.5
 74
     0
 49
0.5
 74
     0
 49
-0.5
 74
     0
  0
ENDTAB
  0
TABLE
  2
LAYER
  5
2
330
0
100
AcDbSymbolTable
 70
     8
  0
LAYER
  5
10
330
2
100
AcDbSymbolTableRecord
100
AcDbLayerTableRecord
  2
0
 70
     0
 62
     7
  6
Continuous
370
    -3
390
F
  0
LAYER
  5
3B
330
2
100
AcDbSymbolTableRecord
100
AcDbLayerTableRecord
  2
1
 70
     0
 62
     7
  6
Continuous
370
    -3
390
F
  0
LAYER
  5
3C
330
2
100
AcDbSymbolTableRecord
100
AcDbLayerTableRecord
  2
2
 70
     0
 62
     7
  6
Continuous
370
    -3
390
F
  0
LAYER
  5
3D
330
2
100
AcDbSymbolTableRecord
100
AcDbLayerTableRecord
  2
3
 70
     0
 62
     7
  6
Continuous
370
    -3
390
F
  0
LAYER
  5
3E
330
2
100
AcDbSymbolTableRecord
100
AcDbLayerTableRecord
  2
4
 70
     0
 62
     7
  6
Continuous
370
    -3
390
F
  0
LAYER
  5
3F
330
2
100
AcDbSymbolTableRecord
100
AcDbLayerTableRecord
  2
5
 70
     0
 62
     7
  6
Continuous
370
    -3
390
F
  0
LAYER
  5
40
330
2
100
AcDbSymbolTableRecord
100
AcDbLayerTableRecord
  2
6
 70
     0
 62
     7
  6
Continuous
370
    -3
390
F
  0
LAYER
  5
41
330
2
100
AcDbSymbolTableRecord
100
AcDbLayerTableRecord
  2
7
 70
     0
 62
     7
  6
Continuous
370
    -3
390
F
  0
ENDTAB
  0
TABLE
  2
STYLE
  5
3
330
0
100
AcDbSymbolTable
 70
     1
  0
STYLE
  5
11
330
3
100
AcDbSymbolTableRecord
100
AcDbTextStyleTableRecord
  2
Standard
 70
     0
 40
0.0
 41
1.0
 50
0.0
 71
     0
 42
0.2
  3
txt
  4

  0
ENDTAB
  0
TABLE
  2
VIEW
  5
6
330
0
100
AcDbSymbolTable
 70
     0
  0
ENDTAB
  0
TABLE
  2
UCS
  5
7
330
0
100
AcDbSymbolTable
 70
     0
  0
ENDTAB
  0
TABLE
  2
APPID
  5
9
330
0
100
AcDbSymbolTable
 70
     1
  0
APPID
  5
12
330
9
100
AcDbSymbolTableRecord
100
AcDbRegAppTableRecord
  2
ACAD
 70
     0
  0
ENDTAB
  0
TABLE
  2
DIMSTYLE
  5
A
330
0
100
AcDbSymbolTable
 70
     1
100
AcDbDimStyleTable
 71
     0
  0
DIMSTYLE
105
27
330
A
100
AcDbSymbolTableRecord
100
AcDbDimStyleTableRecord
  2
Standard
 70
     0
340
11
  0
ENDTAB
  0
TABLE
  2
BLOCK_RECORD
  5
1
330
0
100
AcDbSymbolTable
 70
     1
  0
BLOCK_RECORD
  5
1F
330
1
100
AcDbSymbolTableRecord
100
AcDbBlockTableRecord
  2
*Model_Space
340
22
  0
BLOCK_RECORD
  5
1B
330
1
100
AcDbSymbolTableRecord
100
AcDbBlockTableRecord
  2
*Paper_Space
340
1E
  0
BLOCK_RECORD
  5
23
330
1
100
AcDbSymbolTableRecord
100
AcDbBlockTableRecord
  2
*Paper_Space0
340
26
  0
ENDTAB
  0
ENDSEC
  0
SECTION
  2
BLOCKS
  0
BLOCK
  5
20
330
1F
100
AcDbEntity
  8
0
100
AcDbBlockBegin
  2
*Model_Space
 70
     0
 10
0.0
 20
0.0
 30
0.0
  3
*Model_Space
  1

  0
ENDBLK
  5
21
330
1F
100
AcDbEntity
  8
0
100
AcDbBlockEnd
  0
BLOCK
  5
1C
330
1B
100
AcDbEntity
 67
     1
  8
0
100
AcDbBlockBegin
  2
*Paper_Space
 70
     0
 10
0.0
 20
0.0
 30
0.0
  3
*Paper_Space
  1

  0
ENDBLK
  5
1D
330
1B
100
AcDbEntity
 67
     1
  8
0
100
AcDbBlockEnd
  0
BLOCK
  5
24
330
23
100
AcDbEntity
 67
     1
  8
0
100
AcDbBlockBegin
  2
*Paper_Space0
 70
     0
 10
0.0
 20
0.0
 30
0.0
  3
*Paper_Space0
  1

  0
ENDBLK
  5
25
330
23
100
AcDbEntity
 67
     1
  8
0
100
AcDbBlockEnd
  0
ENDSEC
  0
SECTION
  2
ENTITIES
  0
POLYLINE
  5
5B
330
1F
100
AcDbEntity
  8
1
100
AcDb2dPolyline
 66
     1
 10
0.0
 20
0.0
 30
0.0
  0
VERTEX
  5
5C
330
5B
100
AcDbEntity
  8
1
100
AcDbVertex
100
AcDb2dVertex
 10
0.0
 20
0.0049212598425197
 30
0.0
  0
VERTEX
  5
5D
330
5B
100
AcDbEntity
  8
1
100
AcDbVertex
100
AcDb2dVertex
 10
0.0
 20
0.0
 30
0.0
  0
VERTEX
  5
5E
330
5B
100
AcDbEntity
  8
1
100
AcDbVertex
100
AcDb2dVertex
 10
0.0049212598425197
 20
0.0
 30
0.0
  0
SEQEND
  5
5F
330
5B
100
AcDbEntity
  8
1
  0
POLYLINE
  5
60
330
1F
100
AcDbEntity
  8
1
100
AcDb2dPolyline
 66
     1
 10
0.0
 20
0.0
 30
0.0
  0
VERTEX
  5
61
330
60
100
AcDbEntity
  8
1
100
AcDbVertex
100
AcDb2dVertex
 10
7.27263779527559
 20
10.99507874015748
 30
0.0
  0
VERTEX
  5
62
330
60
100
AcDbEntity
  8
1
100
AcDbVertex
100
AcDb2dVertex
 10
7.27263779527559
 20
11.0
 30
0.0
  0
VERTEX
  5
63
330
60
100
AcDbEntity
  8
1
100
AcDbVertex
100
AcDb2dVertex
 10
7.26771653543307
 20
11.0
 30
0.0
  0
SEQEND
  5
64
330
60
100
AcDbEntity
  8
1
  0
POLYLINE
  5
65
330
1F
100
AcDbEntity
  8
1
100
AcDb2dPolyline
 66
     1
 10
0.0
 20
0.0
 30
0.0
  0
VERTEX
  5
66
330
65
100
AcDbEntity
  8
1
100
AcDbVertex
100
AcDb2dVertex
 10
7.27263779527559
 20
10.99507874015748
 30
0.0
  0
VERTEX
  5
67
330
65
100
AcDbEntity
  8
1
100
AcDbVertex
100
AcDb2dVertex
 10
7.27263779527559
 20
11.0
 30
0.0
  0
VERTEX
  5
68
330
65
100
AcDbEntity
  8
1
100
AcDbVertex
100
AcDb2dVertex
 10
7.26771653543307
 20
11.0
 30
0.0
  0
SEQEND
  5
69
330
65
100
AcDbEntity
  8
1
  0
LINE
  5
6A
330
1F
100
AcDbEntity
  8
1
100
AcDbLine
 10
2.504921259842519
 20
2.393700787401574
 30
0.0
 11
2.503937007874015
 21
2.395669291338582
 31
0.0
  0
LINE
  5
6B
330
1F
100
AcDbEntity
  8
1
100
AcDbLine
 10
2.503937007874015
 20
2.395669291338582
 30
0.0
 11
2.040354330708661
 21
2.395669291338582
 31
0.0
  0
LINE
  5
6C
330
1F
100
AcDbEntity
  8
1
100
AcDbLine
 10
2.039370078740157
 20
2.394685039370078
 30
0.0
 11
2.040354330708661
 21
2.395669291338582
 31
0.0
  0
LINE
  5
6D
330
1F
100
AcDbEntity
  8
1
100
AcDbLine
 10
2.441929133858267
 20
3.315944881889763
 30
0.0
 11
2.443897637795275
 21
3.315944881889763
 31
0.0
  0
POLYLINE
  5
6E
330
1F
100
AcDbEntity
  8
1
100
AcDb2dPolyline
 66
     1
 10
0.0
 20
0.0
 30
0.0
  0
VERTEX
  5
6F
330
6E
100
AcDbEntity
  8
1
100
AcDbVertex
100
AcDb2dVertex
 10
2.102362204724409
 20
3.315944881889763
 30
0.0
  0
VERTEX
  5
70
330
6E
100
AcDbEntity
  8
1
100
AcDbVertex
100
AcDb2dVertex
 10
2.107283464566929
 20
3.275590551181102
 30
0.0
  0
VERTEX
  5
71
330
6E
100
AcDbEntity
  8
1
100
AcDbVertex
100
AcDb2dVertex
 10
2.122047244094487
 20
3.237204724409448
 30
0.0
  0
VERTEX
  5
72
330
6E
100
AcDbEntity
  8
1
100
AcDbVertex
100
AcDb2dVertex
 10
2.144685039370078
 20
3.203740157480314
 30
0.0
  0
VERTEX
  5
73
330
6E
100
AcDbEntity
  8
1
100
AcDbVertex
100
AcDb2dVertex
 10
2.176181102362204
 20
3.176181102362204
 30
0.0
  0
VERTEX
  5
74
330
6E
100
AcDbEntity
  8
1
100
AcDbVertex
100
AcDb2dVertex
 10
2.211614173228346
 20
3.15748031496063
 30
0.0
  0
VERTEX
  5
75
330
6E
100
AcDbEntity
  8
1
100
AcDbVertex
100
AcDb2dVertex
 10
2.251968503937007
 20
3.14763779527559
 30
0.0
  0
VERTEX
  5
76
330
6E
100
AcDbEntity
  8
1
100
AcDbVertex
100
AcDb2dVertex
 10
2.292322834645669
 20
3.14763779527559
 30
0.0
  0
VERTEX
  5
77
330
6E
100
AcDbEntity
  8
1
100
AcDbVertex
100
AcDb2dVertex
 10
2.33267716535433
 20
3.15748031496063
 30
0.0
  0
VERTEX
  5
78
330
6E
100
AcDbEntity
  8
1
100
AcDbVertex
100
AcDb2dVertex
 10
2.369094488188976
 20
3.176181102362204
 30
0.0
  0
VERTEX
  5
79
330
6E
100
AcDbEntity
  8
1
100
AcDbVertex
100
AcDb2dVertex
 10
2.399606299212598
 20
3.203740157480314
 30
0.0
  0
VERTEX
  5
7A
330
6E
100
AcDbEntity
  8
1
100
AcDbVertex
100
AcDb2dVertex
 10
2.422244094488188
 20
3.237204724409448
 30
0.0
  0
VERTEX
  5
7B
330
6E
100
AcDbEntity
  8
1
100
AcDbVertex
100
AcDb2dVertex
 10
2.437007874015748
 20
3.275590551181102
 30
0.0
  0
VERTEX
  5
7C
330
6E
100
AcDbEntity
  8
1
100
AcDbVertex
100
AcDb2dVertex
 10
2.441929133858267
 20
3.315944881889763
 30
0.0
  0
SEQEND
  5
7D
330
6E
100
AcDbEntity
  8
1
  0
LINE
  5
7E
330
1F
100
AcDbEntity
  8
1
100
AcDbLine
 10
2.100393700787401
 20
3.315944881889763
 30
0.0
 11
2.102362204724409
 21
3.315944881889763
 31
0.0
  0
POLYLINE
  5
7F
330
1F
100
AcDbEntity
  8
1
100
AcDb2dPolyline
 66
     1
 10
0.0
 20
0.0
 30
0.0
  0
VERTEX
  5
80
330
7F
100
AcDbEntity
  8
1
100
AcDbVertex
100
AcDb2dVertex
 10
2.100393700787401
 20
3.315944881889763
 30
0.0
  0
VERTEX
  5
81
330
7F
100
AcDbEntity
  8
1
100
AcDbVertex
100
AcDb2dVertex
 10
2.105314960629921
 20
3.274606299212598
 30
0.0
  0
VERTEX
  5
82
330
7F
100
AcDbEntity
  8
1
100
AcDbVertex
100
AcDb2dVertex
 10
2.12007874015748
 20
3.236220472440944
 30
0.0
  0
VERTEX
  5
83
330
7F
100
AcDbEntity
  8
1
100
AcDbVertex
100
AcDb2dVertex
 10
2.143700787401574
 20
3.201771653543306
 30
0.0
  0
VERTEX
  5
84
330
7F
100
AcDbEntity
  8
1
100
AcDbVertex
100
AcDb2dVertex
 10
2.174212598425196
 20
3.174212598425196
 30
0.0
  0
VERTEX
  5
85
330
7F
100
AcDbEntity
  8
1
100
AcDbVertex
100
AcDb2dVertex
 10
2.211614173228346
 20
3.155511811023622
 30
0.0
  0
VERTEX
  5
86
330
7F
100
AcDbEntity
  8
1
100
AcDbVertex
100
AcDb2dVertex
 10
2.251968503937007
 20
3.145669291338582
 30
0.0
  0
VERTEX
  5
87
330
7F
100
AcDbEntity
  8
1
100
AcDbVertex
100
AcDb2dVertex
 10
2.293307086614173
 20
3.145669291338582
 30
0.0
  0
VERTEX
  5
88
330
7F
100
AcDbEntity
  8
1
100
AcDbVertex
100
AcDb2dVertex
 10
2.333661417322834
 20
3.155511811023622
 30
0.0
  0
VERTEX
  5
89
330
7F
100
AcDbEntity
  8
1
100
AcDbVertex
100
AcDb2dVertex
 10
2.37007874015748
 20
3.174212598425196
 30
0.0
  0
VERTEX
  5
8A
330
7F
100
AcDbEntity
  8
1
100
AcDbVertex
100
AcDb2dVertex
 10
2.400590551181102
 20
3.201771653543306
 30
0.0
  0
VERTEX
  5
8B
330
7F
100
AcDbEntity
  8
1
100
AcDbVertex
100
AcDb2dVertex
 10
2.424212598425196
 20
3.236220472440944
 30
0.0
  0
VERTEX
  5
8C
330
7F
100
AcDbEntity
  8
1
100
AcDbVertex
100
AcDb2dVertex
 10
2.438976377952756
 20
3.274606299212598
 30
0.0
  0
VERTEX
  5
8D
330
7F
100
AcDbEntity
  8
1
100
AcDbVertex
100
AcDb2dVertex
 10
2.443897637795275
 20
3.315944881889763
 30
0.0
  0
SEQEND
  5
8E
330
7F
100
AcDbEntity
  8
1
  0
LINE
  5
8F
330
1F
100
AcDbEntity
  8
1
100
AcDbLine
 10
2.102362204724409
 20
3.315944881889763
 30
0.0
 11
2.102362204724409
 21
3.451771653543306
 31
0.0
  0
LINE
  5
90
330
1F
100
AcDbEntity
  8
1
100
AcDbLine
 10
2.100393700787401
 20
3.451771653543306
 30
0.0
 11
2.102362204724409
 21
3.451771653543306
 31
0.0
  0
LINE
  5
91
330
1F
100
AcDbEntity
  8
1
100
AcDbLine
 10
2.100393700787401
 20
3.451771653543306
 30
0.0
 11
2.100393700787401
 21
3.315944881889763
 31
0.0
  0
POLYLINE
  5
92
330
1F
100
AcDbEntity
  8
1
100
AcDb2dPolyline
 66
     1
 10
0.0
 20
0.0
 30
0.0
  0
VERTEX
  5
93
330
92
100
AcDbEntity
  8
1
100
AcDbVertex
100
AcDb2dVertex
 10
1.585629921259842
 20
4.87007874015748
 30
0.0
  0
VERTEX
  5
94
330
92
100
AcDbEntity
  8
1
100
AcDbVertex
100
AcDb2dVertex
 10
1.591535433070866
 20
4.86515748031496
 30
0.0
  0
VERTEX
  5
95
330
92
100
AcDbEntity
  8
1
100
AcDbVertex
100
AcDb2dVertex
 10
1.604330708661417
 20
4.856299212598425
 30
0.0
  0
VERTEX
  5
96
330
92
100
AcDbEntity
  8
1
100
AcDbVertex
100
AcDb2dVertex
 10
1.624015748031496
 20
4.841535433070865
 30
0.0
  0
VERTEX
  5
97
330
92
100
AcDbEntity
  8
1
100
AcDbVertex
100
AcDb2dVertex
 10
1.649606299212598
 20
4.822834645669291
 30
0.0
  0
VERTEX
  5
98
330
92
100
AcDbEntity
  8
1
100
AcDbVertex
100
AcDb2dVertex
 10
1.681102362204724
 20
4.8001968503937
 30
0.0
  0
VERTEX
  5
99
330
92
100
AcDbEntity
  8
1
100
AcDbVertex
100
AcDb2dVertex
 10
1.716535433070866
 20
4.773622047244094
 30
0.0
  0
VERTEX
  5
9A
330
92
100
AcDbEntity
  8
1
100
AcDbVertex
100
AcDb2dVertex
 10
1.755905511811023
 20
4.74507874015748
 30
0.0
  0
VERTEX
  5
9B
330
92
100
AcDbEntity
  8
1
100
AcDbVertex
100
AcDb2dVertex
 10
1.797244094488188
 20
4.714566929133858
 30
0.0
  0
VERTEX
  5
9C
330
92
100
AcDbEntity
  8
1
100
AcDbVertex
100
AcDb2dVertex
 10
1.840551181102362
 20
4.683070866141732
 30
0.0
  0
SEQEND
  5
9D
330
92
100
AcDbEntity
  8
1
  0
LINE
  5
9E
330
1F
100
AcDbEntity
  8
1
100
AcDbLine
 10
1.585629921259842
 20
1.89763779527559
 30
0.0
 11
1.585629921259842
 21
4.87007874015748
 31
0.0
  0
POLYLINE
  5
9F
330
1F
100
AcDbEntity
  8
1
100
AcDb2dPolyline
 66
     1
 10
0.0
 20
0.0
 30
0.0
  0
VERTEX
  5
A0
330
9F
100
AcDbEntity
  8
1
100
AcDbVertex
100
AcDb2dVertex
 10
1.585629921259842
 20
1.89763779527559
 30
0.0
  0
VERTEX
  5
A1
330
9F
100
AcDbEntity
  8
1
100
AcDbVertex
100
AcDb2dVertex
 10
1.591535433070866
 20
1.90255905511811
 30
0.0
  0
VERTEX
  5
A2
330
9F
100
AcDbEntity
  8
1
100
AcDbVertex
100
AcDb2dVertex
 10
1.604330708661417
 20
1.911417322834645
 30
0.0
  0
VERTEX
  5
A3
330
9F
100
AcDbEntity
  8
1
100
AcDbVertex
100
AcDb2dVertex
 10
1.624015748031496
 20
1.926181102362204
 30
0.0
  0
VERTEX
  5
A4
330
9F
100
AcDbEntity
  8
1
100
AcDbVertex
100
AcDb2dVertex
 10
1.649606299212598
 20
1.944881889763779
 30
0.0
  0
VERTEX
  5
A5
330
9F
100
AcDbEntity
  8
1
100
AcDbVertex
100
AcDb2dVertex
 10
1.681102362204724
 20
1.96751968503937
 30
0.0
  0
VERTEX
  5
A6
330
9F
100
AcDbEntity
  8
1
100
AcDbVertex
100
AcDb2dVertex
 10
1.716535433070866
 20
1.994094488188976
 30
0.0
  0
VERTEX
  5
A7
330
9F
100
AcDbEntity
  8
1
100
AcDbVertex
100
AcDb2dVertex
 10
1.755905511811023
 20
2.02263779527559
 30
0.0
  0
VERTEX
  5
A8
330
9F
100
AcDbEntity
  8
1
100
AcDbVertex
100
AcDb2dVertex
 10
1.797244094488188
 20
2.053149606299212
 30
0.0
  0
VERTEX
  5
A9
330
9F
100
AcDbEntity
  8
1
100
AcDbVertex
100
AcDb2dVertex
 10
1.840551181102362
 20
2.084645669291338
 30
0.0
  0
SEQEND
  5
AA
330
9F
100
AcDbEntity
  8
1
  0
LINE
  5
AB
330
1F
100
AcDbEntity
  8
1
100
AcDbLine
 10
1.840551181102362
 20
4.683070866141732
 30
0.0
 11
1.840551181102362
 21
2.084645669291338
 31
0.0
  0
POLYLINE
  5
AC
330
1F
100
AcDbEntity
  8
1
100
AcDb2dPolyline
 66
     1
 10
0.0
 20
0.0
 30
0.0
  0
VERTEX
  5
AD
330
AC
100
AcDbEntity
  8
1
100
AcDbVertex
100
AcDb2dVertex
 10
1.585629921259842
 20
1.89763779527559
 30
0.0
  0
VERTEX
  5
AE
330
AC
100
AcDbEntity
  8
1
100
AcDbVertex
100
AcDb2dVertex
 10
1.590551181102362
 20
1.872047244094488
 30
0.0
  0
VERTEX
  5
AF
330
AC
100
AcDbEntity
  8
1
100
AcDbVertex
100
AcDb2dVertex
 10
1.605314960629921
 20
1.850393700787401
 30
0.0
  0
VERTEX
  5
B0
330
AC
100
AcDbEntity
  8
1
100
AcDbVertex
100
AcDb2dVertex
 10
1.627952755905511
 20
1.835629921259842
 30
0.0
  0
VERTEX
  5
B1
330
AC
100
AcDbEntity
  8
1
100
AcDbVertex
100
AcDb2dVertex
 10
1.653543307086614
 20
1.830708661417322
 30
0.0
  0
SEQEND
  5
B2
330
AC
100
AcDbEntity
  8
1
  0
POLYLINE
  5
B3
330
1F
100
AcDbEntity
  8
1
100
AcDb2dPolyline
 66
     1
 10
0.0
 20
0.0
 30
0.0
  0
VERTEX
  5
B4
330
B3
100
AcDbEntity
  8
1
100
AcDbVertex
100
AcDb2dVertex
 10
1.840551181102362
 20
2.084645669291338
 30
0.0
  0
VERTEX
  5
B5
330
B3
100
AcDbEntity
  8
1
100
AcDbVertex
100
AcDb2dVertex
 10
1.809055118110236
 20
2.042322834645669
 30
0.0
  0
VERTEX
  5
B6
330
B3
100
AcDbEntity
  8
1
100
AcDbVertex
100
AcDb2dVertex
 10
1.778543307086614
 20
2.0
 30
0.0
  0
VERTEX
  5
B7
330
B3
100
AcDbEntity
  8
1
100
AcDbVertex
100
AcDb2dVertex
 10
1.75
 20
1.961614173228346
 30
0.0
  0
VERTEX
  5
B8
330
B3
100
AcDbEntity
  8
1
100
AcDbVertex
100
AcDb2dVertex
 10
1.723425196850393
 20
1.9251968503937
 30
0.0
  0
VERTEX
  5
B9
330
B3
100
AcDbEntity
  8
1
100
AcDbVertex
100
AcDb2dVertex
 10
1.700787401574803
 20
1.894685039370078
 30
0.0
  0
VERTEX
  5
BA
330
B3
100
AcDbEntity
  8
1
100
AcDbVertex
100
AcDb2dVertex
 10
1.682086614173228
 20
1.868110236220472
 30
0.0
  0
VERTEX
  5
BB
330
B3
100
AcDbEntity
  8
1
100
AcDbVertex
100
AcDb2dVertex
 10
1.667322834645669
 20
1.849409448818897
 30
0.0
  0
VERTEX
  5
BC
330
B3
100
AcDbEntity
  8
1
100
AcDbVertex
100
AcDb2dVertex
 10
1.657480314960629
 20
1.835629921259842
 30
0.0
  0
VERTEX
  5
BD
330
B3
100
AcDbEntity
  8
1
100
AcDbVertex
100
AcDb2dVertex
 10
1.653543307086614
 20
1.830708661417322
 30
0.0
  0
SEQEND
  5
BE
330
B3
100
AcDbEntity
  8
1
  0
LINE
  5
BF
330
1F
100
AcDbEntity
  8
1
100
AcDbLine
 10
2.441929133858267
 20
3.451771653543306
 30
0.0
 11
2.443897637795275
 21
3.451771653543306
 31
0.0
  0
LINE
  5
C0
330
1F
100
AcDbEntity
  8
1
100
AcDbLine
 10
2.441929133858267
 20
3.451771653543306
 30
0.0
 11
2.441929133858267
 21
3.315944881889763
 31
0.0
  0
LINE
  5
C1
330
1F
100
AcDbEntity
  8
1
100
AcDbLine
 10
2.443897637795275
 20
3.315944881889763
 30
0.0
 11
2.443897637795275
 21
3.451771653543306
 31
0.0
  0
LINE
  5
C2
330
1F
100
AcDbEntity
  8
1
100
AcDbLine
 10
6.607283464566928
 20
1.830708661417322
 30
0.0
 11
1.653543307086614
 21
1.830708661417322
 31
0.0
  0
POLYLINE
  5
C3
330
1F
100
AcDbEntity
  8
1
100
AcDb2dPolyline
 66
     1
 10
0.0
 20
0.0
 30
0.0
  0
VERTEX
  5
C4
330
C3
100
AcDbEntity
  8
1
100
AcDbVertex
100
AcDb2dVertex
 10
6.607283464566928
 20
1.830708661417322
 30
0.0
  0
VERTEX
  5
C5
330
C3
100
AcDbEntity
  8
1
100
AcDbVertex
100
AcDb2dVertex
 10
6.603346456692912
 20
1.835629921259842
 30
0.0
  0
VERTEX
  5
C6
330
C3
100
AcDbEntity
  8
1
100
AcDbVertex
100
AcDb2dVertex
 10
6.593503937007874
 20
1.849409448818897
 30
0.0
  0
VERTEX
  5
C7
330
C3
100
AcDbEntity
  8
1
100
AcDbVertex
100
AcDb2dVertex
 10
6.578740157480314
 20
1.868110236220472
 30
0.0
  0
VERTEX
  5
C8
330
C3
100
AcDbEntity
  8
1
100
AcDbVertex
100
AcDb2dVertex
 10
6.560039370078739
 20
1.894685039370078
 30
0.0
  0
VERTEX
  5
C9
330
C3
100
AcDbEntity
  8
1
100
AcDbVertex
100
AcDb2dVertex
 10
6.537401574803149
 20
1.9251968503937
 30
0.0
  0
VERTEX
  5
CA
330
C3
100
AcDbEntity
  8
1
100
AcDbVertex
100
AcDb2dVertex
 10
6.510826771653543
 20
1.961614173228346
 30
0.0
  0
VERTEX
  5
CB
330
C3
100
AcDbEntity
  8
1
100
AcDbVertex
100
AcDb2dVertex
 10
6.482283464566928
 20
2.0
 30
0.0
  0
VERTEX
  5
CC
330
C3
100
AcDbEntity
  8
1
100
AcDbVertex
100
AcDb2dVertex
 10
6.451771653543307
 20
2.042322834645669
 30
0.0
  0
VERTEX
  5
CD
330
C3
100
AcDbEntity
  8
1
100
AcDbVertex
100
AcDb2dVertex
 10
6.42027559055118
 20
2.084645669291338
 30
0.0
  0
SEQEND
  5
CE
330
C3
100
AcDbEntity
  8
1
  0
LINE
  5
CF
330
1F
100
AcDbEntity
  8
1
100
AcDbLine
 10
1.840551181102362
 20
2.084645669291338
 30
0.0
 11
6.42027559055118
 21
2.084645669291338
 31
0.0
  0
POLYLINE
  5
D0
330
1F
100
AcDbEntity
  8
1
100
AcDb2dPolyline
 66
     1
 10
0.0
 20
0.0
 30
0.0
  0
VERTEX
  5
D1
330
D0
100
AcDbEntity
  8
1
100
AcDbVertex
100
AcDb2dVertex
 10
6.607283464566928
 20
4.937992125984251
 30
0.0
  0
VERTEX
  5
D2
330
D0
100
AcDbEntity
  8
1
100
AcDbVertex
100
AcDb2dVertex
 10
6.603346456692912
 20
4.932086614173228
 30
0.0
  0
VERTEX
  5
D3
330
D0
100
AcDbEntity
  8
1
100
AcDbVertex
100
AcDb2dVertex
 10
6.593503937007874
 20
4.918307086614173
 30
0.0
  0
VERTEX
  5
D4
330
D0
100
AcDbEntity
  8
1
100
AcDbVertex
100
AcDb2dVertex
 10
6.578740157480314
 20
4.899606299212598
 30
0.0
  0
VERTEX
  5
D5
330
D0
100
AcDbEntity
  8
1
100
AcDbVertex
100
AcDb2dVertex
 10
6.560039370078739
 20
4.873031496062991
 30
0.0
  0
VERTEX
  5
D6
330
D0
100
AcDbEntity
  8
1
100
AcDbVertex
100
AcDb2dVertex
 10
6.537401574803149
 20
4.84251968503937
 30
0.0
  0
VERTEX
  5
D7
330
D0
100
AcDbEntity
  8
1
100
AcDbVertex
100
AcDb2dVertex
 10
6.510826771653543
 20
4.807086614173228
 30
0.0
  0
VERTEX
  5
D8
330
D0
100
AcDbEntity
  8
1
100
AcDbVertex
100
AcDb2dVertex
 10
6.482283464566928
 20
4.76771653543307
 30
0.0
  0
VERTEX
  5
D9
330
D0
100
AcDbEntity
  8
1
100
AcDbVertex
100
AcDb2dVertex
 10
6.451771653543307
 20
4.725393700787401
 30
0.0
  0
VERTEX
  5
DA
330
D0
100
AcDbEntity
  8
1
100
AcDbVertex
100
AcDb2dVertex
 10
6.42027559055118
 20
4.683070866141732
 30
0.0
  0
SEQEND
  5
DB
330
D0
100
AcDbEntity
  8
1
  0
LINE
  5
DC
330
1F
100
AcDbEntity
  8
1
100
AcDbLine
 10
1.653543307086614
 20
4.937992125984251
 30
0.0
 11
6.607283464566928
 21
4.937992125984251
 31
0.0
  0
POLYLINE
  5
DD
330
1F
100
AcDbEntity
  8
1
100
AcDb2dPolyline
 66
     1
 10
0.0
 20
0.0
 30
0.0
  0
VERTEX
  5
DE
330
DD
100
AcDbEntity
  8
1
100
AcDbVertex
100
AcDb2dVertex
 10
1.840551181102362
 20
4.683070866141732
 30
0.0
  0
VERTEX
  5
DF
330
DD
100
AcDbEntity
  8
1
100
AcDbVertex
100
AcDb2dVertex
 10
1.809055118110236
 20
4.725393700787401
 30
0.0
  0
VERTEX
  5
E0
330
DD
100
AcDbEntity
  8
1
100
AcDbVertex
100
AcDb2dVertex
 10
1.778543307086614
 20
4.76771653543307
 30
0.0
  0
VERTEX
  5
E1
330
DD
100
AcDbEntity
  8
1
100
AcDbVertex
100
AcDb2dVertex
 10
1.75
 20
4.807086614173228
 30
0.0
  0
VERTEX
  5
E2
330
DD
100
AcDbEntity
  8
1
100
AcDbVertex
100
AcDb2dVertex
 10
1.723425196850393
 20
4.84251968503937
 30
0.0
  0
VERTEX
  5
E3
330
DD
100
AcDbEntity
  8
1
100
AcDbVertex
100
AcDb2dVertex
 10
1.700787401574803
 20
4.873031496062991
 30
0.0
  0
VERTEX
  5
E4
330
DD
100
AcDbEntity
  8
1
100
AcDbVertex
100
AcDb2dVertex
 10
1.682086614173228
 20
4.899606299212598
 30
0.0
  0
VERTEX
  5
E5
330
DD
100
AcDbEntity
  8
1
100
AcDbVertex
100
AcDb2dVertex
 10
1.667322834645669
 20
4.918307086614173
 30
0.0
  0
VERTEX
  5
E6
330
DD
100
AcDbEntity
  8
1
100
AcDbVertex
100
AcDb2dVertex
 10
1.657480314960629
 20
4.932086614173228
 30
0.0
  0
VERTEX
  5
E7
330
DD
100
AcDbEntity
  8
1
100
AcDbVertex
100
AcDb2dVertex
 10
1.653543307086614
 20
4.937992125984251
 30
0.0
  0
SEQEND
  5
E8
330
DD
100
AcDbEntity
  8
1
  0
LINE
  5
E9
330
1F
100
AcDbEntity
  8
1
100
AcDbLine
 10
6.42027559055118
 20
4.683070866141732
 30
0.0
 11
1.840551181102362
 21
4.683070866141732
 31
0.0
  0
LINE
  5
EA
330
1F
100
AcDbEntity
  8
1
100
AcDbLine
 10
3.965551181102362
 20
4.084645669291338
 30
0.0
 11
3.965551181102362
 21
3.4251968503937
 31
0.0
  0
LINE
  5
EB
330
1F
100
AcDbEntity
  8
1
100
AcDbLine
 10
3.984251968503937
 20
3.4251968503937
 30
0.0
 11
3.984251968503937
 21
4.084645669291338
 31
0.0
  0
LINE
  5
EC
330
1F
100
AcDbEntity
  8
1
100
AcDbLine
 10
4.008858267716535
 20
4.084645669291338
 30
0.0
 11
3.49015748031496
 21
4.084645669291338
 31
0.0
  0
LINE
  5
ED
330
1F
100
AcDbEntity
  8
1
100
AcDbLine
 10
4.008858267716535
 20
3.4251968503937
 30
0.0
 11
3.49015748031496
 21
3.4251968503937
 31
0.0
  0
LINE
  5
EE
330
1F
100
AcDbEntity
  8
1
100
AcDbLine
 10
5.631889763779527
 20
4.084645669291338
 30
0.0
 11
5.114173228346456
 21
4.084645669291338
 31
0.0
  0
LINE
  5
EF
330
1F
100
AcDbEntity
  8
1
100
AcDbLine
 10
5.631889763779527
 20
3.4251968503937
 30
0.0
 11
5.114173228346456
 21
3.4251968503937
 31
0.0
  0
LINE
  5
F0
330
1F
100
AcDbEntity
  8
1
100
AcDbLine
 10
2.039370078740157
 20
4.374015748031496
 30
0.0
 11
2.040354330708661
 21
4.372047244094487
 31
0.0
  0
LINE
  5
F1
330
1F
100
AcDbEntity
  8
1
100
AcDbLine
 10
2.503937007874015
 20
4.372047244094487
 30
0.0
 11
2.040354330708661
 21
4.372047244094487
 31
0.0
  0
LINE
  5
F2
330
1F
100
AcDbEntity
  8
1
100
AcDbLine
 10
2.504921259842519
 20
4.374015748031496
 30
0.0
 11
2.503937007874015
 21
4.372047244094487
 31
0.0
  0
POLYLINE
  5
F3
330
1F
100
AcDbEntity
  8
1
100
AcDb2dPolyline
 66
     1
 10
0.0
 20
0.0
 30
0.0
  0
VERTEX
  5
F4
330
F3
100
AcDbEntity
  8
1
100
AcDbVertex
100
AcDb2dVertex
 10
2.441929133858267
 20
3.451771653543306
 30
0.0
  0
VERTEX
  5
F5
330
F3
100
AcDbEntity
  8
1
100
AcDbVertex
100
AcDb2dVertex
 10
2.437007874015748
 20
3.492125984251968
 30
0.0
  0
VERTEX
  5
F6
330
F3
100
AcDbEntity
  8
1
100
AcDbVertex
100
AcDb2dVertex
 10
2.422244094488188
 20
3.530511811023622
 30
0.0
  0
VERTEX
  5
F7
330
F3
100
AcDbEntity
  8
1
100
AcDbVertex
100
AcDb2dVertex
 10
2.399606299212598
 20
3.564960629921259
 30
0.0
  0
VERTEX
  5
F8
330
F3
100
AcDbEntity
  8
1
100
AcDbVertex
100
AcDb2dVertex
 10
2.369094488188976
 20
3.591535433070866
 30
0.0
  0
VERTEX
  5
F9
330
F3
100
AcDbEntity
  8
1
100
AcDbVertex
100
AcDb2dVertex
 10
2.33267716535433
 20
3.61023622047244
 30
0.0
  0
VERTEX
  5
FA
330
F3
100
AcDbEntity
  8
1
100
AcDbVertex
100
AcDb2dVertex
 10
2.292322834645669
 20
3.62007874015748
 30
0.0
  0
VERTEX
  5
FB
330
F3
100
AcDbEntity
  8
1
100
AcDbVertex
100
AcDb2dVertex
 10
2.251968503937007
 20
3.62007874015748
 30
0.0
  0
VERTEX
  5
FC
330
F3
100
AcDbEntity
  8
1
100
AcDbVertex
100
AcDb2dVertex
 10
2.211614173228346
 20
3.61023622047244
 30
0.0
  0
VERTEX
  5
FD
330
F3
100
AcDbEntity
  8
1
100
AcDbVertex
100
AcDb2dVertex
 10
2.176181102362204
 20
3.591535433070866
 30
0.0
  0
VERTEX
  5
FE
330
F3
100
AcDbEntity
  8
1
100
AcDbVertex
100
AcDb2dVertex
 10
2.144685039370078
 20
3.564960629921259
 30
0.0
  0
VERTEX
  5
FF
330
F3
100
AcDbEntity
  8
1
100
AcDbVertex
100
AcDb2dVertex
 10
2.122047244094487
 20
3.530511811023622
 30
0.0
  0
VERTEX
  5
100
330
F3
100
AcDbEntity
  8
1
100
AcDbVertex
100
AcDb2dVertex
 10
2.107283464566929
 20
3.492125984251968
 30
0.0
  0
VERTEX
  5
101
330
F3
100
AcDbEntity
  8
1
100
AcDbVertex
100
AcDb2dVertex
 10
2.102362204724409
 20
3.451771653543306
 30
0.0
  0
SEQEND
  5
102
330
F3
100
AcDbEntity
  8
1
  0
POLYLINE
  5
103
330
1F
100
AcDbEntity
  8
1
100
AcDb2dPolyline
 66
     1
 10
0.0
 20
0.0
 30
0.0
  0
VERTEX
  5
104
330
103
100
AcDbEntity
  8
1
100
AcDbVertex
100
AcDb2dVertex
 10
2.100393700787401
 20
3.451771653543306
 30
0.0
  0
VERTEX
  5
105
330
103
100
AcDbEntity
  8
1
100
AcDbVertex
100
AcDb2dVertex
 10
2.105314960629921
 20
3.493110236220472
 30
0.0
  0
VERTEX
  5
106
330
103
100
AcDbEntity
  8
1
100
AcDbVertex
100
AcDb2dVertex
 10
2.12007874015748
 20
3.531496062992125
 30
0.0
  0
VERTEX
  5
107
330
103
100
AcDbEntity
  8
1
100
AcDbVertex
100
AcDb2dVertex
 10
2.143700787401574
 20
3.565944881889763
 30
0.0
  0
VERTEX
  5
108
330
103
100
AcDbEntity
  8
1
100
AcDbVertex
100
AcDb2dVertex
 10
2.174212598425196
 20
3.593503937007874
 30
0.0
  0
VERTEX
  5
109
330
103
100
AcDbEntity
  8
1
100
AcDbVertex
100
AcDb2dVertex
 10
2.211614173228346
 20
3.612204724409448
 30
0.0
  0
VERTEX
  5
10A
330
103
100
AcDbEntity
  8
1
100
AcDbVertex
100
AcDb2dVertex
 10
2.251968503937007
 20
3.622047244094487
 30
0.0
  0
VERTEX
  5
10B
330
103
100
AcDbEntity
  8
1
100
AcDbVertex
100
AcDb2dVertex
 10
2.293307086614173
 20
3.622047244094487
 30
0.0
  0
VERTEX
  5
10C
330
103
100
AcDbEntity
  8
1
100
AcDbVertex
100
AcDb2dVertex
 10
2.333661417322834
 20
3.612204724409448
 30
0.0
  0
VERTEX
  5
10D
330
103
100
AcDbEntity
  8
1
100
AcDbVertex
100
AcDb2dVertex
 10
2.37007874015748
 20
3.593503937007874
 30
0.0
  0
VERTEX
  5
10E
330
103
100
AcDbEntity
  8
1
100
AcDbVertex
100
AcDb2dVertex
 10
2.400590551181102
 20
3.565944881889763
 30
0.0
  0
VERTEX
  5
10F
330
103
100
AcDbEntity
  8
1
100
AcDbVertex
100
AcDb2dVertex
 10
2.424212598425196
 20
3.531496062992125
 30
0.0
  0
VERTEX
  5
110
330
103
100
AcDbEntity
  8
1
100
AcDbVertex
100
AcDb2dVertex
 10
2.438976377952756
 20
3.493110236220472
 30
0.0
  0
VERTEX
  5
111
330
103
100
AcDbEntity
  8
1
100
AcDbVertex
100
AcDb2dVertex
 10
2.443897637795275
 20
3.451771653543306
 30
0.0
  0
SEQEND
  5
112
330
103
100
AcDbEntity
  8
1
  0
POLYLINE
  5
113
330
1F
100
AcDbEntity
  8
1
100
AcDb2dPolyline
 66
     1
 10
0.0
 20
0.0
 30
0.0
  0
VERTEX
  5
114
330
113
100
AcDbEntity
  8
1
100
AcDbVertex
100
AcDb2dVertex
 10
1.653543307086614
 20
4.937992125984251
 30
0.0
  0
VERTEX
  5
115
330
113
100
AcDbEntity
  8
1
100
AcDbVertex
100
AcDb2dVertex
 10
1.627952755905511
 20
4.932086614173228
 30
0.0
  0
VERTEX
  5
116
330
113
100
AcDbEntity
  8
1
100
AcDbVertex
100
AcDb2dVertex
 10
1.605314960629921
 20
4.917322834645669
 30
0.0
  0
VERTEX
  5
117
330
113
100
AcDbEntity
  8
1
100
AcDbVertex
100
AcDb2dVertex
 10
1.590551181102362
 20
4.895669291338582
 30
0.0
  0
VERTEX
  5
118
330
113
100
AcDbEntity
  8
1
100
AcDbVertex
100
AcDb2dVertex
 10
1.585629921259842
 20
4.87007874015748
 30
0.0
  0
SEQEND
  5
119
330
113
100
AcDbEntity
  8
1
  0
LINE
  5
11A
330
1F
100
AcDbEntity
  8
1
100
AcDbLine
 10
5.631889763779527
 20
3.342519685039369
 30
0.0
 11
5.114173228346456
 21
3.342519685039369
 31
0.0
  0
LINE
  5
11B
330
1F
100
AcDbEntity
  8
1
100
AcDbLine
 10
5.631889763779527
 20
2.683070866141732
 30
0.0
 11
5.114173228346456
 21
2.683070866141732
 31
0.0
  0
LINE
  5
11C
330
1F
100
AcDbEntity
  8
1
100
AcDbLine
 10
4.008858267716535
 20
3.342519685039369
 30
0.0
 11
3.49015748031496
 21
3.342519685039369
 31
0.0
  0
LINE
  5
11D
330
1F
100
AcDbEntity
  8
1
100
AcDbLine
 10
3.965551181102362
 20
3.342519685039369
 30
0.0
 11
3.965551181102362
 21
2.683070866141732
 31
0.0
  0
LINE
  5
11E
330
1F
100
AcDbEntity
  8
1
100
AcDbLine
 10
3.984251968503937
 20
2.683070866141732
 30
0.0
 11
3.984251968503937
 21
3.342519685039369
 31
0.0
  0
LINE
  5
11F
330
1F
100
AcDbEntity
  8
1
100
AcDbLine
 10
4.008858267716535
 20
2.683070866141732
 30
0.0
 11
3.49015748031496
 21
2.683070866141732
 31
0.0
  0
LINE
  5
120
330
1F
100
AcDbEntity
  8
1
100
AcDbLine
 10
5.589566929133858
 20
4.084645669291338
 30
0.0
 11
5.589566929133858
 21
3.4251968503937
 31
0.0
  0
LINE
  5
121
330
1F
100
AcDbEntity
  8
1
100
AcDbLine
 10
5.608267716535433
 20
4.084645669291338
 30
0.0
 11
5.608267716535433
 21
3.4251968503937
 31
0.0
  0
LINE
  5
122
330
1F
100
AcDbEntity
  8
1
100
AcDbLine
 10
5.589566929133858
 20
3.342519685039369
 30
0.0
 11
5.589566929133858
 21
2.683070866141732
 31
0.0
  0
LINE
  5
123
330
1F
100
AcDbEntity
  8
1
100
AcDbLine
 10
5.608267716535433
 20
2.683070866141732
 30
0.0
 11
5.608267716535433
 21
3.342519685039369
 31
0.0
  0
LINE
  5
124
330
1F
100
AcDbEntity
  8
1
100
AcDbLine
 10
6.160433070866141
 20
3.451771653543306
 30
0.0
 11
6.158464566929133
 21
3.451771653543306
 31
0.0
  0
LINE
  5
125
330
1F
100
AcDbEntity
  8
1
100
AcDbLine
 10
6.158464566929133
 20
3.315944881889763
 30
0.0
 11
6.158464566929133
 21
3.451771653543306
 31
0.0
  0
LINE
  5
126
330
1F
100
AcDbEntity
  8
1
100
AcDbLine
 10
6.160433070866141
 20
3.315944881889763
 30
0.0
 11
6.158464566929133
 21
3.315944881889763
 31
0.0
  0
LINE
  5
127
330
1F
100
AcDbEntity
  8
1
100
AcDbLine
 10
6.160433070866141
 20
3.451771653543306
 30
0.0
 11
6.160433070866141
 21
3.315944881889763
 31
0.0
  0
POLYLINE
  5
128
330
1F
100
AcDbEntity
  8
1
100
AcDb2dPolyline
 66
     1
 10
0.0
 20
0.0
 30
0.0
  0
VERTEX
  5
129
330
128
100
AcDbEntity
  8
1
100
AcDbVertex
100
AcDb2dVertex
 10
6.158464566929133
 20
3.315944881889763
 30
0.0
  0
VERTEX
  5
12A
330
128
100
AcDbEntity
  8
1
100
AcDbVertex
100
AcDb2dVertex
 10
6.153543307086613
 20
3.275590551181102
 30
0.0
  0
VERTEX
  5
12B
330
128
100
AcDbEntity
  8
1
100
AcDbVertex
100
AcDb2dVertex
 10
6.138779527559054
 20
3.237204724409448
 30
0.0
  0
VERTEX
  5
12C
330
128
100
AcDbEntity
  8
1
100
AcDbVertex
100
AcDb2dVertex
 10
6.11515748031496
 20
3.203740157480314
 30
0.0
  0
VERTEX
  5
12D
330
128
100
AcDbEntity
  8
1
100
AcDbVertex
100
AcDb2dVertex
 10
6.084645669291338
 20
3.176181102362204
 30
0.0
  0
VERTEX
  5
12E
330
128
100
AcDbEntity
  8
1
100
AcDbVertex
100
AcDb2dVertex
 10
6.048228346456692
 20
3.15748031496063
 30
0.0
  0
VERTEX
  5
12F
330
128
100
AcDbEntity
  8
1
100
AcDbVertex
100
AcDb2dVertex
 10
6.008858267716535
 20
3.14763779527559
 30
0.0
  0
VERTEX
  5
130
330
128
100
AcDbEntity
  8
1
100
AcDbVertex
100
AcDb2dVertex
 10
5.96751968503937
 20
3.14763779527559
 30
0.0
  0
VERTEX
  5
131
330
128
100
AcDbEntity
  8
1
100
AcDbVertex
100
AcDb2dVertex
 10
5.928149606299212
 20
3.15748031496063
 30
0.0
  0
VERTEX
  5
132
330
128
100
AcDbEntity
  8
1
100
AcDbVertex
100
AcDb2dVertex
 10
5.891732283464566
 20
3.176181102362204
 30
0.0
  0
VERTEX
  5
133
330
128
100
AcDbEntity
  8
1
100
AcDbVertex
100
AcDb2dVertex
 10
5.861220472440944
 20
3.203740157480314
 30
0.0
  0
VERTEX
  5
134
330
128
100
AcDbEntity
  8
1
100
AcDbVertex
100
AcDb2dVertex
 10
5.83759842519685
 20
3.237204724409448
 30
0.0
  0
VERTEX
  5
135
330
128
100
AcDbEntity
  8
1
100
AcDbVertex
100
AcDb2dVertex
 10
5.823818897637795
 20
3.275590551181102
 30
0.0
  0
VERTEX
  5
136
330
128
100
AcDbEntity
  8
1
100
AcDbVertex
100
AcDb2dVertex
 10
5.818897637795275
 20
3.315944881889763
 30
0.0
  0
SEQEND
  5
137
330
128
100
AcDbEntity
  8
1
  0
LINE
  5
138
330
1F
100
AcDbEntity
  8
1
100
AcDbLine
 10
5.818897637795275
 20
3.315944881889763
 30
0.0
 11
5.816929133858267
 21
3.315944881889763
 31
0.0
  0
POLYLINE
  5
139
330
1F
100
AcDbEntity
  8
1
100
AcDb2dPolyline
 66
     1
 10
0.0
 20
0.0
 30
0.0
  0
VERTEX
  5
13A
330
139
100
AcDbEntity
  8
1
100
AcDbVertex
100
AcDb2dVertex
 10
6.160433070866141
 20
3.315944881889763
 30
0.0
  0
VERTEX
  5
13B
330
139
100
AcDbEntity
  8
1
100
AcDbVertex
100
AcDb2dVertex
 10
6.155511811023622
 20
3.274606299212598
 30
0.0
  0
VERTEX
  5
13C
330
139
100
AcDbEntity
  8
1
100
AcDbVertex
100
AcDb2dVertex
 10
6.140748031496062
 20
3.236220472440944
 30
0.0
  0
VERTEX
  5
13D
330
139
100
AcDbEntity
  8
1
100
AcDbVertex
100
AcDb2dVertex
 10
6.117125984251968
 20
3.201771653543306
 30
0.0
  0
VERTEX
  5
13E
330
139
100
AcDbEntity
  8
1
100
AcDbVertex
100
AcDb2dVertex
 10
6.085629921259842
 20
3.174212598425196
 30
0.0
  0
VERTEX
  5
13F
330
139
100
AcDbEntity
  8
1
100
AcDbVertex
100
AcDb2dVertex
 10
6.049212598425197
 20
3.155511811023622
 30
0.0
  0
VERTEX
  5
140
330
139
100
AcDbEntity
  8
1
100
AcDbVertex
100
AcDb2dVertex
 10
6.008858267716535
 20
3.145669291338582
 30
0.0
  0
VERTEX
  5
141
330
139
100
AcDbEntity
  8
1
100
AcDbVertex
100
AcDb2dVertex
 10
5.96751968503937
 20
3.145669291338582
 30
0.0
  0
VERTEX
  5
142
330
139
100
AcDbEntity
  8
1
100
AcDbVertex
100
AcDb2dVertex
 10
5.927165354330708
 20
3.155511811023622
 30
0.0
  0
VERTEX
  5
143
330
139
100
AcDbEntity
  8
1
100
AcDbVertex
100
AcDb2dVertex
 10
5.890748031496062
 20
3.174212598425196
 30
0.0
  0
VERTEX
  5
144
330
139
100
AcDbEntity
  8
1
100
AcDbVertex
100
AcDb2dVertex
 10
5.859251968503937
 20
3.201771653543306
 30
0.0
  0
VERTEX
  5
145
330
139
100
AcDbEntity
  8
1
100
AcDbVertex
100
AcDb2dVertex
 10
5.836614173228346
 20
3.236220472440944
 30
0.0
  0
VERTEX
  5
146
330
139
100
AcDbEntity
  8
1
100
AcDbVertex
100
AcDb2dVertex
 10
5.821850393700787
 20
3.274606299212598
 30
0.0
  0
VERTEX
  5
147
330
139
100
AcDbEntity
  8
1
100
AcDbVertex
100
AcDb2dVertex
 10
5.816929133858267
 20
3.315944881889763
 30
0.0
  0
SEQEND
  5
148
330
139
100
AcDbEntity
  8
1
  0
LINE
  5
149
330
1F
100
AcDbEntity
  8
1
100
AcDbLine
 10
6.221456692913386
 20
2.393700787401574
 30
0.0
 11
6.220472440944881
 21
2.395669291338582
 31
0.0
  0
LINE
  5
14A
330
1F
100
AcDbEntity
  8
1
100
AcDbLine
 10
5.755905511811023
 20
2.395669291338582
 30
0.0
 11
6.220472440944881
 21
2.395669291338582
 31
0.0
  0
LINE
  5
14B
330
1F
100
AcDbEntity
  8
1
100
AcDbLine
 10
5.755905511811023
 20
2.394685039370078
 30
0.0
 11
5.755905511811023
 21
2.395669291338582
 31
0.0
  0
POLYLINE
  5
14C
330
1F
100
AcDbEntity
  8
1
100
AcDb2dPolyline
 66
     1
 10
0.0
 20
0.0
 30
0.0
  0
VERTEX
  5
14D
330
14C
100
AcDbEntity
  8
1
100
AcDbVertex
100
AcDb2dVertex
 10
6.607283464566928
 20
1.830708661417322
 30
0.0
  0
VERTEX
  5
14E
330
14C
100
AcDbEntity
  8
1
100
AcDbVertex
100
AcDb2dVertex
 10
6.632874015748031
 20
1.835629921259842
 30
0.0
  0
VERTEX
  5
14F
330
14C
100
AcDbEntity
  8
1
100
AcDbVertex
100
AcDb2dVertex
 10
6.655511811023622
 20
1.850393700787401
 30
0.0
  0
VERTEX
  5
150
330
14C
100
AcDbEntity
  8
1
100
AcDbVertex
100
AcDb2dVertex
 10
6.67027559055118
 20
1.872047244094488
 30
0.0
  0
VERTEX
  5
151
330
14C
100
AcDbEntity
  8
1
100
AcDbVertex
100
AcDb2dVertex
 10
6.6751968503937
 20
1.89763779527559
 30
0.0
  0
SEQEND
  5
152
330
14C
100
AcDbEntity
  8
1
  0
POLYLINE
  5
153
330
1F
100
AcDbEntity
  8
1
100
AcDb2dPolyline
 66
     1
 10
0.0
 20
0.0
 30
0.0
  0
VERTEX
  5
154
330
153
100
AcDbEntity
  8
1
100
AcDbVertex
100
AcDb2dVertex
 10
6.42027559055118
 20
2.084645669291338
 30
0.0
  0
VERTEX
  5
155
330
153
100
AcDbEntity
  8
1
100
AcDbVertex
100
AcDb2dVertex
 10
6.463582677165354
 20
2.053149606299212
 30
0.0
  0
VERTEX
  5
156
330
153
100
AcDbEntity
  8
1
100
AcDbVertex
100
AcDb2dVertex
 10
6.504921259842519
 20
2.02263779527559
 30
0.0
  0
VERTEX
  5
157
330
153
100
AcDbEntity
  8
1
100
AcDbVertex
100
AcDb2dVertex
 10
6.544291338582676
 20
1.994094488188976
 30
0.0
  0
VERTEX
  5
158
330
153
100
AcDbEntity
  8
1
100
AcDbVertex
100
AcDb2dVertex
 10
6.579724409448818
 20
1.96751968503937
 30
0.0
  0
VERTEX
  5
159
330
153
100
AcDbEntity
  8
1
100
AcDbVertex
100
AcDb2dVertex
 10
6.611220472440944
 20
1.944881889763779
 30
0.0
  0
VERTEX
  5
15A
330
153
100
AcDbEntity
  8
1
100
AcDbVertex
100
AcDb2dVertex
 10
6.636811023622047
 20
1.926181102362204
 30
0.0
  0
VERTEX
  5
15B
330
153
100
AcDbEntity
  8
1
100
AcDbVertex
100
AcDb2dVertex
 10
6.656496062992125
 20
1.911417322834645
 30
0.0
  0
VERTEX
  5
15C
330
153
100
AcDbEntity
  8
1
100
AcDbVertex
100
AcDb2dVertex
 10
6.669291338582676
 20
1.90255905511811
 30
0.0
  0
VERTEX
  5
15D
330
153
100
AcDbEntity
  8
1
100
AcDbVertex
100
AcDb2dVertex
 10
6.6751968503937
 20
1.89763779527559
 30
0.0
  0
SEQEND
  5
15E
330
153
100
AcDbEntity
  8
1
  0
LINE
  5
15F
330
1F
100
AcDbEntity
  8
1
100
AcDbLine
 10
6.6751968503937
 20
4.87007874015748
 30
0.0
 11
6.6751968503937
 21
1.89763779527559
 31
0.0
  0
POLYLINE
  5
160
330
1F
100
AcDbEntity
  8
1
100
AcDb2dPolyline
 66
     1
 10
0.0
 20
0.0
 30
0.0
  0
VERTEX
  5
161
330
160
100
AcDbEntity
  8
1
100
AcDbVertex
100
AcDb2dVertex
 10
6.42027559055118
 20
4.683070866141732
 30
0.0
  0
VERTEX
  5
162
330
160
100
AcDbEntity
  8
1
100
AcDbVertex
100
AcDb2dVertex
 10
6.463582677165354
 20
4.714566929133858
 30
0.0
  0
VERTEX
  5
163
330
160
100
AcDbEntity
  8
1
100
AcDbVertex
100
AcDb2dVertex
 10
6.504921259842519
 20
4.74507874015748
 30
0.0
  0
VERTEX
  5
164
330
160
100
AcDbEntity
  8
1
100
AcDbVertex
100
AcDb2dVertex
 10
6.544291338582676
 20
4.773622047244094
 30
0.0
  0
VERTEX
  5
165
330
160
100
AcDbEntity
  8
1
100
AcDbVertex
100
AcDb2dVertex
 10
6.579724409448818
 20
4.8001968503937
 30
0.0
  0
VERTEX
  5
166
330
160
100
AcDbEntity
  8
1
100
AcDbVertex
100
AcDb2dVertex
 10
6.611220472440944
 20
4.822834645669291
 30
0.0
  0
VERTEX
  5
167
330
160
100
AcDbEntity
  8
1
100
AcDbVertex
100
AcDb2dVertex
 10
6.636811023622047
 20
4.841535433070865
 30
0.0
  0
VERTEX
  5
168
330
160
100
AcDbEntity
  8
1
100
AcDbVertex
100
AcDb2dVertex
 10
6.656496062992125
 20
4.856299212598425
 30
0.0
  0
VERTEX
  5
169
330
160
100
AcDbEntity
  8
1
100
AcDbVertex
100
AcDb2dVertex
 10
6.669291338582676
 20
4.86515748031496
 30
0.0
  0
VERTEX
  5
16A
330
160
100
AcDbEntity
  8
1
100
AcDbVertex
100
AcDb2dVertex
 10
6.6751968503937
 20
4.87007874015748
 30
0.0
  0
SEQEND
  5
16B
330
160
100
AcDbEntity
  8
1
  0
LINE
  5
16C
330
1F
100
AcDbEntity
  8
1
100
AcDbLine
 10
6.42027559055118
 20
2.084645669291338
 30
0.0
 11
6.42027559055118
 21
4.683070866141732
 31
0.0
  0
LINE
  5
16D
330
1F
100
AcDbEntity
  8
1
100
AcDbLine
 10
5.818897637795275
 20
3.451771653543306
 30
0.0
 11
5.818897637795275
 21
3.315944881889763
 31
0.0
  0
LINE
  5
16E
330
1F
100
AcDbEntity
  8
1
100
AcDbLine
 10
5.818897637795275
 20
3.451771653543306
 30
0.0
 11
5.816929133858267
 21
3.451771653543306
 31
0.0
  0
LINE
  5
16F
330
1F
100
AcDbEntity
  8
1
100
AcDbLine
 10
5.816929133858267
 20
3.315944881889763
 30
0.0
 11
5.816929133858267
 21
3.451771653543306
 31
0.0
  0
POLYLINE
  5
170
330
1F
100
AcDbEntity
  8
1
100
AcDb2dPolyline
 66
     1
 10
0.0
 20
0.0
 30
0.0
  0
VERTEX
  5
171
330
170
100
AcDbEntity
  8
1
100
AcDbVertex
100
AcDb2dVertex
 10
5.818897637795275
 20
3.451771653543306
 30
0.0
  0
VERTEX
  5
172
330
170
100
AcDbEntity
  8
1
100
AcDbVertex
100
AcDb2dVertex
 10
5.823818897637795
 20
3.492125984251968
 30
0.0
  0
VERTEX
  5
173
330
170
100
AcDbEntity
  8
1
100
AcDbVertex
100
AcDb2dVertex
 10
5.83759842519685
 20
3.530511811023622
 30
0.0
  0
VERTEX
  5
174
330
170
100
AcDbEntity
  8
1
100
AcDbVertex
100
AcDb2dVertex
 10
5.861220472440944
 20
3.564960629921259
 30
0.0
  0
VERTEX
  5
175
330
170
100
AcDbEntity
  8
1
100
AcDbVertex
100
AcDb2dVertex
 10
5.891732283464566
 20
3.591535433070866
 30
0.0
  0
VERTEX
  5
176
330
170
100
AcDbEntity
  8
1
100
AcDbVertex
100
AcDb2dVertex
 10
5.928149606299212
 20
3.61023622047244
 30
0.0
  0
VERTEX
  5
177
330
170
100
AcDbEntity
  8
1
100
AcDbVertex
100
AcDb2dVertex
 10
5.96751968503937
 20
3.62007874015748
 30
0.0
  0
VERTEX
  5
178
330
170
100
AcDbEntity
  8
1
100
AcDbVertex
100
AcDb2dVertex
 10
6.008858267716535
 20
3.62007874015748
 30
0.0
  0
VERTEX
  5
179
330
170
100
AcDbEntity
  8
1
100
AcDbVertex
100
AcDb2dVertex
 10
6.048228346456692
 20
3.61023622047244
 30
0.0
  0
VERTEX
  5
17A
330
170
100
AcDbEntity
  8
1
100
AcDbVertex
100
AcDb2dVertex
 10
6.084645669291338
 20
3.591535433070866
 30
0.0
  0
VERTEX
  5
17B
330
170
100
AcDbEntity
  8
1
100
AcDbVertex
100
AcDb2dVertex
 10
6.11515748031496
 20
3.564960629921259
 30
0.0
  0
VERTEX
  5
17C
330
170
100
AcDbEntity
  8
1
100
AcDbVertex
100
AcDb2dVertex
 10
6.138779527559054
 20
3.530511811023622
 30
0.0
  0
VERTEX
  5
17D
330
170
100
AcDbEntity
  8
1
100
AcDbVertex
100
AcDb2dVertex
 10
6.153543307086613
 20
3.492125984251968
 30
0.0
  0
VERTEX
  5
17E
330
170
100
AcDbEntity
  8
1
100
AcDbVertex
100
AcDb2dVertex
 10
6.158464566929133
 20
3.451771653543306
 30
0.0
  0
SEQEND
  5
17F
330
170
100
AcDbEntity
  8
1
  0
POLYLINE
  5
180
330
1F
100
AcDbEntity
  8
1
100
AcDb2dPolyline
 66
     1
 10
0.0
 20
0.0
 30
0.0
  0
VERTEX
  5
181
330
180
100
AcDbEntity
  8
1
100
AcDbVertex
100
AcDb2dVertex
 10
6.160433070866141
 20
3.451771653543306
 30
0.0
  0
VERTEX
  5
182
330
180
100
AcDbEntity
  8
1
100
AcDbVertex
100
AcDb2dVertex
 10
6.155511811023622
 20
3.493110236220472
 30
0.0
  0
VERTEX
  5
183
330
180
100
AcDbEntity
  8
1
100
AcDbVertex
100
AcDb2dVertex
 10
6.140748031496062
 20
3.531496062992125
 30
0.0
  0
VERTEX
  5
184
330
180
100
AcDbEntity
  8
1
100
AcDbVertex
100
AcDb2dVertex
 10
6.117125984251968
 20
3.565944881889763
 30
0.0
  0
VERTEX
  5
185
330
180
100
AcDbEntity
  8
1
100
AcDbVertex
100
AcDb2dVertex
 10
6.085629921259842
 20
3.593503937007874
 30
0.0
  0
VERTEX
  5
186
330
180
100
AcDbEntity
  8
1
100
AcDbVertex
100
AcDb2dVertex
 10
6.049212598425197
 20
3.612204724409448
 30
0.0
  0
VERTEX
  5
187
330
180
100
AcDbEntity
  8
1
100
AcDbVertex
100
AcDb2dVertex
 10
6.008858267716535
 20
3.622047244094487
 30
0.0
  0
VERTEX
  5
188
330
180
100
AcDbEntity
  8
1
100
AcDbVertex
100
AcDb2dVertex
 10
5.96751968503937
 20
3.622047244094487
 30
0.0
  0
VERTEX
  5
189
330
180
100
AcDbEntity
  8
1
100
AcDbVertex
100
AcDb2dVertex
 10
5.927165354330708
 20
3.612204724409448
 30
0.0
  0
VERTEX
  5
18A
330
180
100
AcDbEntity
  8
1
100
AcDbVertex
100
AcDb2dVertex
 10
5.890748031496062
 20
3.593503937007874
 30
0.0
  0
VERTEX
  5
18B
330
180
100
AcDbEntity
  8
1
100
AcDbVertex
100
AcDb2dVertex
 10
5.859251968503937
 20
3.565944881889763
 30
0.0
  0
VERTEX
  5
18C
330
180
100
AcDbEntity
  8
1
100
AcDbVertex
100
AcDb2dVertex
 10
5.836614173228346
 20
3.531496062992125
 30
0.0
  0
VERTEX
  5
18D
330
180
100
AcDbEntity
  8
1
100
AcDbVertex
100
AcDb2dVertex
 10
5.821850393700787
 20
3.493110236220472
 30
0.0
  0
VERTEX
  5
18E
330
180
100
AcDbEntity
  8
1
100
AcDbVertex
100
AcDb2dVertex
 10
5.816929133858267
 20
3.451771653543306
 30
0.0
  0
SEQEND
  5
18F
330
180
100
AcDbEntity
  8
1
  0
LINE
  5
190
330
1F
100
AcDbEntity
  8
1
100
AcDbLine
 10
5.755905511811023
 20
4.374015748031496
 30
0.0
 11
5.755905511811023
 21
4.372047244094487
 31
0.0
  0
LINE
  5
191
330
1F
100
AcDbEntity
  8
1
100
AcDbLine
 10
5.755905511811023
 20
4.372047244094487
 30
0.0
 11
6.220472440944881
 21
4.372047244094487
 31
0.0
  0
LINE
  5
192
330
1F
100
AcDbEntity
  8
1
100
AcDbLine
 10
6.221456692913386
 20
4.374015748031496
 30
0.0
 11
6.220472440944881
 21
4.372047244094487
 31
0.0
  0
POLYLINE
  5
193
330
1F
100
AcDbEntity
  8
1
100
AcDb2dPolyline
 66
     1
 10
0.0
 20
0.0
 30
0.0
  0
VERTEX
  5
194
330
193
100
AcDbEntity
  8
1
100
AcDbVertex
100
AcDb2dVertex
 10
6.6751968503937
 20
4.87007874015748
 30
0.0
  0
VERTEX
  5
195
330
193
100
AcDbEntity
  8
1
100
AcDbVertex
100
AcDb2dVertex
 10
6.67027559055118
 20
4.895669291338582
 30
0.0
  0
VERTEX
  5
196
330
193
100
AcDbEntity
  8
1
100
AcDbVertex
100
AcDb2dVertex
 10
6.655511811023622
 20
4.917322834645669
 30
0.0
  0
VERTEX
  5
197
330
193
100
AcDbEntity
  8
1
100
AcDbVertex
100
AcDb2dVertex
 10
6.632874015748031
 20
4.932086614173228
 30
0.0
  0
VERTEX
  5
198
330
193
100
AcDbEntity
  8
1
100
AcDbVertex
100
AcDb2dVertex
 10
6.607283464566928
 20
4.937992125984251
 30
0.0
  0
SEQEND
  5
199
330
193
100
AcDbEntity
  8
1
  0
POLYLINE
  5
19A
330
1F
100
AcDbEntity
  8
1
100
AcDb2dPolyline
 66
     1
 10
0.0
 20
0.0
 30
0.0
  0
VERTEX
  5
19B
330
19A
100
AcDbEntity
  8
1
100
AcDbVertex
100
AcDb2dVertex
 10
2.469488188976377
 20
2.324803149606299
 30
0.0
  0
VERTEX
  5
19C
330
19A
100
AcDbEntity
  8
1
100
AcDbVertex
100
AcDb2dVertex
 10
2.487204724409448
 20
2.328740157480314
 30
0.0
  0
VERTEX
  5
19D
330
19A
100
AcDbEntity
  8
1
100
AcDbVertex
100
AcDb2dVertex
 10
2.5
 20
2.342519685039369
 30
0.0
  0
VERTEX
  5
19E
330
19A
100
AcDbEntity
  8
1
100
AcDbVertex
100
AcDb2dVertex
 10
2.504921259842519
 20
2.36023622047244
 30
0.0
  0
SEQEND
  5
19F
330
19A
100
AcDbEntity
  8
1
  0
LINE
  5
1A0
330
1F
100
AcDbEntity
  8
1
100
AcDbLine
 10
2.504921259842519
 20
2.36023622047244
 30
0.0
 11
2.504921259842519
 21
2.393700787401574
 31
0.0
  0
LINE
  5
1A1
330
1F
100
AcDbEntity
  8
1
100
AcDbLine
 10
2.039370078740157
 20
2.394685039370078
 30
0.0
 11
2.039370078740157
 21
2.36023622047244
 31
0.0
  0
POLYLINE
  5
1A2
330
1F
100
AcDbEntity
  8
1
100
AcDb2dPolyline
 66
     1
 10
0.0
 20
0.0
 30
0.0
  0
VERTEX
  5
1A3
330
1A2
100
AcDbEntity
  8
1
100
AcDbVertex
100
AcDb2dVertex
 10
2.039370078740157
 20
2.36023622047244
 30
0.0
  0
VERTEX
  5
1A4
330
1A2
100
AcDbEntity
  8
1
100
AcDbVertex
100
AcDb2dVertex
 10
2.044291338582677
 20
2.342519685039369
 30
0.0
  0
VERTEX
  5
1A5
330
1A2
100
AcDbEntity
  8
1
100
AcDbVertex
100
AcDb2dVertex
 10
2.057086614173228
 20
2.328740157480314
 30
0.0
  0
VERTEX
  5
1A6
330
1A2
100
AcDbEntity
  8
1
100
AcDbVertex
100
AcDb2dVertex
 10
2.074803149606299
 20
2.324803149606299
 30
0.0
  0
SEQEND
  5
1A7
330
1A2
100
AcDbEntity
  8
1
  0
LINE
  5
1A8
330
1F
100
AcDbEntity
  8
1
100
AcDbLine
 10
2.074803149606299
 20
2.324803149606299
 30
0.0
 11
2.469488188976377
 21
2.324803149606299
 31
0.0
  0
LINE
  5
1A9
330
1F
100
AcDbEntity
  8
1
100
AcDbLine
 10
2.040354330708661
 20
2.395669291338582
 30
0.0
 11
2.040354330708661
 21
4.372047244094487
 31
0.0
  0
LINE
  5
1AA
330
1F
100
AcDbEntity
  8
1
100
AcDbLine
 10
2.039370078740157
 20
4.374015748031496
 30
0.0
 11
2.039370078740157
 21
4.407480314960629
 31
0.0
  0
LINE
  5
1AB
330
1F
100
AcDbEntity
  8
1
100
AcDbLine
 10
2.039370078740157
 20
4.410433070866141
 30
0.0
 11
2.039370078740157
 21
4.407480314960629
 31
0.0
  0
LINE
  5
1AC
330
1F
100
AcDbEntity
  8
1
100
AcDbLine
 10
2.039370078740157
 20
2.357283464566929
 30
0.0
 11
2.039370078740157
 21
4.410433070866141
 31
0.0
  0
LINE
  5
1AD
330
1F
100
AcDbEntity
  8
1
100
AcDbLine
 10
2.039370078740157
 20
2.357283464566929
 30
0.0
 11
2.039370078740157
 21
2.36023622047244
 31
0.0
  0
POLYLINE
  5
1AE
330
1F
100
AcDbEntity
  8
1
100
AcDb2dPolyline
 66
     1
 10
0.0
 20
0.0
 30
0.0
  0
VERTEX
  5
1AF
330
1AE
100
AcDbEntity
  8
1
100
AcDbVertex
100
AcDb2dVertex
 10
2.074803149606299
 20
2.321850393700787
 30
0.0
  0
VERTEX
  5
1B0
330
1AE
100
AcDbEntity
  8
1
100
AcDbVertex
100
AcDb2dVertex
 10
2.057086614173228
 20
2.326771653543306
 30
0.0
  0
VERTEX
  5
1B1
330
1AE
100
AcDbEntity
  8
1
100
AcDbVertex
100
AcDb2dVertex
 10
2.043307086614173
 20
2.339566929133858
 30
0.0
  0
VERTEX
  5
1B2
330
1AE
100
AcDbEntity
  8
1
100
AcDbVertex
100
AcDb2dVertex
 10
2.039370078740157
 20
2.357283464566929
 30
0.0
  0
SEQEND
  5
1B3
330
1AE
100
AcDbEntity
  8
1
  0
LINE
  5
1B4
330
1F
100
AcDbEntity
  8
1
100
AcDbLine
 10
2.074803149606299
 20
2.324803149606299
 30
0.0
 11
2.074803149606299
 21
2.321850393700787
 31
0.0
  0
LINE
  5
1B5
330
1F
100
AcDbEntity
  8
1
100
AcDbLine
 10
2.470472440944881
 20
2.321850393700787
 30
0.0
 11
2.074803149606299
 21
2.321850393700787
 31
0.0
  0
LINE
  5
1B6
330
1F
100
AcDbEntity
  8
1
100
AcDbLine
 10
2.470472440944881
 20
2.321850393700787
 30
0.0
 11
2.469488188976377
 21
2.324803149606299
 31
0.0
  0
POLYLINE
  5
1B7
330
1F
100
AcDbEntity
  8
1
100
AcDb2dPolyline
 66
     1
 10
0.0
 20
0.0
 30
0.0
  0
VERTEX
  5
1B8
330
1B7
100
AcDbEntity
  8
1
100
AcDbVertex
100
AcDb2dVertex
 10
2.505905511811023
 20
2.357283464566929
 30
0.0
  0
VERTEX
  5
1B9
330
1B7
100
AcDbEntity
  8
1
100
AcDbVertex
100
AcDb2dVertex
 10
2.500984251968503
 20
2.339566929133858
 30
0.0
  0
VERTEX
  5
1BA
330
1B7
100
AcDbEntity
  8
1
100
AcDbVertex
100
AcDb2dVertex
 10
2.488188976377952
 20
2.326771653543306
 30
0.0
  0
VERTEX
  5
1BB
330
1B7
100
AcDbEntity
  8
1
100
AcDbVertex
100
AcDb2dVertex
 10
2.470472440944881
 20
2.321850393700787
 30
0.0
  0
SEQEND
  5
1BC
330
1B7
100
AcDbEntity
  8
1
  0
LINE
  5
1BD
330
1F
100
AcDbEntity
  8
1
100
AcDbLine
 10
2.504921259842519
 20
2.36023622047244
 30
0.0
 11
2.505905511811023
 21
2.357283464566929
 31
0.0
  0
LINE
  5
1BE
330
1F
100
AcDbEntity
  8
1
100
AcDbLine
 10
2.505905511811023
 20
4.410433070866141
 30
0.0
 11
2.505905511811023
 21
2.357283464566929
 31
0.0
  0
LINE
  5
1BF
330
1F
100
AcDbEntity
  8
1
100
AcDbLine
 10
2.504921259842519
 20
4.407480314960629
 30
0.0
 11
2.505905511811023
 21
4.410433070866141
 31
0.0
  0
LINE
  5
1C0
330
1F
100
AcDbEntity
  8
1
100
AcDbLine
 10
2.504921259842519
 20
4.407480314960629
 30
0.0
 11
2.504921259842519
 21
4.374015748031496
 31
0.0
  0
LINE
  5
1C1
330
1F
100
AcDbEntity
  8
1
100
AcDbLine
 10
2.503937007874015
 20
4.372047244094487
 30
0.0
 11
2.503937007874015
 21
2.395669291338582
 31
0.0
  0
LINE
  5
1C2
330
1F
100
AcDbEntity
  8
1
100
AcDbLine
 10
5.653543307086613
 20
2.623031496062992
 30
0.0
 11
5.653543307086613
 21
4.144685039370078
 31
0.0
  0
POLYLINE
  5
1C3
330
1F
100
AcDbEntity
  8
1
100
AcDb2dPolyline
 66
     1
 10
0.0
 20
0.0
 30
0.0
  0
VERTEX
  5
1C4
330
1C3
100
AcDbEntity
  8
1
100
AcDbVertex
100
AcDb2dVertex
 10
5.653543307086613
 20
2.623031496062992
 30
0.0
  0
VERTEX
  5
1C5
330
1C3
100
AcDbEntity
  8
1
100
AcDbVertex
100
AcDb2dVertex
 10
5.648622047244094
 20
2.596456692913385
 30
0.0
  0
VERTEX
  5
1C6
330
1C3
100
AcDbEntity
  8
1
100
AcDbVertex
100
AcDb2dVertex
 10
5.634842519685038
 20
2.571850393700787
 30
0.0
  0
VERTEX
  5
1C7
330
1C3
100
AcDbEntity
  8
1
100
AcDbVertex
100
AcDb2dVertex
 10
5.612204724409449
 20
2.551181102362204
 30
0.0
  0
VERTEX
  5
1C8
330
1C3
100
AcDbEntity
  8
1
100
AcDbVertex
100
AcDb2dVertex
 10
5.58267716535433
 20
2.535433070866141
 30
0.0
  0
VERTEX
  5
1C9
330
1C3
100
AcDbEntity
  8
1
100
AcDbVertex
100
AcDb2dVertex
 10
5.548228346456692
 20
2.525590551181102
 30
0.0
  0
VERTEX
  5
1CA
330
1C3
100
AcDbEntity
  8
1
100
AcDbVertex
100
AcDb2dVertex
 10
5.511811023622047
 20
2.52263779527559
 30
0.0
  0
SEQEND
  5
1CB
330
1C3
100
AcDbEntity
  8
1
  0
LINE
  5
1CC
330
1F
100
AcDbEntity
  8
1
100
AcDbLine
 10
5.511811023622047
 20
2.52263779527559
 30
0.0
 11
4.438976377952755
 21
2.52263779527559
 31
0.0
  0
POLYLINE
  5
1CD
330
1F
100
AcDbEntity
  8
1
100
AcDb2dPolyline
 66
     1
 10
0.0
 20
0.0
 30
0.0
  0
VERTEX
  5
1CE
330
1CD
100
AcDbEntity
  8
1
100
AcDbVertex
100
AcDb2dVertex
 10
4.438976377952755
 20
2.52263779527559
 30
0.0
  0
VERTEX
  5
1CF
330
1CD
100
AcDbEntity
  8
1
100
AcDbVertex
100
AcDb2dVertex
 10
4.40255905511811
 20
2.525590551181102
 30
0.0
  0
VERTEX
  5
1D0
330
1CD
100
AcDbEntity
  8
1
100
AcDbVertex
100
AcDb2dVertex
 10
4.368110236220472
 20
2.535433070866141
 30
0.0
  0
VERTEX
  5
1D1
330
1CD
100
AcDbEntity
  8
1
100
AcDbVertex
100
AcDb2dVertex
 10
4.338582677165354
 20
2.551181102362204
 30
0.0
  0
VERTEX
  5
1D2
330
1CD
100
AcDbEntity
  8
1
100
AcDbVertex
100
AcDb2dVertex
 10
4.316929133858267
 20
2.571850393700787
 30
0.0
  0
VERTEX
  5
1D3
330
1CD
100
AcDbEntity
  8
1
100
AcDbVertex
100
AcDb2dVertex
 10
4.302165354330708
 20
2.596456692913385
 30
0.0
  0
VERTEX
  5
1D4
330
1CD
100
AcDbEntity
  8
1
100
AcDbVertex
100
AcDb2dVertex
 10
4.298228346456692
 20
2.623031496062992
 30
0.0
  0
SEQEND
  5
1D5
330
1CD
100
AcDbEntity
  8
1
  0
LINE
  5
1D6
330
1F
100
AcDbEntity
  8
1
100
AcDbLine
 10
4.298228346456692
 20
2.623031496062992
 30
0.0
 11
4.298228346456692
 21
4.144685039370078
 31
0.0
  0
POLYLINE
  5
1D7
330
1F
100
AcDbEntity
  8
1
100
AcDb2dPolyline
 66
     1
 10
0.0
 20
0.0
 30
0.0
  0
VERTEX
  5
1D8
330
1D7
100
AcDbEntity
  8
1
100
AcDbVertex
100
AcDb2dVertex
 10
4.298228346456692
 20
4.144685039370078
 30
0.0
  0
VERTEX
  5
1D9
330
1D7
100
AcDbEntity
  8
1
100
AcDbVertex
100
AcDb2dVertex
 10
4.302165354330708
 20
4.171259842519685
 30
0.0
  0
VERTEX
  5
1DA
330
1D7
100
AcDbEntity
  8
1
100
AcDbVertex
100
AcDb2dVertex
 10
4.316929133858267
 20
4.195866141732283
 30
0.0
  0
VERTEX
  5
1DB
330
1D7
100
AcDbEntity
  8
1
100
AcDbVertex
100
AcDb2dVertex
 10
4.338582677165354
 20
4.216535433070865
 30
0.0
  0
VERTEX
  5
1DC
330
1D7
100
AcDbEntity
  8
1
100
AcDbVertex
100
AcDb2dVertex
 10
4.368110236220472
 20
4.232283464566928
 30
0.0
  0
VERTEX
  5
1DD
330
1D7
100
AcDbEntity
  8
1
100
AcDbVertex
100
AcDb2dVertex
 10
4.40255905511811
 20
4.242125984251968
 30
0.0
  0
VERTEX
  5
1DE
330
1D7
100
AcDbEntity
  8
1
100
AcDbVertex
100
AcDb2dVertex
 10
4.438976377952755
 20
4.24507874015748
 30
0.0
  0
SEQEND
  5
1DF
330
1D7
100
AcDbEntity
  8
1
  0
LINE
  5
1E0
330
1F
100
AcDbEntity
  8
1
100
AcDbLine
 10
5.511811023622047
 20
4.24507874015748
 30
0.0
 11
4.438976377952755
 21
4.24507874015748
 31
0.0
  0
POLYLINE
  5
1E1
330
1F
100
AcDbEntity
  8
1
100
AcDb2dPolyline
 66
     1
 10
0.0
 20
0.0
 30
0.0
  0
VERTEX
  5
1E2
330
1E1
100
AcDbEntity
  8
1
100
AcDbVertex
100
AcDb2dVertex
 10
5.511811023622047
 20
4.24507874015748
 30
0.0
  0
VERTEX
  5
1E3
330
1E1
100
AcDbEntity
  8
1
100
AcDbVertex
100
AcDb2dVertex
 10
5.548228346456692
 20
4.242125984251968
 30
0.0
  0
VERTEX
  5
1E4
330
1E1
100
AcDbEntity
  8
1
100
AcDbVertex
100
AcDb2dVertex
 10
5.58267716535433
 20
4.232283464566928
 30
0.0
  0
VERTEX
  5
1E5
330
1E1
100
AcDbEntity
  8
1
100
AcDbVertex
100
AcDb2dVertex
 10
5.612204724409449
 20
4.216535433070865
 30
0.0
  0
VERTEX
  5
1E6
330
1E1
100
AcDbEntity
  8
1
100
AcDbVertex
100
AcDb2dVertex
 10
5.634842519685038
 20
4.195866141732283
 30
0.0
  0
VERTEX
  5
1E7
330
1E1
100
AcDbEntity
  8
1
100
AcDbVertex
100
AcDb2dVertex
 10
5.648622047244094
 20
4.171259842519685
 30
0.0
  0
VERTEX
  5
1E8
330
1E1
100
AcDbEntity
  8
1
100
AcDbVertex
100
AcDb2dVertex
 10
5.653543307086613
 20
4.144685039370078
 30
0.0
  0
SEQEND
  5
1E9
330
1E1
100
AcDbEntity
  8
1
  0
POLYLINE
  5
1EA
330
1F
100
AcDbEntity
  8
1
100
AcDb2dPolyline
 66
     1
 10
0.0
 20
0.0
 30
0.0
  0
VERTEX
  5
1EB
330
1EA
100
AcDbEntity
  8
1
100
AcDbVertex
100
AcDb2dVertex
 10
2.815944881889763
 20
2.52263779527559
 30
0.0
  0
VERTEX
  5
1EC
330
1EA
100
AcDbEntity
  8
1
100
AcDbVertex
100
AcDb2dVertex
 10
2.778543307086614
 20
2.525590551181102
 30
0.0
  0
VERTEX
  5
1ED
330
1EA
100
AcDbEntity
  8
1
100
AcDbVertex
100
AcDb2dVertex
 10
2.744094488188976
 20
2.535433070866141
 30
0.0
  0
VERTEX
  5
1EE
330
1EA
100
AcDbEntity
  8
1
100
AcDbVertex
100
AcDb2dVertex
 10
2.714566929133858
 20
2.551181102362204
 30
0.0
  0
VERTEX
  5
1EF
330
1EA
100
AcDbEntity
  8
1
100
AcDbVertex
100
AcDb2dVertex
 10
2.692913385826771
 20
2.571850393700787
 30
0.0
  0
VERTEX
  5
1F0
330
1EA
100
AcDbEntity
  8
1
100
AcDbVertex
100
AcDb2dVertex
 10
2.679133858267716
 20
2.596456692913385
 30
0.0
  0
VERTEX
  5
1F1
330
1EA
100
AcDbEntity
  8
1
100
AcDbVertex
100
AcDb2dVertex
 10
2.674212598425196
 20
2.623031496062992
 30
0.0
  0
SEQEND
  5
1F2
330
1EA
100
AcDbEntity
  8
1
  0
LINE
  5
1F3
330
1F
100
AcDbEntity
  8
1
100
AcDbLine
 10
2.674212598425196
 20
2.623031496062992
 30
0.0
 11
2.674212598425196
 21
4.144685039370078
 31
0.0
  0
POLYLINE
  5
1F4
330
1F
100
AcDbEntity
  8
1
100
AcDb2dPolyline
 66
     1
 10
0.0
 20
0.0
 30
0.0
  0
VERTEX
  5
1F5
330
1F4
100
AcDbEntity
  8
1
100
AcDbVertex
100
AcDb2dVertex
 10
2.674212598425196
 20
4.144685039370078
 30
0.0
  0
VERTEX
  5
1F6
330
1F4
100
AcDbEntity
  8
1
100
AcDbVertex
100
AcDb2dVertex
 10
2.679133858267716
 20
4.171259842519685
 30
0.0
  0
VERTEX
  5
1F7
330
1F4
100
AcDbEntity
  8
1
100
AcDbVertex
100
AcDb2dVertex
 10
2.692913385826771
 20
4.195866141732283
 30
0.0
  0
VERTEX
  5
1F8
330
1F4
100
AcDbEntity
  8
1
100
AcDbVertex
100
AcDb2dVertex
 10
2.714566929133858
 20
4.216535433070865
 30
0.0
  0
VERTEX
  5
1F9
330
1F4
100
AcDbEntity
  8
1
100
AcDbVertex
100
AcDb2dVertex
 10
2.744094488188976
 20
4.232283464566928
 30
0.0
  0
VERTEX
  5
1FA
330
1F4
100
AcDbEntity
  8
1
100
AcDbVertex
100
AcDb2dVertex
 10
2.778543307086614
 20
4.242125984251968
 30
0.0
  0
VERTEX
  5
1FB
330
1F4
100
AcDbEntity
  8
1
100
AcDbVertex
100
AcDb2dVertex
 10
2.815944881889763
 20
4.24507874015748
 30
0.0
  0
SEQEND
  5
1FC
330
1F4
100
AcDbEntity
  8
1
  0
LINE
  5
1FD
330
1F
100
AcDbEntity
  8
1
100
AcDbLine
 10
3.88779527559055
 20
4.24507874015748
 30
0.0
 11
2.815944881889763
 21
4.24507874015748
 31
0.0
  0
POLYLINE
  5
1FE
330
1F
100
AcDbEntity
  8
1
100
AcDb2dPolyline
 66
     1
 10
0.0
 20
0.0
 30
0.0
  0
VERTEX
  5
1FF
330
1FE
100
AcDbEntity
  8
1
100
AcDbVertex
100
AcDb2dVertex
 10
3.88779527559055
 20
4.24507874015748
 30
0.0
  0
VERTEX
  5
200
330
1FE
100
AcDbEntity
  8
1
100
AcDbVertex
100
AcDb2dVertex
 10
3.9251968503937
 20
4.242125984251968
 30
0.0
  0
VERTEX
  5
201
330
1FE
100
AcDbEntity
  8
1
100
AcDbVertex
100
AcDb2dVertex
 10
3.958661417322834
 20
4.232283464566928
 30
0.0
  0
VERTEX
  5
202
330
1FE
100
AcDbEntity
  8
1
100
AcDbVertex
100
AcDb2dVertex
 10
3.988188976377952
 20
4.216535433070865
 30
0.0
  0
VERTEX
  5
203
330
1FE
100
AcDbEntity
  8
1
100
AcDbVertex
100
AcDb2dVertex
 10
4.010826771653543
 20
4.195866141732283
 30
0.0
  0
VERTEX
  5
204
330
1FE
100
AcDbEntity
  8
1
100
AcDbVertex
100
AcDb2dVertex
 10
4.024606299212598
 20
4.171259842519685
 30
0.0
  0
VERTEX
  5
205
330
1FE
100
AcDbEntity
  8
1
100
AcDbVertex
100
AcDb2dVertex
 10
4.029527559055117
 20
4.144685039370078
 30
0.0
  0
SEQEND
  5
206
330
1FE
100
AcDbEntity
  8
1
  0
LINE
  5
207
330
1F
100
AcDbEntity
  8
1
100
AcDbLine
 10
4.029527559055117
 20
2.623031496062992
 30
0.0
 11
4.029527559055117
 21
4.144685039370078
 31
0.0
  0
POLYLINE
  5
208
330
1F
100
AcDbEntity
  8
1
100
AcDb2dPolyline
 66
     1
 10
0.0
 20
0.0
 30
0.0
  0
VERTEX
  5
209
330
208
100
AcDbEntity
  8
1
100
AcDbVertex
100
AcDb2dVertex
 10
4.029527559055117
 20
2.623031496062992
 30
0.0
  0
VERTEX
  5
20A
330
208
100
AcDbEntity
  8
1
100
AcDbVertex
100
AcDb2dVertex
 10
4.024606299212598
 20
2.596456692913385
 30
0.0
  0
VERTEX
  5
20B
330
208
100
AcDbEntity
  8
1
100
AcDbVertex
100
AcDb2dVertex
 10
4.010826771653543
 20
2.571850393700787
 30
0.0
  0
VERTEX
  5
20C
330
208
100
AcDbEntity
  8
1
100
AcDbVertex
100
AcDb2dVertex
 10
3.988188976377952
 20
2.551181102362204
 30
0.0
  0
VERTEX
  5
20D
330
208
100
AcDbEntity
  8
1
100
AcDbVertex
100
AcDb2dVertex
 10
3.958661417322834
 20
2.535433070866141
 30
0.0
  0
VERTEX
  5
20E
330
208
100
AcDbEntity
  8
1
100
AcDbVertex
100
AcDb2dVertex
 10
3.9251968503937
 20
2.525590551181102
 30
0.0
  0
VERTEX
  5
20F
330
208
100
AcDbEntity
  8
1
100
AcDbVertex
100
AcDb2dVertex
 10
3.88779527559055
 20
2.52263779527559
 30
0.0
  0
SEQEND
  5
210
330
208
100
AcDbEntity
  8
1
  0
LINE
  5
211
330
1F
100
AcDbEntity
  8
1
100
AcDbLine
 10
3.88779527559055
 20
2.52263779527559
 30
0.0
 11
2.815944881889763
 21
2.52263779527559
 31
0.0
  0
POLYLINE
  5
212
330
1F
100
AcDbEntity
  8
1
100
AcDb2dPolyline
 66
     1
 10
0.0
 20
0.0
 30
0.0
  0
VERTEX
  5
213
330
212
100
AcDbEntity
  8
1
100
AcDbVertex
100
AcDb2dVertex
 10
2.074803149606299
 20
4.445866141732283
 30
0.0
  0
VERTEX
  5
214
330
212
100
AcDbEntity
  8
1
100
AcDbVertex
100
AcDb2dVertex
 10
2.057086614173228
 20
4.440944881889763
 30
0.0
  0
VERTEX
  5
215
330
212
100
AcDbEntity
  8
1
100
AcDbVertex
100
AcDb2dVertex
 10
2.043307086614173
 20
4.428149606299212
 30
0.0
  0
VERTEX
  5
216
330
212
100
AcDbEntity
  8
1
100
AcDbVertex
100
AcDb2dVertex
 10
2.039370078740157
 20
4.410433070866141
 30
0.0
  0
SEQEND
  5
217
330
212
100
AcDbEntity
  8
1
  0
LINE
  5
218
330
1F
100
AcDbEntity
  8
1
100
AcDbLine
 10
2.470472440944881
 20
4.445866141732283
 30
0.0
 11
2.074803149606299
 21
4.445866141732283
 31
0.0
  0
POLYLINE
  5
219
330
1F
100
AcDbEntity
  8
1
100
AcDb2dPolyline
 66
     1
 10
0.0
 20
0.0
 30
0.0
  0
VERTEX
  5
21A
330
219
100
AcDbEntity
  8
1
100
AcDbVertex
100
AcDb2dVertex
 10
2.505905511811023
 20
4.410433070866141
 30
0.0
  0
VERTEX
  5
21B
330
219
100
AcDbEntity
  8
1
100
AcDbVertex
100
AcDb2dVertex
 10
2.500984251968503
 20
4.428149606299212
 30
0.0
  0
VERTEX
  5
21C
330
219
100
AcDbEntity
  8
1
100
AcDbVertex
100
AcDb2dVertex
 10
2.488188976377952
 20
4.440944881889763
 30
0.0
  0
VERTEX
  5
21D
330
219
100
AcDbEntity
  8
1
100
AcDbVertex
100
AcDb2dVertex
 10
2.470472440944881
 20
4.445866141732283
 30
0.0
  0
SEQEND
  5
21E
330
219
100
AcDbEntity
  8
1
  0
POLYLINE
  5
21F
330
1F
100
AcDbEntity
  8
1
100
AcDb2dPolyline
 66
     1
 10
0.0
 20
0.0
 30
0.0
  0
VERTEX
  5
220
330
21F
100
AcDbEntity
  8
1
100
AcDbVertex
100
AcDb2dVertex
 10
6.186023622047244
 20
4.445866141732283
 30
0.0
  0
VERTEX
  5
221
330
21F
100
AcDbEntity
  8
1
100
AcDbVertex
100
AcDb2dVertex
 10
6.203740157480314
 20
4.440944881889763
 30
0.0
  0
VERTEX
  5
222
330
21F
100
AcDbEntity
  8
1
100
AcDbVertex
100
AcDb2dVertex
 10
6.216535433070865
 20
4.428149606299212
 30
0.0
  0
VERTEX
  5
223
330
21F
100
AcDbEntity
  8
1
100
AcDbVertex
100
AcDb2dVertex
 10
6.221456692913386
 20
4.410433070866141
 30
0.0
  0
SEQEND
  5
224
330
21F
100
AcDbEntity
  8
1
  0
LINE
  5
225
330
1F
100
AcDbEntity
  8
1
100
AcDbLine
 10
6.221456692913386
 20
2.357283464566929
 30
0.0
 11
6.221456692913386
 21
4.410433070866141
 31
0.0
  0
POLYLINE
  5
226
330
1F
100
AcDbEntity
  8
1
100
AcDb2dPolyline
 66
     1
 10
0.0
 20
0.0
 30
0.0
  0
VERTEX
  5
227
330
226
100
AcDbEntity
  8
1
100
AcDbVertex
100
AcDb2dVertex
 10
6.186023622047244
 20
2.321850393700787
 30
0.0
  0
VERTEX
  5
228
330
226
100
AcDbEntity
  8
1
100
AcDbVertex
100
AcDb2dVertex
 10
6.203740157480314
 20
2.326771653543306
 30
0.0
  0
VERTEX
  5
229
330
226
100
AcDbEntity
  8
1
100
AcDbVertex
100
AcDb2dVertex
 10
6.216535433070865
 20
2.339566929133858
 30
0.0
  0
VERTEX
  5
22A
330
226
100
AcDbEntity
  8
1
100
AcDbVertex
100
AcDb2dVertex
 10
6.221456692913386
 20
2.357283464566929
 30
0.0
  0
SEQEND
  5
22B
330
226
100
AcDbEntity
  8
1
  0
LINE
  5
22C
330
1F
100
AcDbEntity
  8
1
100
AcDbLine
 10
5.790354330708661
 20
2.321850393700787
 30
0.0
 11
6.186023622047244
 21
2.321850393700787
 31
0.0
  0
POLYLINE
  5
22D
330
1F
100
AcDbEntity
  8
1
100
AcDb2dPolyline
 66
     1
 10
0.0
 20
0.0
 30
0.0
  0
VERTEX
  5
22E
330
22D
100
AcDbEntity
  8
1
100
AcDbVertex
100
AcDb2dVertex
 10
5.754921259842519
 20
2.357283464566929
 30
0.0
  0
VERTEX
  5
22F
330
22D
100
AcDbEntity
  8
1
100
AcDbVertex
100
AcDb2dVertex
 10
5.759842519685038
 20
2.339566929133858
 30
0.0
  0
VERTEX
  5
230
330
22D
100
AcDbEntity
  8
1
100
AcDbVertex
100
AcDb2dVertex
 10
5.77263779527559
 20
2.326771653543306
 30
0.0
  0
VERTEX
  5
231
330
22D
100
AcDbEntity
  8
1
100
AcDbVertex
100
AcDb2dVertex
 10
5.790354330708661
 20
2.321850393700787
 30
0.0
  0
SEQEND
  5
232
330
22D
100
AcDbEntity
  8
1
  0
LINE
  5
233
330
1F
100
AcDbEntity
  8
1
100
AcDbLine
 10
5.754921259842519
 20
4.410433070866141
 30
0.0
 11
5.754921259842519
 21
2.357283464566929
 31
0.0
  0
POLYLINE
  5
234
330
1F
100
AcDbEntity
  8
1
100
AcDb2dPolyline
 66
     1
 10
0.0
 20
0.0
 30
0.0
  0
VERTEX
  5
235
330
234
100
AcDbEntity
  8
1
100
AcDbVertex
100
AcDb2dVertex
 10
5.754921259842519
 20
4.410433070866141
 30
0.0
  0
VERTEX
  5
236
330
234
100
AcDbEntity
  8
1
100
AcDbVertex
100
AcDb2dVertex
 10
5.759842519685038
 20
4.428149606299212
 30
0.0
  0
VERTEX
  5
237
330
234
100
AcDbEntity
  8
1
100
AcDbVertex
100
AcDb2dVertex
 10
5.77263779527559
 20
4.440944881889763
 30
0.0
  0
VERTEX
  5
238
330
234
100
AcDbEntity
  8
1
100
AcDbVertex
100
AcDb2dVertex
 10
5.790354330708661
 20
4.445866141732283
 30
0.0
  0
SEQEND
  5
239
330
234
100
AcDbEntity
  8
1
  0
LINE
  5
23A
330
1F
100
AcDbEntity
  8
1
100
AcDbLine
 10
5.790354330708661
 20
4.445866141732283
 30
0.0
 11
6.186023622047244
 21
4.445866141732283
 31
0.0
  0
LINE
  5
23B
330
1F
100
AcDbEntity
  8
1
100
AcDbLine
 10
3.987204724409448
 20
4.084645669291338
 30
0.0
 11
3.987204724409448
 21
3.4251968503937
 31
0.0
  0
POLYLINE
  5
23C
330
1F
100
AcDbEntity
  8
1
100
AcDb2dPolyline
 66
     1
 10
0.0
 20
0.0
 30
0.0
  0
VERTEX
  5
23D
330
23C
100
AcDbEntity
  8
1
100
AcDbVertex
100
AcDb2dVertex
 10
3.426181102362204
 20
4.103346456692912
 30
0.0
  0
VERTEX
  5
23E
330
23C
100
AcDbEntity
  8
1
100
AcDbVertex
100
AcDb2dVertex
 10
3.399606299212598
 20
4.103346456692912
 30
0.0
  0
VERTEX
  5
23F
330
23C
100
AcDbEntity
  8
1
100
AcDbVertex
100
AcDb2dVertex
 10
3.368110236220472
 20
4.103346456692912
 30
0.0
  0
VERTEX
  5
240
330
23C
100
AcDbEntity
  8
1
100
AcDbVertex
100
AcDb2dVertex
 10
3.334645669291338
 20
4.103346456692912
 30
0.0
  0
VERTEX
  5
241
330
23C
100
AcDbEntity
  8
1
100
AcDbVertex
100
AcDb2dVertex
 10
3.304133858267716
 20
4.103346456692912
 30
0.0
  0
VERTEX
  5
242
330
23C
100
AcDbEntity
  8
1
100
AcDbVertex
100
AcDb2dVertex
 10
3.27755905511811
 20
4.103346456692912
 30
0.0
  0
SEQEND
  5
243
330
23C
100
AcDbEntity
  8
1
  0
POLYLINE
  5
244
330
1F
100
AcDbEntity
  8
1
100
AcDb2dPolyline
 66
     1
 10
0.0
 20
0.0
 30
0.0
  0
VERTEX
  5
245
330
244
100
AcDbEntity
  8
1
100
AcDbVertex
100
AcDb2dVertex
 10
3.426181102362204
 20
4.103346456692912
 30
0.0
  0
VERTEX
  5
246
330
244
100
AcDbEntity
  8
1
100
AcDbVertex
100
AcDb2dVertex
 10
3.421259842519685
 20
4.134842519685038
 30
0.0
  0
VERTEX
  5
247
330
244
100
AcDbEntity
  8
1
100
AcDbVertex
100
AcDb2dVertex
 10
3.410433070866141
 20
4.163385826771653
 30
0.0
  0
VERTEX
  5
248
330
244
100
AcDbEntity
  8
1
100
AcDbVertex
100
AcDb2dVertex
 10
3.394685039370078
 20
4.186023622047244
 30
0.0
  0
VERTEX
  5
249
330
244
100
AcDbEntity
  8
1
100
AcDbVertex
100
AcDb2dVertex
 10
3.374015748031495
 20
4.201771653543307
 30
0.0
  0
VERTEX
  5
24A
330
244
100
AcDbEntity
  8
1
100
AcDbVertex
100
AcDb2dVertex
 10
3.351377952755905
 20
4.20767716535433
 30
0.0
  0
SEQEND
  5
24B
330
244
100
AcDbEntity
  8
1
  0
POLYLINE
  5
24C
330
1F
100
AcDbEntity
  8
1
100
AcDb2dPolyline
 66
     1
 10
0.0
 20
0.0
 30
0.0
  0
VERTEX
  5
24D
330
24C
100
AcDbEntity
  8
1
100
AcDbVertex
100
AcDb2dVertex
 10
3.27755905511811
 20
4.103346456692912
 30
0.0
  0
VERTEX
  5
24E
330
24C
100
AcDbEntity
  8
1
100
AcDbVertex
100
AcDb2dVertex
 10
3.281496062992125
 20
4.134842519685038
 30
0.0
  0
VERTEX
  5
24F
330
24C
100
AcDbEntity
  8
1
100
AcDbVertex
100
AcDb2dVertex
 10
3.292322834645669
 20
4.163385826771653
 30
0.0
  0
VERTEX
  5
250
330
24C
100
AcDbEntity
  8
1
100
AcDbVertex
100
AcDb2dVertex
 10
3.309055118110236
 20
4.186023622047244
 30
0.0
  0
VERTEX
  5
251
330
24C
100
AcDbEntity
  8
1
100
AcDbVertex
100
AcDb2dVertex
 10
3.329724409448818
 20
4.201771653543307
 30
0.0
  0
VERTEX
  5
252
330
24C
100
AcDbEntity
  8
1
100
AcDbVertex
100
AcDb2dVertex
 10
3.351377952755905
 20
4.20767716535433
 30
0.0
  0
SEQEND
  5
253
330
24C
100
AcDbEntity
  8
1
  0
LINE
  5
254
330
1F
100
AcDbEntity
  8
1
100
AcDbLine
 10
3.49015748031496
 20
3.4251968503937
 30
0.0
 11
3.49015748031496
 21
4.084645669291338
 31
0.0
  0
LINE
  5
255
330
1F
100
AcDbEntity
  8
1
100
AcDbLine
 10
4.008858267716535
 20
3.4251968503937
 30
0.0
 11
4.008858267716535
 21
4.084645669291338
 31
0.0
  0
LINE
  5
256
330
1F
100
AcDbEntity
  8
1
100
AcDbLine
 10
4.900590551181101
 20
4.103346456692912
 30
0.0
 11
4.298228346456692
 21
4.144685039370078
 31
0.0
  0
POLYLINE
  5
257
330
1F
100
AcDbEntity
  8
1
100
AcDb2dPolyline
 66
     1
 10
0.0
 20
0.0
 30
0.0
  0
VERTEX
  5
258
330
257
100
AcDbEntity
  8
1
100
AcDbVertex
100
AcDb2dVertex
 10
4.900590551181101
 20
4.103346456692912
 30
0.0
  0
VERTEX
  5
259
330
257
100
AcDbEntity
  8
1
100
AcDbVertex
100
AcDb2dVertex
 10
4.905511811023622
 20
4.134842519685038
 30
0.0
  0
VERTEX
  5
25A
330
257
100
AcDbEntity
  8
1
100
AcDbVertex
100
AcDb2dVertex
 10
4.916338582677165
 20
4.163385826771653
 30
0.0
  0
VERTEX
  5
25B
330
257
100
AcDbEntity
  8
1
100
AcDbVertex
100
AcDb2dVertex
 10
4.933070866141732
 20
4.186023622047244
 30
0.0
  0
VERTEX
  5
25C
330
257
100
AcDbEntity
  8
1
100
AcDbVertex
100
AcDb2dVertex
 10
4.952755905511811
 20
4.201771653543307
 30
0.0
  0
VERTEX
  5
25D
330
257
100
AcDbEntity
  8
1
100
AcDbVertex
100
AcDb2dVertex
 10
4.975393700787401
 20
4.20767716535433
 30
0.0
  0
SEQEND
  5
25E
330
257
100
AcDbEntity
  8
1
  0
LINE
  5
25F
330
1F
100
AcDbEntity
  8
1
100
AcDbLine
 10
4.438976377952755
 20
4.24507874015748
 30
0.0
 11
4.975393700787401
 21
4.20767716535433
 31
0.0
  0
LINE
  5
260
330
1F
100
AcDbEntity
  8
1
100
AcDbLine
 10
4.029527559055117
 20
4.144685039370078
 30
0.0
 11
3.426181102362204
 21
4.103346456692912
 31
0.0
  0
LINE
  5
261
330
1F
100
AcDbEntity
  8
1
100
AcDbLine
 10
3.351377952755905
 20
4.20767716535433
 30
0.0
 11
3.88779527559055
 21
4.24507874015748
 31
0.0
  0
LINE
  5
262
330
1F
100
AcDbEntity
  8
1
100
AcDbLine
 10
2.815944881889763
 20
4.24507874015748
 30
0.0
 11
3.351377952755905
 21
4.20767716535433
 31
0.0
  0
LINE
  5
263
330
1F
100
AcDbEntity
  8
1
100
AcDbLine
 10
3.27755905511811
 20
4.103346456692912
 30
0.0
 11
2.674212598425196
 21
4.144685039370078
 31
0.0
  0
LINE
  5
264
330
1F
100
AcDbEntity
  8
1
100
AcDbLine
 10
5.114173228346456
 20
3.4251968503937
 30
0.0
 11
5.114173228346456
 21
4.084645669291338
 31
0.0
  0
POLYLINE
  5
265
330
1F
100
AcDbEntity
  8
1
100
AcDb2dPolyline
 66
     1
 10
0.0
 20
0.0
 30
0.0
  0
VERTEX
  5
266
330
265
100
AcDbEntity
  8
1
100
AcDbVertex
100
AcDb2dVertex
 10
5.0501968503937
 20
4.103346456692912
 30
0.0
  0
VERTEX
  5
267
330
265
100
AcDbEntity
  8
1
100
AcDbVertex
100
AcDb2dVertex
 10
5.023622047244094
 20
4.103346456692912
 30
0.0
  0
VERTEX
  5
268
330
265
100
AcDbEntity
  8
1
100
AcDbVertex
100
AcDb2dVertex
 10
4.992125984251968
 20
4.103346456692912
 30
0.0
  0
VERTEX
  5
269
330
265
100
AcDbEntity
  8
1
100
AcDbVertex
100
AcDb2dVertex
 10
4.958661417322834
 20
4.103346456692912
 30
0.0
  0
VERTEX
  5
26A
330
265
100
AcDbEntity
  8
1
100
AcDbVertex
100
AcDb2dVertex
 10
4.927165354330708
 20
4.103346456692912
 30
0.0
  0
VERTEX
  5
26B
330
265
100
AcDbEntity
  8
1
100
AcDbVertex
100
AcDb2dVertex
 10
4.900590551181101
 20
4.103346456692912
 30
0.0
  0
SEQEND
  5
26C
330
265
100
AcDbEntity
  8
1
  0
POLYLINE
  5
26D
330
1F
100
AcDbEntity
  8
1
100
AcDb2dPolyline
 66
     1
 10
0.0
 20
0.0
 30
0.0
  0
VERTEX
  5
26E
330
26D
100
AcDbEntity
  8
1
100
AcDbVertex
100
AcDb2dVertex
 10
5.0501968503937
 20
4.103346456692912
 30
0.0
  0
VERTEX
  5
26F
330
26D
100
AcDbEntity
  8
1
100
AcDbVertex
100
AcDb2dVertex
 10
5.045275590551181
 20
4.134842519685038
 30
0.0
  0
VERTEX
  5
270
330
26D
100
AcDbEntity
  8
1
100
AcDbVertex
100
AcDb2dVertex
 10
5.034448818897637
 20
4.163385826771653
 30
0.0
  0
VERTEX
  5
271
330
26D
100
AcDbEntity
  8
1
100
AcDbVertex
100
AcDb2dVertex
 10
5.01771653543307
 20
4.186023622047244
 30
0.0
  0
VERTEX
  5
272
330
26D
100
AcDbEntity
  8
1
100
AcDbVertex
100
AcDb2dVertex
 10
4.998031496062991
 20
4.201771653543307
 30
0.0
  0
VERTEX
  5
273
330
26D
100
AcDbEntity
  8
1
100
AcDbVertex
100
AcDb2dVertex
 10
4.975393700787401
 20
4.20767716535433
 30
0.0
  0
SEQEND
  5
274
330
26D
100
AcDbEntity
  8
1
  0
LINE
  5
275
330
1F
100
AcDbEntity
  8
1
100
AcDbLine
 10
4.975393700787401
 20
4.20767716535433
 30
0.0
 11
5.511811023622047
 21
4.24507874015748
 31
0.0
  0
LINE
  5
276
330
1F
100
AcDbEntity
  8
1
100
AcDbLine
 10
2.674212598425196
 20
2.623031496062992
 30
0.0
 11
3.27755905511811
 21
2.664370078740157
 31
0.0
  0
LINE
  5
277
330
1F
100
AcDbEntity
  8
1
100
AcDbLine
 10
3.27755905511811
 20
2.664370078740157
 30
0.0
 11
3.27755905511811
 21
4.103346456692912
 31
0.0
  0
POLYLINE
  5
278
330
1F
100
AcDbEntity
  8
1
100
AcDb2dPolyline
 66
     1
 10
0.0
 20
0.0
 30
0.0
  0
VERTEX
  5
279
330
278
100
AcDbEntity
  8
1
100
AcDbVertex
100
AcDb2dVertex
 10
3.27755905511811
 20
2.664370078740157
 30
0.0
  0
VERTEX
  5
27A
330
278
100
AcDbEntity
  8
1
100
AcDbVertex
100
AcDb2dVertex
 10
3.304133858267716
 20
2.664370078740157
 30
0.0
  0
VERTEX
  5
27B
330
278
100
AcDbEntity
  8
1
100
AcDbVertex
100
AcDb2dVertex
 10
3.334645669291338
 20
2.664370078740157
 30
0.0
  0
VERTEX
  5
27C
330
278
100
AcDbEntity
  8
1
100
AcDbVertex
100
AcDb2dVertex
 10
3.368110236220472
 20
2.664370078740157
 30
0.0
  0
VERTEX
  5
27D
330
278
100
AcDbEntity
  8
1
100
AcDbVertex
100
AcDb2dVertex
 10
3.399606299212598
 20
2.664370078740157
 30
0.0
  0
VERTEX
  5
27E
330
278
100
AcDbEntity
  8
1
100
AcDbVertex
100
AcDb2dVertex
 10
3.426181102362204
 20
2.664370078740157
 30
0.0
  0
SEQEND
  5
27F
330
278
100
AcDbEntity
  8
1
  0
LINE
  5
280
330
1F
100
AcDbEntity
  8
1
100
AcDbLine
 10
3.426181102362204
 20
4.103346456692912
 30
0.0
 11
3.426181102362204
 21
2.664370078740157
 31
0.0
  0
LINE
  5
281
330
1F
100
AcDbEntity
  8
1
100
AcDbLine
 10
3.426181102362204
 20
2.664370078740157
 30
0.0
 11
4.029527559055117
 21
2.623031496062992
 31
0.0
  0
LINE
  5
282
330
1F
100
AcDbEntity
  8
1
100
AcDbLine
 10
4.008858267716535
 20
2.683070866141732
 30
0.0
 11
4.008858267716535
 21
3.342519685039369
 31
0.0
  0
LINE
  5
283
330
1F
100
AcDbEntity
  8
1
100
AcDbLine
 10
3.49015748031496
 20
2.683070866141732
 30
0.0
 11
3.49015748031496
 21
3.342519685039369
 31
0.0
  0
LINE
  5
284
330
1F
100
AcDbEntity
  8
1
100
AcDbLine
 10
4.298228346456692
 20
2.623031496062992
 30
0.0
 11
4.900590551181101
 21
2.664370078740157
 31
0.0
  0
LINE
  5
285
330
1F
100
AcDbEntity
  8
1
100
AcDbLine
 10
4.900590551181101
 20
2.664370078740157
 30
0.0
 11
4.900590551181101
 21
4.103346456692912
 31
0.0
  0
POLYLINE
  5
286
330
1F
100
AcDbEntity
  8
1
100
AcDb2dPolyline
 66
     1
 10
0.0
 20
0.0
 30
0.0
  0
VERTEX
  5
287
330
286
100
AcDbEntity
  8
1
100
AcDbVertex
100
AcDb2dVertex
 10
4.900590551181101
 20
2.664370078740157
 30
0.0
  0
VERTEX
  5
288
330
286
100
AcDbEntity
  8
1
100
AcDbVertex
100
AcDb2dVertex
 10
4.927165354330708
 20
2.664370078740157
 30
0.0
  0
VERTEX
  5
289
330
286
100
AcDbEntity
  8
1
100
AcDbVertex
100
AcDb2dVertex
 10
4.958661417322834
 20
2.664370078740157
 30
0.0
  0
VERTEX
  5
28A
330
286
100
AcDbEntity
  8
1
100
AcDbVertex
100
AcDb2dVertex
 10
4.992125984251968
 20
2.664370078740157
 30
0.0
  0
VERTEX
  5
28B
330
286
100
AcDbEntity
  8
1
100
AcDbVertex
100
AcDb2dVertex
 10
5.023622047244094
 20
2.664370078740157
 30
0.0
  0
VERTEX
  5
28C
330
286
100
AcDbEntity
  8
1
100
AcDbVertex
100
AcDb2dVertex
 10
5.0501968503937
 20
2.664370078740157
 30
0.0
  0
SEQEND
  5
28D
330
286
100
AcDbEntity
  8
1
  0
LINE
  5
28E
330
1F
100
AcDbEntity
  8
1
100
AcDbLine
 10
5.0501968503937
 20
4.103346456692912
 30
0.0
 11
5.0501968503937
 21
2.664370078740157
 31
0.0
  0
LINE
  5
28F
330
1F
100
AcDbEntity
  8
1
100
AcDbLine
 10
5.653543307086613
 20
4.144685039370078
 30
0.0
 11
5.0501968503937
 21
4.103346456692912
 31
0.0
  0
LINE
  5
290
330
1F
100
AcDbEntity
  8
1
100
AcDbLine
 10
5.631889763779527
 20
4.084645669291338
 30
0.0
 11
5.631889763779527
 21
3.4251968503937
 31
0.0
  0
LINE
  5
291
330
1F
100
AcDbEntity
  8
1
100
AcDbLine
 10
5.0501968503937
 20
2.664370078740157
 30
0.0
 11
5.653543307086613
 21
2.623031496062992
 31
0.0
  0
LINE
  5
292
330
1F
100
AcDbEntity
  8
1
100
AcDbLine
 10
5.631889763779527
 20
2.683070866141732
 30
0.0
 11
5.631889763779527
 21
3.342519685039369
 31
0.0
  0
LINE
  5
293
330
1F
100
AcDbEntity
  8
1
100
AcDbLine
 10
5.114173228346456
 20
2.683070866141732
 30
0.0
 11
5.114173228346456
 21
3.342519685039369
 31
0.0
  0
POLYLINE
  5
294
330
1F
100
AcDbEntity
  8
1
100
AcDb2dPolyline
 66
     1
 10
0.0
 20
0.0
 30
0.0
  0
VERTEX
  5
295
330
294
100
AcDbEntity
  8
1
100
AcDbVertex
100
AcDb2dVertex
 10
2.469488188976377
 20
4.442913385826771
 30
0.0
  0
VERTEX
  5
296
330
294
100
AcDbEntity
  8
1
100
AcDbVertex
100
AcDb2dVertex
 10
2.487204724409448
 20
4.438976377952755
 30
0.0
  0
VERTEX
  5
297
330
294
100
AcDbEntity
  8
1
100
AcDbVertex
100
AcDb2dVertex
 10
2.5
 20
4.4251968503937
 30
0.0
  0
VERTEX
  5
298
330
294
100
AcDbEntity
  8
1
100
AcDbVertex
100
AcDb2dVertex
 10
2.504921259842519
 20
4.407480314960629
 30
0.0
  0
SEQEND
  5
299
330
294
100
AcDbEntity
  8
1
  0
LINE
  5
29A
330
1F
100
AcDbEntity
  8
1
100
AcDbLine
 10
2.074803149606299
 20
4.442913385826771
 30
0.0
 11
2.469488188976377
 21
4.442913385826771
 31
0.0
  0
POLYLINE
  5
29B
330
1F
100
AcDbEntity
  8
1
100
AcDb2dPolyline
 66
     1
 10
0.0
 20
0.0
 30
0.0
  0
VERTEX
  5
29C
330
29B
100
AcDbEntity
  8
1
100
AcDbVertex
100
AcDb2dVertex
 10
2.039370078740157
 20
4.407480314960629
 30
0.0
  0
VERTEX
  5
29D
330
29B
100
AcDbEntity
  8
1
100
AcDbVertex
100
AcDb2dVertex
 10
2.044291338582677
 20
4.4251968503937
 30
0.0
  0
VERTEX
  5
29E
330
29B
100
AcDbEntity
  8
1
100
AcDbVertex
100
AcDb2dVertex
 10
2.057086614173228
 20
4.438976377952755
 30
0.0
  0
VERTEX
  5
29F
330
29B
100
AcDbEntity
  8
1
100
AcDbVertex
100
AcDb2dVertex
 10
2.074803149606299
 20
4.442913385826771
 30
0.0
  0
SEQEND
  5
2A0
330
29B
100
AcDbEntity
  8
1
  0
LINE
  5
2A1
330
1F
100
AcDbEntity
  8
1
100
AcDbLine
 10
2.074803149606299
 20
4.442913385826771
 30
0.0
 11
2.074803149606299
 21
4.445866141732283
 31
0.0
  0
LINE
  5
2A2
330
1F
100
AcDbEntity
  8
1
100
AcDbLine
 10
2.470472440944881
 20
4.445866141732283
 30
0.0
 11
2.469488188976377
 21
4.442913385826771
 31
0.0
  0
LINE
  5
2A3
330
1F
100
AcDbEntity
  8
1
100
AcDbLine
 10
3.987204724409448
 20
3.342519685039369
 30
0.0
 11
3.987204724409448
 21
2.683070866141732
 31
0.0
  0
LINE
  5
2A4
330
1F
100
AcDbEntity
  8
1
100
AcDbLine
 10
3.88779527559055
 20
2.52263779527559
 30
0.0
 11
3.351377952755905
 21
2.56003937007874
 31
0.0
  0
LINE
  5
2A5
330
1F
100
AcDbEntity
  8
1
100
AcDbLine
 10
3.351377952755905
 20
2.56003937007874
 30
0.0
 11
2.815944881889763
 21
2.52263779527559
 31
0.0
  0
LINE
  5
2A6
330
1F
100
AcDbEntity
  8
1
100
AcDbLine
 10
5.511811023622047
 20
2.52263779527559
 30
0.0
 11
4.975393700787401
 21
2.56003937007874
 31
0.0
  0
LINE
  5
2A7
330
1F
100
AcDbEntity
  8
1
100
AcDbLine
 10
4.975393700787401
 20
2.56003937007874
 30
0.0
 11
4.438976377952755
 21
2.52263779527559
 31
0.0
  0
POLYLINE
  5
2A8
330
1F
100
AcDbEntity
  8
1
100
AcDb2dPolyline
 66
     1
 10
0.0
 20
0.0
 30
0.0
  0
VERTEX
  5
2A9
330
2A8
100
AcDbEntity
  8
1
100
AcDbVertex
100
AcDb2dVertex
 10
4.975393700787401
 20
2.56003937007874
 30
0.0
  0
VERTEX
  5
2AA
330
2A8
100
AcDbEntity
  8
1
100
AcDbVertex
100
AcDb2dVertex
 10
4.952755905511811
 20
2.565944881889763
 30
0.0
  0
VERTEX
  5
2AB
330
2A8
100
AcDbEntity
  8
1
100
AcDbVertex
100
AcDb2dVertex
 10
4.933070866141732
 20
2.581692913385826
 30
0.0
  0
VERTEX
  5
2AC
330
2A8
100
AcDbEntity
  8
1
100
AcDbVertex
100
AcDb2dVertex
 10
4.916338582677165
 20
2.604330708661417
 30
0.0
  0
VERTEX
  5
2AD
330
2A8
100
AcDbEntity
  8
1
100
AcDbVertex
100
AcDb2dVertex
 10
4.905511811023622
 20
2.632874015748031
 30
0.0
  0
VERTEX
  5
2AE
330
2A8
100
AcDbEntity
  8
1
100
AcDbVertex
100
AcDb2dVertex
 10
4.900590551181101
 20
2.664370078740157
 30
0.0
  0
SEQEND
  5
2AF
330
2A8
100
AcDbEntity
  8
1
  0
POLYLINE
  5
2B0
330
1F
100
AcDbEntity
  8
1
100
AcDb2dPolyline
 66
     1
 10
0.0
 20
0.0
 30
0.0
  0
VERTEX
  5
2B1
330
2B0
100
AcDbEntity
  8
1
100
AcDbVertex
100
AcDb2dVertex
 10
4.975393700787401
 20
2.56003937007874
 30
0.0
  0
VERTEX
  5
2B2
330
2B0
100
AcDbEntity
  8
1
100
AcDbVertex
100
AcDb2dVertex
 10
4.998031496062991
 20
2.565944881889763
 30
0.0
  0
VERTEX
  5
2B3
330
2B0
100
AcDbEntity
  8
1
100
AcDbVertex
100
AcDb2dVertex
 10
5.01771653543307
 20
2.581692913385826
 30
0.0
  0
VERTEX
  5
2B4
330
2B0
100
AcDbEntity
  8
1
100
AcDbVertex
100
AcDb2dVertex
 10
5.034448818897637
 20
2.604330708661417
 30
0.0
  0
VERTEX
  5
2B5
330
2B0
100
AcDbEntity
  8
1
100
AcDbVertex
100
AcDb2dVertex
 10
5.045275590551181
 20
2.632874015748031
 30
0.0
  0
VERTEX
  5
2B6
330
2B0
100
AcDbEntity
  8
1
100
AcDbVertex
100
AcDb2dVertex
 10
5.0501968503937
 20
2.664370078740157
 30
0.0
  0
SEQEND
  5
2B7
330
2B0
100
AcDbEntity
  8
1
  0
POLYLINE
  5
2B8
330
1F
100
AcDbEntity
  8
1
100
AcDb2dPolyline
 66
     1
 10
0.0
 20
0.0
 30
0.0
  0
VERTEX
  5
2B9
330
2B8
100
AcDbEntity
  8
1
100
AcDbVertex
100
AcDb2dVertex
 10
3.351377952755905
 20
2.56003937007874
 30
0.0
  0
VERTEX
  5
2BA
330
2B8
100
AcDbEntity
  8
1
100
AcDbVertex
100
AcDb2dVertex
 10
3.374015748031495
 20
2.565944881889763
 30
0.0
  0
VERTEX
  5
2BB
330
2B8
100
AcDbEntity
  8
1
100
AcDbVertex
100
AcDb2dVertex
 10
3.394685039370078
 20
2.581692913385826
 30
0.0
  0
VERTEX
  5
2BC
330
2B8
100
AcDbEntity
  8
1
100
AcDbVertex
100
AcDb2dVertex
 10
3.410433070866141
 20
2.604330708661417
 30
0.0
  0
VERTEX
  5
2BD
330
2B8
100
AcDbEntity
  8
1
100
AcDbVertex
100
AcDb2dVertex
 10
3.421259842519685
 20
2.632874015748031
 30
0.0
  0
VERTEX
  5
2BE
330
2B8
100
AcDbEntity
  8
1
100
AcDbVertex
100
AcDb2dVertex
 10
3.426181102362204
 20
2.664370078740157
 30
0.0
  0
SEQEND
  5
2BF
330
2B8
100
AcDbEntity
  8
1
  0
POLYLINE
  5
2C0
330
1F
100
AcDbEntity
  8
1
100
AcDb2dPolyline
 66
     1
 10
0.0
 20
0.0
 30
0.0
  0
VERTEX
  5
2C1
330
2C0
100
AcDbEntity
  8
1
100
AcDbVertex
100
AcDb2dVertex
 10
3.351377952755905
 20
2.56003937007874
 30
0.0
  0
VERTEX
  5
2C2
330
2C0
100
AcDbEntity
  8
1
100
AcDbVertex
100
AcDb2dVertex
 10
3.329724409448818
 20
2.565944881889763
 30
0.0
  0
VERTEX
  5
2C3
330
2C0
100
AcDbEntity
  8
1
100
AcDbVertex
100
AcDb2dVertex
 10
3.309055118110236
 20
2.581692913385826
 30
0.0
  0
VERTEX
  5
2C4
330
2C0
100
AcDbEntity
  8
1
100
AcDbVertex
100
AcDb2dVertex
 10
3.292322834645669
 20
2.604330708661417
 30
0.0
  0
VERTEX
  5
2C5
330
2C0
100
AcDbEntity
  8
1
100
AcDbVertex
100
AcDb2dVertex
 10
3.281496062992125
 20
2.632874015748031
 30
0.0
  0
VERTEX
  5
2C6
330
2C0
100
AcDbEntity
  8
1
100
AcDbVertex
100
AcDb2dVertex
 10
3.27755905511811
 20
2.664370078740157
 30
0.0
  0
SEQEND
  5
2C7
330
2C0
100
AcDbEntity
  8
1
  0
LINE
  5
2C8
330
1F
100
AcDbEntity
  8
1
100
AcDbLine
 10
5.755905511811023
 20
2.36023622047244
 30
0.0
 11
5.755905511811023
 21
2.394685039370078
 31
0.0
  0
POLYLINE
  5
2C9
330
1F
100
AcDbEntity
  8
1
100
AcDb2dPolyline
 66
     1
 10
0.0
 20
0.0
 30
0.0
  0
VERTEX
  5
2CA
330
2C9
100
AcDbEntity
  8
1
100
AcDbVertex
100
AcDb2dVertex
 10
5.791338582677164
 20
2.324803149606299
 30
0.0
  0
VERTEX
  5
2CB
330
2C9
100
AcDbEntity
  8
1
100
AcDbVertex
100
AcDb2dVertex
 10
5.773622047244094
 20
2.328740157480314
 30
0.0
  0
VERTEX
  5
2CC
330
2C9
100
AcDbEntity
  8
1
100
AcDbVertex
100
AcDb2dVertex
 10
5.760826771653543
 20
2.342519685039369
 30
0.0
  0
VERTEX
  5
2CD
330
2C9
100
AcDbEntity
  8
1
100
AcDbVertex
100
AcDb2dVertex
 10
5.755905511811023
 20
2.36023622047244
 30
0.0
  0
SEQEND
  5
2CE
330
2C9
100
AcDbEntity
  8
1
  0
LINE
  5
2CF
330
1F
100
AcDbEntity
  8
1
100
AcDbLine
 10
6.186023622047244
 20
2.324803149606299
 30
0.0
 11
5.791338582677164
 21
2.324803149606299
 31
0.0
  0
POLYLINE
  5
2D0
330
1F
100
AcDbEntity
  8
1
100
AcDb2dPolyline
 66
     1
 10
0.0
 20
0.0
 30
0.0
  0
VERTEX
  5
2D1
330
2D0
100
AcDbEntity
  8
1
100
AcDbVertex
100
AcDb2dVertex
 10
6.221456692913386
 20
2.36023622047244
 30
0.0
  0
VERTEX
  5
2D2
330
2D0
100
AcDbEntity
  8
1
100
AcDbVertex
100
AcDb2dVertex
 10
6.216535433070865
 20
2.342519685039369
 30
0.0
  0
VERTEX
  5
2D3
330
2D0
100
AcDbEntity
  8
1
100
AcDbVertex
100
AcDb2dVertex
 10
6.203740157480314
 20
2.328740157480314
 30
0.0
  0
VERTEX
  5
2D4
330
2D0
100
AcDbEntity
  8
1
100
AcDbVertex
100
AcDb2dVertex
 10
6.186023622047244
 20
2.324803149606299
 30
0.0
  0
SEQEND
  5
2D5
330
2D0
100
AcDbEntity
  8
1
  0
LINE
  5
2D6
330
1F
100
AcDbEntity
  8
1
100
AcDbLine
 10
6.221456692913386
 20
2.393700787401574
 30
0.0
 11
6.221456692913386
 21
2.36023622047244
 31
0.0
  0
LINE
  5
2D7
330
1F
100
AcDbEntity
  8
1
100
AcDbLine
 10
5.611220472440944
 20
3.342519685039369
 30
0.0
 11
5.611220472440944
 21
2.683070866141732
 31
0.0
  0
LINE
  5
2D8
330
1F
100
AcDbEntity
  8
1
100
AcDbLine
 10
5.790354330708661
 20
2.321850393700787
 30
0.0
 11
5.791338582677164
 21
2.324803149606299
 31
0.0
  0
LINE
  5
2D9
330
1F
100
AcDbEntity
  8
1
100
AcDbLine
 10
5.755905511811023
 20
2.36023622047244
 30
0.0
 11
5.754921259842519
 21
2.357283464566929
 31
0.0
  0
LINE
  5
2DA
330
1F
100
AcDbEntity
  8
1
100
AcDbLine
 10
6.186023622047244
 20
2.324803149606299
 30
0.0
 11
6.186023622047244
 21
2.321850393700787
 31
0.0
  0
LINE
  5
2DB
330
1F
100
AcDbEntity
  8
1
100
AcDbLine
 10
6.221456692913386
 20
2.357283464566929
 30
0.0
 11
6.221456692913386
 21
2.36023622047244
 31
0.0
  0
LINE
  5
2DC
330
1F
100
AcDbEntity
  8
1
100
AcDbLine
 10
6.221456692913386
 20
4.410433070866141
 30
0.0
 11
6.221456692913386
 21
4.407480314960629
 31
0.0
  0
LINE
  5
2DD
330
1F
100
AcDbEntity
  8
1
100
AcDbLine
 10
6.221456692913386
 20
4.374015748031496
 30
0.0
 11
6.221456692913386
 21
4.407480314960629
 31
0.0
  0
LINE
  5
2DE
330
1F
100
AcDbEntity
  8
1
100
AcDbLine
 10
6.220472440944881
 20
2.395669291338582
 30
0.0
 11
6.220472440944881
 21
4.372047244094487
 31
0.0
  0
LINE
  5
2DF
330
1F
100
AcDbEntity
  8
1
100
AcDbLine
 10
5.755905511811023
 20
4.372047244094487
 30
0.0
 11
5.755905511811023
 21
2.395669291338582
 31
0.0
  0
LINE
  5
2E0
330
1F
100
AcDbEntity
  8
1
100
AcDbLine
 10
5.755905511811023
 20
4.407480314960629
 30
0.0
 11
5.755905511811023
 21
4.374015748031496
 31
0.0
  0
LINE
  5
2E1
330
1F
100
AcDbEntity
  8
1
100
AcDbLine
 10
5.755905511811023
 20
4.407480314960629
 30
0.0
 11
5.754921259842519
 21
4.410433070866141
 31
0.0
  0
POLYLINE
  5
2E2
330
1F
100
AcDbEntity
  8
1
100
AcDb2dPolyline
 66
     1
 10
0.0
 20
0.0
 30
0.0
  0
VERTEX
  5
2E3
330
2E2
100
AcDbEntity
  8
1
100
AcDbVertex
100
AcDb2dVertex
 10
6.221456692913386
 20
4.407480314960629
 30
0.0
  0
VERTEX
  5
2E4
330
2E2
100
AcDbEntity
  8
1
100
AcDbVertex
100
AcDb2dVertex
 10
6.216535433070865
 20
4.4251968503937
 30
0.0
  0
VERTEX
  5
2E5
330
2E2
100
AcDbEntity
  8
1
100
AcDbVertex
100
AcDb2dVertex
 10
6.203740157480314
 20
4.438976377952755
 30
0.0
  0
VERTEX
  5
2E6
330
2E2
100
AcDbEntity
  8
1
100
AcDbVertex
100
AcDb2dVertex
 10
6.186023622047244
 20
4.442913385826771
 30
0.0
  0
SEQEND
  5
2E7
330
2E2
100
AcDbEntity
  8
1
  0
LINE
  5
2E8
330
1F
100
AcDbEntity
  8
1
100
AcDbLine
 10
6.186023622047244
 20
4.442913385826771
 30
0.0
 11
5.791338582677164
 21
4.442913385826771
 31
0.0
  0
POLYLINE
  5
2E9
330
1F
100
AcDbEntity
  8
1
100
AcDb2dPolyline
 66
     1
 10
0.0
 20
0.0
 30
0.0
  0
VERTEX
  5
2EA
330
2E9
100
AcDbEntity
  8
1
100
AcDbVertex
100
AcDb2dVertex
 10
5.791338582677164
 20
4.442913385826771
 30
0.0
  0
VERTEX
  5
2EB
330
2E9
100
AcDbEntity
  8
1
100
AcDbVertex
100
AcDb2dVertex
 10
5.773622047244094
 20
4.438976377952755
 30
0.0
  0
VERTEX
  5
2EC
330
2E9
100
AcDbEntity
  8
1
100
AcDbVertex
100
AcDb2dVertex
 10
5.760826771653543
 20
4.4251968503937
 30
0.0
  0
VERTEX
  5
2ED
330
2E9
100
AcDbEntity
  8
1
100
AcDbVertex
100
AcDb2dVertex
 10
5.755905511811023
 20
4.407480314960629
 30
0.0
  0
SEQEND
  5
2EE
330
2E9
100
AcDbEntity
  8
1
  0
LINE
  5
2EF
330
1F
100
AcDbEntity
  8
1
100
AcDbLine
 10
5.611220472440944
 20
3.4251968503937
 30
0.0
 11
5.611220472440944
 21
4.084645669291338
 31
0.0
  0
LINE
  5
2F0
330
1F
100
AcDbEntity
  8
1
100
AcDbLine
 10
5.790354330708661
 20
4.445866141732283
 30
0.0
 11
5.791338582677164
 21
4.442913385826771
 31
0.0
  0
LINE
  5
2F1
330
1F
100
AcDbEntity
  8
1
100
AcDbLine
 10
6.186023622047244
 20
4.442913385826771
 30
0.0
 11
6.186023622047244
 21
4.445866141732283
 31
0.0
  0
LINE
  5
2F2
330
1F
100
AcDbEntity
  8
1
100
AcDbLine
 10
5.92027559055118
 20
3.503937007874015
 30
0.0
 11
5.92027559055118
 21
3.263779527559055
 31
0.0
  0
LINE
  5
2F3
330
1F
100
AcDbEntity
  8
1
100
AcDbLine
 10
6.056102362204724
 20
3.503937007874015
 30
0.0
 11
6.056102362204724
 21
3.263779527559055
 31
0.0
  0
POLYLINE
  5
2F4
330
1F
100
AcDbEntity
  8
1
100
AcDb2dPolyline
 66
     1
 10
0.0
 20
0.0
 30
0.0
  0
VERTEX
  5
2F5
330
2F4
100
AcDbEntity
  8
1
100
AcDbVertex
100
AcDb2dVertex
 10
5.92027559055118
 20
3.263779527559055
 30
0.0
  0
VERTEX
  5
2F6
330
2F4
100
AcDbEntity
  8
1
100
AcDbVertex
100
AcDb2dVertex
 10
5.943897637795275
 20
3.243110236220472
 30
0.0
  0
VERTEX
  5
2F7
330
2F4
100
AcDbEntity
  8
1
100
AcDbVertex
100
AcDb2dVertex
 10
5.972440944881889
 20
3.231299212598425
 30
0.0
  0
VERTEX
  5
2F8
330
2F4
100
AcDbEntity
  8
1
100
AcDbVertex
100
AcDb2dVertex
 10
6.003937007874015
 20
3.231299212598425
 30
0.0
  0
VERTEX
  5
2F9
330
2F4
100
AcDbEntity
  8
1
100
AcDbVertex
100
AcDb2dVertex
 10
6.033464566929133
 20
3.243110236220472
 30
0.0
  0
VERTEX
  5
2FA
330
2F4
100
AcDbEntity
  8
1
100
AcDbVertex
100
AcDb2dVertex
 10
6.056102362204724
 20
3.263779527559055
 30
0.0
  0
SEQEND
  5
2FB
330
2F4
100
AcDbEntity
  8
1
  0
POLYLINE
  5
2FC
330
1F
100
AcDbEntity
  8
1
100
AcDb2dPolyline
 66
     1
 10
0.0
 20
0.0
 30
0.0
  0
VERTEX
  5
2FD
330
2FC
100
AcDbEntity
  8
1
100
AcDbVertex
100
AcDb2dVertex
 10
6.056102362204724
 20
3.503937007874015
 30
0.0
  0
VERTEX
  5
2FE
330
2FC
100
AcDbEntity
  8
1
100
AcDbVertex
100
AcDb2dVertex
 10
6.033464566929133
 20
3.524606299212598
 30
0.0
  0
VERTEX
  5
2FF
330
2FC
100
AcDbEntity
  8
1
100
AcDbVertex
100
AcDb2dVertex
 10
6.003937007874015
 20
3.536417322834645
 30
0.0
  0
VERTEX
  5
300
330
2FC
100
AcDbEntity
  8
1
100
AcDbVertex
100
AcDb2dVertex
 10
5.972440944881889
 20
3.536417322834645
 30
0.0
  0
VERTEX
  5
301
330
2FC
100
AcDbEntity
  8
1
100
AcDbVertex
100
AcDb2dVertex
 10
5.943897637795275
 20
3.524606299212598
 30
0.0
  0
VERTEX
  5
302
330
2FC
100
AcDbEntity
  8
1
100
AcDbVertex
100
AcDb2dVertex
 10
5.92027559055118
 20
3.503937007874015
 30
0.0
  0
SEQEND
  5
303
330
2FC
100
AcDbEntity
  8
1
  0
LINE
  5
304
330
1F
100
AcDbEntity
  8
1
100
AcDbLine
 10
5.912401574803149
 20
3.274606299212598
 30
0.0
 11
5.912401574803149
 21
3.493110236220472
 31
0.0
  0
LINE
  5
305
330
1F
100
AcDbEntity
  8
1
100
AcDbLine
 10
5.92027559055118
 20
3.263779527559055
 30
0.0
 11
5.912401574803149
 21
3.274606299212598
 31
0.0
  0
LINE
  5
306
330
1F
100
AcDbEntity
  8
1
100
AcDbLine
 10
5.912401574803149
 20
3.493110236220472
 30
0.0
 11
5.92027559055118
 21
3.503937007874015
 31
0.0
  0
LINE
  5
307
330
1F
100
AcDbEntity
  8
1
100
AcDbLine
 10
6.06496062992126
 20
3.274606299212598
 30
0.0
 11
6.06496062992126
 21
3.493110236220472
 31
0.0
  0
POLYLINE
  5
308
330
1F
100
AcDbEntity
  8
1
100
AcDb2dPolyline
 66
     1
 10
0.0
 20
0.0
 30
0.0
  0
VERTEX
  5
309
330
308
100
AcDbEntity
  8
1
100
AcDbVertex
100
AcDb2dVertex
 10
6.074803149606299
 20
3.315944881889763
 30
0.0
  0
VERTEX
  5
30A
330
308
100
AcDbEntity
  8
1
100
AcDbVertex
100
AcDb2dVertex
 10
6.071850393700787
 20
3.295275590551181
 30
0.0
  0
VERTEX
  5
30B
330
308
100
AcDbEntity
  8
1
100
AcDbVertex
100
AcDb2dVertex
 10
6.06496062992126
 20
3.274606299212598
 30
0.0
  0
SEQEND
  5
30C
330
308
100
AcDbEntity
  8
1
  0
LINE
  5
30D
330
1F
100
AcDbEntity
  8
1
100
AcDbLine
 10
6.074803149606299
 20
3.315944881889763
 30
0.0
 11
6.074803149606299
 21
3.451771653543306
 31
0.0
  0
POLYLINE
  5
30E
330
1F
100
AcDbEntity
  8
1
100
AcDb2dPolyline
 66
     1
 10
0.0
 20
0.0
 30
0.0
  0
VERTEX
  5
30F
330
30E
100
AcDbEntity
  8
1
100
AcDbVertex
100
AcDb2dVertex
 10
6.06496062992126
 20
3.493110236220472
 30
0.0
  0
VERTEX
  5
310
330
30E
100
AcDbEntity
  8
1
100
AcDbVertex
100
AcDb2dVertex
 10
6.071850393700787
 20
3.473425196850393
 30
0.0
  0
VERTEX
  5
311
330
30E
100
AcDbEntity
  8
1
100
AcDbVertex
100
AcDb2dVertex
 10
6.074803149606299
 20
3.451771653543306
 30
0.0
  0
SEQEND
  5
312
330
30E
100
AcDbEntity
  8
1
  0
LINE
  5
313
330
1F
100
AcDbEntity
  8
1
100
AcDbLine
 10
6.06496062992126
 20
3.274606299212598
 30
0.0
 11
6.056102362204724
 21
3.263779527559055
 31
0.0
  0
LINE
  5
314
330
1F
100
AcDbEntity
  8
1
100
AcDbLine
 10
6.056102362204724
 20
3.503937007874015
 30
0.0
 11
6.06496062992126
 21
3.493110236220472
 31
0.0
  0
POLYLINE
  5
315
330
1F
100
AcDbEntity
  8
1
100
AcDb2dPolyline
 66
     1
 10
0.0
 20
0.0
 30
0.0
  0
VERTEX
  5
316
330
315
100
AcDbEntity
  8
1
100
AcDbVertex
100
AcDb2dVertex
 10
5.901574803149606
 20
3.451771653543306
 30
0.0
  0
VERTEX
  5
317
330
315
100
AcDbEntity
  8
1
100
AcDbVertex
100
AcDb2dVertex
 10
5.904527559055117
 20
3.473425196850393
 30
0.0
  0
VERTEX
  5
318
330
315
100
AcDbEntity
  8
1
100
AcDbVertex
100
AcDb2dVertex
 10
5.912401574803149
 20
3.493110236220472
 30
0.0
  0
SEQEND
  5
319
330
315
100
AcDbEntity
  8
1
  0
LINE
  5
31A
330
1F
100
AcDbEntity
  8
1
100
AcDbLine
 10
5.901574803149606
 20
3.315944881889763
 30
0.0
 11
5.901574803149606
 21
3.451771653543306
 31
0.0
  0
POLYLINE
  5
31B
330
1F
100
AcDbEntity
  8
1
100
AcDb2dPolyline
 66
     1
 10
0.0
 20
0.0
 30
0.0
  0
VERTEX
  5
31C
330
31B
100
AcDbEntity
  8
1
100
AcDbVertex
100
AcDb2dVertex
 10
5.912401574803149
 20
3.274606299212598
 30
0.0
  0
VERTEX
  5
31D
330
31B
100
AcDbEntity
  8
1
100
AcDbVertex
100
AcDb2dVertex
 10
5.904527559055117
 20
3.295275590551181
 30
0.0
  0
VERTEX
  5
31E
330
31B
100
AcDbEntity
  8
1
100
AcDbVertex
100
AcDb2dVertex
 10
5.901574803149606
 20
3.315944881889763
 30
0.0
  0
SEQEND
  5
31F
330
31B
100
AcDbEntity
  8
1
  0
POLYLINE
  5
320
330
1F
100
AcDbEntity
  8
1
100
AcDb2dPolyline
 66
     1
 10
0.0
 20
0.0
 30
0.0
  0
VERTEX
  5
321
330
320
100
AcDbEntity
  8
1
100
AcDbVertex
100
AcDb2dVertex
 10
6.074803149606299
 20
3.315944881889763
 30
0.0
  0
VERTEX
  5
322
330
320
100
AcDbEntity
  8
1
100
AcDbVertex
100
AcDb2dVertex
 10
6.069881889763779
 20
3.286417322834645
 30
0.0
  0
VERTEX
  5
323
330
320
100
AcDbEntity
  8
1
100
AcDbVertex
100
AcDb2dVertex
 10
6.05511811023622
 20
3.259842519685039
 30
0.0
  0
VERTEX
  5
324
330
320
100
AcDbEntity
  8
1
100
AcDbVertex
100
AcDb2dVertex
 10
6.031496062992125
 20
3.241141732283464
 30
0.0
  0
VERTEX
  5
325
330
320
100
AcDbEntity
  8
1
100
AcDbVertex
100
AcDb2dVertex
 10
6.002952755905512
 20
3.230314960629921
 30
0.0
  0
VERTEX
  5
326
330
320
100
AcDbEntity
  8
1
100
AcDbVertex
100
AcDb2dVertex
 10
5.973425196850393
 20
3.230314960629921
 30
0.0
  0
VERTEX
  5
327
330
320
100
AcDbEntity
  8
1
100
AcDbVertex
100
AcDb2dVertex
 10
5.944881889763779
 20
3.241141732283464
 30
0.0
  0
VERTEX
  5
328
330
320
100
AcDbEntity
  8
1
100
AcDbVertex
100
AcDb2dVertex
 10
5.922244094488188
 20
3.259842519685039
 30
0.0
  0
VERTEX
  5
329
330
320
100
AcDbEntity
  8
1
100
AcDbVertex
100
AcDb2dVertex
 10
5.907480314960629
 20
3.286417322834645
 30
0.0
  0
VERTEX
  5
32A
330
320
100
AcDbEntity
  8
1
100
AcDbVertex
100
AcDb2dVertex
 10
5.901574803149606
 20
3.315944881889763
 30
0.0
  0
SEQEND
  5
32B
330
320
100
AcDbEntity
  8
1
  0
LINE
  5
32C
330
1F
100
AcDbEntity
  8
1
100
AcDbLine
 10
6.074803149606299
 20
3.315944881889763
 30
0.0
 11
6.074803149606299
 21
3.451771653543306
 31
0.0
  0
POLYLINE
  5
32D
330
1F
100
AcDbEntity
  8
1
100
AcDb2dPolyline
 66
     1
 10
0.0
 20
0.0
 30
0.0
  0
VERTEX
  5
32E
330
32D
100
AcDbEntity
  8
1
100
AcDbVertex
100
AcDb2dVertex
 10
5.901574803149606
 20
3.451771653543306
 30
0.0
  0
VERTEX
  5
32F
330
32D
100
AcDbEntity
  8
1
100
AcDbVertex
100
AcDb2dVertex
 10
5.907480314960629
 20
3.481299212598425
 30
0.0
  0
VERTEX
  5
330
330
32D
100
AcDbEntity
  8
1
100
AcDbVertex
100
AcDb2dVertex
 10
5.922244094488188
 20
3.507874015748031
 30
0.0
  0
VERTEX
  5
331
330
32D
100
AcDbEntity
  8
1
100
AcDbVertex
100
AcDb2dVertex
 10
5.944881889763779
 20
3.526574803149606
 30
0.0
  0
VERTEX
  5
332
330
32D
100
AcDbEntity
  8
1
100
AcDbVertex
100
AcDb2dVertex
 10
5.973425196850393
 20
3.537401574803149
 30
0.0
  0
VERTEX
  5
333
330
32D
100
AcDbEntity
  8
1
100
AcDbVertex
100
AcDb2dVertex
 10
6.002952755905512
 20
3.537401574803149
 30
0.0
  0
VERTEX
  5
334
330
32D
100
AcDbEntity
  8
1
100
AcDbVertex
100
AcDb2dVertex
 10
6.031496062992125
 20
3.526574803149606
 30
0.0
  0
VERTEX
  5
335
330
32D
100
AcDbEntity
  8
1
100
AcDbVertex
100
AcDb2dVertex
 10
6.05511811023622
 20
3.507874015748031
 30
0.0
  0
VERTEX
  5
336
330
32D
100
AcDbEntity
  8
1
100
AcDbVertex
100
AcDb2dVertex
 10
6.069881889763779
 20
3.481299212598425
 30
0.0
  0
VERTEX
  5
337
330
32D
100
AcDbEntity
  8
1
100
AcDbVertex
100
AcDb2dVertex
 10
6.074803149606299
 20
3.451771653543306
 30
0.0
  0
SEQEND
  5
338
330
32D
100
AcDbEntity
  8
1
  0
LINE
  5
339
330
1F
100
AcDbEntity
  8
1
100
AcDbLine
 10
5.901574803149606
 20
3.315944881889763
 30
0.0
 11
5.901574803149606
 21
3.451771653543306
 31
0.0
  0
LINE
  5
33A
330
1F
100
AcDbEntity
  8
1
100
AcDbLine
 10
5.433070866141732
 20
3.835629921259842
 30
0.0
 11
5.433070866141732
 21
3.663385826771653
 31
0.0
  0
LINE
  5
33B
330
1F
100
AcDbEntity
  8
1
100
AcDbLine
 10
5.433070866141732
 20
3.663385826771653
 30
0.0
 11
5.463582677165354
 21
3.663385826771653
 31
0.0
  0
LINE
  5
33C
330
1F
100
AcDbEntity
  8
1
100
AcDbLine
 10
5.463582677165354
 20
3.835629921259842
 30
0.0
 11
5.463582677165354
 21
3.663385826771653
 31
0.0
  0
LINE
  5
33D
330
1F
100
AcDbEntity
  8
1
100
AcDbLine
 10
5.433070866141732
 20
3.835629921259842
 30
0.0
 11
5.463582677165354
 21
3.835629921259842
 31
0.0
  0
LINE
  5
33E
330
1F
100
AcDbEntity
  8
1
100
AcDbLine
 10
5.433070866141732
 20
3.099409448818897
 30
0.0
 11
5.433070866141732
 21
2.927165354330708
 31
0.0
  0
LINE
  5
33F
330
1F
100
AcDbEntity
  8
1
100
AcDbLine
 10
5.433070866141732
 20
2.927165354330708
 30
0.0
 11
5.463582677165354
 21
2.927165354330708
 31
0.0
  0
LINE
  5
340
330
1F
100
AcDbEntity
  8
1
100
AcDbLine
 10
5.463582677165354
 20
3.099409448818897
 30
0.0
 11
5.463582677165354
 21
2.927165354330708
 31
0.0
  0
LINE
  5
341
330
1F
100
AcDbEntity
  8
1
100
AcDbLine
 10
5.433070866141732
 20
3.099409448818897
 30
0.0
 11
5.463582677165354
 21
3.099409448818897
 31
0.0
  0
LINE
  5
342
330
1F
100
AcDbEntity
  8
1
100
AcDbLine
 10
5.432086614173228
 20
3.838582677165354
 30
0.0
 11
5.432086614173228
 21
3.835629921259842
 31
0.0
  0
LINE
  5
343
330
1F
100
AcDbEntity
  8
1
100
AcDbLine
 10
5.432086614173228
 20
3.835629921259842
 30
0.0
 11
5.433070866141732
 21
3.835629921259842
 31
0.0
  0
LINE
  5
344
330
1F
100
AcDbEntity
  8
1
100
AcDbLine
 10
5.464566929133858
 20
3.838582677165354
 30
0.0
 11
5.463582677165354
 21
3.835629921259842
 31
0.0
  0
LINE
  5
345
330
1F
100
AcDbEntity
  8
1
100
AcDbLine
 10
5.432086614173228
 20
3.838582677165354
 30
0.0
 11
5.464566929133858
 21
3.838582677165354
 31
0.0
  0
LINE
  5
346
330
1F
100
AcDbEntity
  8
1
100
AcDbLine
 10
5.433070866141732
 20
3.663385826771653
 30
0.0
 11
5.432086614173228
 21
3.663385826771653
 31
0.0
  0
LINE
  5
347
330
1F
100
AcDbEntity
  8
1
100
AcDbLine
 10
5.432086614173228
 20
3.660433070866141
 30
0.0
 11
5.432086614173228
 21
3.663385826771653
 31
0.0
  0
LINE
  5
348
330
1F
100
AcDbEntity
  8
1
100
AcDbLine
 10
5.432086614173228
 20
3.660433070866141
 30
0.0
 11
5.464566929133858
 21
3.660433070866141
 31
0.0
  0
LINE
  5
349
330
1F
100
AcDbEntity
  8
1
100
AcDbLine
 10
5.463582677165354
 20
3.663385826771653
 30
0.0
 11
5.464566929133858
 21
3.660433070866141
 31
0.0
  0
LINE
  5
34A
330
1F
100
AcDbEntity
  8
1
100
AcDbLine
 10
5.464566929133858
 20
3.838582677165354
 30
0.0
 11
5.464566929133858
 21
3.660433070866141
 31
0.0
  0
LINE
  5
34B
330
1F
100
AcDbEntity
  8
1
100
AcDbLine
 10
5.433070866141732
 20
2.927165354330708
 30
0.0
 11
5.432086614173228
 21
2.927165354330708
 31
0.0
  0
LINE
  5
34C
330
1F
100
AcDbEntity
  8
1
100
AcDbLine
 10
5.432086614173228
 20
3.099409448818897
 30
0.0
 11
5.433070866141732
 21
3.099409448818897
 31
0.0
  0
LINE
  5
34D
330
1F
100
AcDbEntity
  8
1
100
AcDbLine
 10
5.432086614173228
 20
3.102362204724409
 30
0.0
 11
5.432086614173228
 21
3.099409448818897
 31
0.0
  0
LINE
  5
34E
330
1F
100
AcDbEntity
  8
1
100
AcDbLine
 10
5.464566929133858
 20
3.102362204724409
 30
0.0
 11
5.463582677165354
 21
3.099409448818897
 31
0.0
  0
LINE
  5
34F
330
1F
100
AcDbEntity
  8
1
100
AcDbLine
 10
5.432086614173228
 20
3.102362204724409
 30
0.0
 11
5.464566929133858
 21
3.102362204724409
 31
0.0
  0
LINE
  5
350
330
1F
100
AcDbEntity
  8
1
100
AcDbLine
 10
5.432086614173228
 20
2.924212598425196
 30
0.0
 11
5.432086614173228
 21
2.927165354330708
 31
0.0
  0
LINE
  5
351
330
1F
100
AcDbEntity
  8
1
100
AcDbLine
 10
5.432086614173228
 20
2.924212598425196
 30
0.0
 11
5.464566929133858
 21
2.924212598425196
 31
0.0
  0
LINE
  5
352
330
1F
100
AcDbEntity
  8
1
100
AcDbLine
 10
5.463582677165354
 20
2.927165354330708
 30
0.0
 11
5.464566929133858
 21
2.924212598425196
 31
0.0
  0
LINE
  5
353
330
1F
100
AcDbEntity
  8
1
100
AcDbLine
 10
5.464566929133858
 20
3.102362204724409
 30
0.0
 11
5.464566929133858
 21
2.924212598425196
 31
0.0
  0
LINE
  5
354
330
1F
100
AcDbEntity
  8
1
100
AcDbLine
 10
5.432086614173228
 20
3.838582677165354
 30
0.0
 11
5.432086614173228
 21
4.084645669291338
 31
0.0
  0
LINE
  5
355
330
1F
100
AcDbEntity
  8
1
100
AcDbLine
 10
5.432086614173228
 20
3.342519685039369
 30
0.0
 11
5.432086614173228
 21
3.102362204724409
 31
0.0
  0
LINE
  5
356
330
1F
100
AcDbEntity
  8
1
100
AcDbLine
 10
5.432086614173228
 20
3.4251968503937
 30
0.0
 11
5.432086614173228
 21
3.660433070866141
 31
0.0
  0
LINE
  5
357
330
1F
100
AcDbEntity
  8
1
100
AcDbLine
 10
5.432086614173228
 20
2.924212598425196
 30
0.0
 11
5.432086614173228
 21
2.683070866141732
 31
0.0
  0
LINE
  5
358
330
1F
100
AcDbEntity
  8
1
100
AcDbLine
 10
5.464566929133858
 20
3.838582677165354
 30
0.0
 11
5.464566929133858
 21
4.084645669291338
 31
0.0
  0
LINE
  5
359
330
1F
100
AcDbEntity
  8
1
100
AcDbLine
 10
5.464566929133858
 20
3.4251968503937
 30
0.0
 11
5.464566929133858
 21
3.660433070866141
 31
0.0
  0
LINE
  5
35A
330
1F
100
AcDbEntity
  8
1
100
AcDbLine
 10
5.477362204724409
 20
4.084645669291338
 30
0.0
 11
5.477362204724409
 21
3.4251968503937
 31
0.0
  0
LINE
  5
35B
330
1F
100
AcDbEntity
  8
1
100
AcDbLine
 10
5.520669291338582
 20
3.4251968503937
 30
0.0
 11
5.520669291338582
 21
4.084645669291338
 31
0.0
  0
LINE
  5
35C
330
1F
100
AcDbEntity
  8
1
100
AcDbLine
 10
5.577755905511811
 20
3.4251968503937
 30
0.0
 11
5.577755905511811
 21
4.084645669291338
 31
0.0
  0
LINE
  5
35D
330
1F
100
AcDbEntity
  8
1
100
AcDbLine
 10
5.464566929133858
 20
3.102362204724409
 30
0.0
 11
5.464566929133858
 21
3.342519685039369
 31
0.0
  0
LINE
  5
35E
330
1F
100
AcDbEntity
  8
1
100
AcDbLine
 10
5.464566929133858
 20
2.683070866141732
 30
0.0
 11
5.464566929133858
 21
2.924212598425196
 31
0.0
  0
LINE
  5
35F
330
1F
100
AcDbEntity
  8
1
100
AcDbLine
 10
5.477362204724409
 20
3.342519685039369
 30
0.0
 11
5.477362204724409
 21
2.683070866141732
 31
0.0
  0
LINE
  5
360
330
1F
100
AcDbEntity
  8
1
100
AcDbLine
 10
5.520669291338582
 20
3.342519685039369
 30
0.0
 11
5.520669291338582
 21
2.683070866141732
 31
0.0
  0
LINE
  5
361
330
1F
100
AcDbEntity
  8
1
100
AcDbLine
 10
5.577755905511811
 20
2.683070866141732
 30
0.0
 11
5.577755905511811
 21
3.342519685039369
 31
0.0
  0
LINE
  5
362
330
1F
100
AcDbEntity
  8
1
100
AcDbLine
 10
2.204724409448818
 20
3.503937007874015
 30
0.0
 11
2.204724409448818
 21
3.263779527559055
 31
0.0
  0
LINE
  5
363
330
1F
100
AcDbEntity
  8
1
100
AcDbLine
 10
2.340551181102362
 20
3.503937007874015
 30
0.0
 11
2.340551181102362
 21
3.263779527559055
 31
0.0
  0
POLYLINE
  5
364
330
1F
100
AcDbEntity
  8
1
100
AcDb2dPolyline
 66
     1
 10
0.0
 20
0.0
 30
0.0
  0
VERTEX
  5
365
330
364
100
AcDbEntity
  8
1
100
AcDbVertex
100
AcDb2dVertex
 10
2.204724409448818
 20
3.503937007874015
 30
0.0
  0
VERTEX
  5
366
330
364
100
AcDbEntity
  8
1
100
AcDbVertex
100
AcDb2dVertex
 10
2.227362204724409
 20
3.524606299212598
 30
0.0
  0
VERTEX
  5
367
330
364
100
AcDbEntity
  8
1
100
AcDbVertex
100
AcDb2dVertex
 10
2.256889763779527
 20
3.536417322834645
 30
0.0
  0
VERTEX
  5
368
330
364
100
AcDbEntity
  8
1
100
AcDbVertex
100
AcDb2dVertex
 10
2.287401574803149
 20
3.536417322834645
 30
0.0
  0
VERTEX
  5
369
330
364
100
AcDbEntity
  8
1
100
AcDbVertex
100
AcDb2dVertex
 10
2.316929133858267
 20
3.524606299212598
 30
0.0
  0
VERTEX
  5
36A
330
364
100
AcDbEntity
  8
1
100
AcDbVertex
100
AcDb2dVertex
 10
2.340551181102362
 20
3.503937007874015
 30
0.0
  0
SEQEND
  5
36B
330
364
100
AcDbEntity
  8
1
  0
LINE
  5
36C
330
1F
100
AcDbEntity
  8
1
100
AcDbLine
 10
2.195866141732283
 20
3.274606299212598
 30
0.0
 11
2.195866141732283
 21
3.493110236220472
 31
0.0
  0
POLYLINE
  5
36D
330
1F
100
AcDbEntity
  8
1
100
AcDb2dPolyline
 66
     1
 10
0.0
 20
0.0
 30
0.0
  0
VERTEX
  5
36E
330
36D
100
AcDbEntity
  8
1
100
AcDbVertex
100
AcDb2dVertex
 10
2.195866141732283
 20
3.493110236220472
 30
0.0
  0
VERTEX
  5
36F
330
36D
100
AcDbEntity
  8
1
100
AcDbVertex
100
AcDb2dVertex
 10
2.187992125984251
 20
3.473425196850393
 30
0.0
  0
VERTEX
  5
370
330
36D
100
AcDbEntity
  8
1
100
AcDbVertex
100
AcDb2dVertex
 10
2.186023622047243
 20
3.451771653543306
 30
0.0
  0
SEQEND
  5
371
330
36D
100
AcDbEntity
  8
1
  0
LINE
  5
372
330
1F
100
AcDbEntity
  8
1
100
AcDbLine
 10
2.186023622047243
 20
3.315944881889763
 30
0.0
 11
2.186023622047243
 21
3.451771653543306
 31
0.0
  0
POLYLINE
  5
373
330
1F
100
AcDbEntity
  8
1
100
AcDb2dPolyline
 66
     1
 10
0.0
 20
0.0
 30
0.0
  0
VERTEX
  5
374
330
373
100
AcDbEntity
  8
1
100
AcDbVertex
100
AcDb2dVertex
 10
2.186023622047243
 20
3.315944881889763
 30
0.0
  0
VERTEX
  5
375
330
373
100
AcDbEntity
  8
1
100
AcDbVertex
100
AcDb2dVertex
 10
2.187992125984251
 20
3.295275590551181
 30
0.0
  0
VERTEX
  5
376
330
373
100
AcDbEntity
  8
1
100
AcDbVertex
100
AcDb2dVertex
 10
2.195866141732283
 20
3.274606299212598
 30
0.0
  0
SEQEND
  5
377
330
373
100
AcDbEntity
  8
1
  0
LINE
  5
378
330
1F
100
AcDbEntity
  8
1
100
AcDbLine
 10
2.204724409448818
 20
3.503937007874015
 30
0.0
 11
2.195866141732283
 21
3.493110236220472
 31
0.0
  0
LINE
  5
379
330
1F
100
AcDbEntity
  8
1
100
AcDbLine
 10
2.195866141732283
 20
3.274606299212598
 30
0.0
 11
2.204724409448818
 21
3.263779527559055
 31
0.0
  0
POLYLINE
  5
37A
330
1F
100
AcDbEntity
  8
1
100
AcDb2dPolyline
 66
     1
 10
0.0
 20
0.0
 30
0.0
  0
VERTEX
  5
37B
330
37A
100
AcDbEntity
  8
1
100
AcDbVertex
100
AcDb2dVertex
 10
2.340551181102362
 20
3.263779527559055
 30
0.0
  0
VERTEX
  5
37C
330
37A
100
AcDbEntity
  8
1
100
AcDbVertex
100
AcDb2dVertex
 10
2.316929133858267
 20
3.243110236220472
 30
0.0
  0
VERTEX
  5
37D
330
37A
100
AcDbEntity
  8
1
100
AcDbVertex
100
AcDb2dVertex
 10
2.287401574803149
 20
3.231299212598425
 30
0.0
  0
VERTEX
  5
37E
330
37A
100
AcDbEntity
  8
1
100
AcDbVertex
100
AcDb2dVertex
 10
2.256889763779527
 20
3.231299212598425
 30
0.0
  0
VERTEX
  5
37F
330
37A
100
AcDbEntity
  8
1
100
AcDbVertex
100
AcDb2dVertex
 10
2.227362204724409
 20
3.243110236220472
 30
0.0
  0
VERTEX
  5
380
330
37A
100
AcDbEntity
  8
1
100
AcDbVertex
100
AcDb2dVertex
 10
2.204724409448818
 20
3.263779527559055
 30
0.0
  0
SEQEND
  5
381
330
37A
100
AcDbEntity
  8
1
  0
LINE
  5
382
330
1F
100
AcDbEntity
  8
1
100
AcDbLine
 10
2.348425196850393
 20
3.274606299212598
 30
0.0
 11
2.348425196850393
 21
3.493110236220472
 31
0.0
  0
LINE
  5
383
330
1F
100
AcDbEntity
  8
1
100
AcDbLine
 10
2.348425196850393
 20
3.493110236220472
 30
0.0
 11
2.340551181102362
 21
3.503937007874015
 31
0.0
  0
LINE
  5
384
330
1F
100
AcDbEntity
  8
1
100
AcDbLine
 10
2.340551181102362
 20
3.263779527559055
 30
0.0
 11
2.348425196850393
 21
3.274606299212598
 31
0.0
  0
POLYLINE
  5
385
330
1F
100
AcDbEntity
  8
1
100
AcDb2dPolyline
 66
     1
 10
0.0
 20
0.0
 30
0.0
  0
VERTEX
  5
386
330
385
100
AcDbEntity
  8
1
100
AcDbVertex
100
AcDb2dVertex
 10
2.359251968503937
 20
3.451771653543306
 30
0.0
  0
VERTEX
  5
387
330
385
100
AcDbEntity
  8
1
100
AcDbVertex
100
AcDb2dVertex
 10
2.356299212598425
 20
3.473425196850393
 30
0.0
  0
VERTEX
  5
388
330
385
100
AcDbEntity
  8
1
100
AcDbVertex
100
AcDb2dVertex
 10
2.348425196850393
 20
3.493110236220472
 30
0.0
  0
SEQEND
  5
389
330
385
100
AcDbEntity
  8
1
  0
POLYLINE
  5
38A
330
1F
100
AcDbEntity
  8
1
100
AcDb2dPolyline
 66
     1
 10
0.0
 20
0.0
 30
0.0
  0
VERTEX
  5
38B
330
38A
100
AcDbEntity
  8
1
100
AcDbVertex
100
AcDb2dVertex
 10
2.348425196850393
 20
3.274606299212598
 30
0.0
  0
VERTEX
  5
38C
330
38A
100
AcDbEntity
  8
1
100
AcDbVertex
100
AcDb2dVertex
 10
2.356299212598425
 20
3.295275590551181
 30
0.0
  0
VERTEX
  5
38D
330
38A
100
AcDbEntity
  8
1
100
AcDbVertex
100
AcDb2dVertex
 10
2.359251968503937
 20
3.315944881889763
 30
0.0
  0
SEQEND
  5
38E
330
38A
100
AcDbEntity
  8
1
  0
LINE
  5
38F
330
1F
100
AcDbEntity
  8
1
100
AcDbLine
 10
2.359251968503937
 20
3.315944881889763
 30
0.0
 11
2.359251968503937
 21
3.451771653543306
 31
0.0
  0
POLYLINE
  5
390
330
1F
100
AcDbEntity
  8
1
100
AcDb2dPolyline
 66
     1
 10
0.0
 20
0.0
 30
0.0
  0
VERTEX
  5
391
330
390
100
AcDbEntity
  8
1
100
AcDbVertex
100
AcDb2dVertex
 10
2.359251968503937
 20
3.451771653543306
 30
0.0
  0
VERTEX
  5
392
330
390
100
AcDbEntity
  8
1
100
AcDbVertex
100
AcDb2dVertex
 10
2.353346456692913
 20
3.481299212598425
 30
0.0
  0
VERTEX
  5
393
330
390
100
AcDbEntity
  8
1
100
AcDbVertex
100
AcDb2dVertex
 10
2.338582677165354
 20
3.507874015748031
 30
0.0
  0
VERTEX
  5
394
330
390
100
AcDbEntity
  8
1
100
AcDbVertex
100
AcDb2dVertex
 10
2.315944881889763
 20
3.526574803149606
 30
0.0
  0
VERTEX
  5
395
330
390
100
AcDbEntity
  8
1
100
AcDbVertex
100
AcDb2dVertex
 10
2.287401574803149
 20
3.537401574803149
 30
0.0
  0
VERTEX
  5
396
330
390
100
AcDbEntity
  8
1
100
AcDbVertex
100
AcDb2dVertex
 10
2.256889763779527
 20
3.537401574803149
 30
0.0
  0
VERTEX
  5
397
330
390
100
AcDbEntity
  8
1
100
AcDbVertex
100
AcDb2dVertex
 10
2.229330708661417
 20
3.526574803149606
 30
0.0
  0
VERTEX
  5
398
330
390
100
AcDbEntity
  8
1
100
AcDbVertex
100
AcDb2dVertex
 10
2.205708661417322
 20
3.507874015748031
 30
0.0
  0
VERTEX
  5
399
330
390
100
AcDbEntity
  8
1
100
AcDbVertex
100
AcDb2dVertex
 10
2.190944881889763
 20
3.481299212598425
 30
0.0
  0
VERTEX
  5
39A
330
390
100
AcDbEntity
  8
1
100
AcDbVertex
100
AcDb2dVertex
 10
2.186023622047243
 20
3.451771653543306
 30
0.0
  0
SEQEND
  5
39B
330
390
100
AcDbEntity
  8
1
  0
LINE
  5
39C
330
1F
100
AcDbEntity
  8
1
100
AcDbLine
 10
2.186023622047243
 20
3.315944881889763
 30
0.0
 11
2.186023622047243
 21
3.451771653543306
 31
0.0
  0
POLYLINE
  5
39D
330
1F
100
AcDbEntity
  8
1
100
AcDb2dPolyline
 66
     1
 10
0.0
 20
0.0
 30
0.0
  0
VERTEX
  5
39E
330
39D
100
AcDbEntity
  8
1
100
AcDbVertex
100
AcDb2dVertex
 10
2.186023622047243
 20
3.315944881889763
 30
0.0
  0
VERTEX
  5
39F
330
39D
100
AcDbEntity
  8
1
100
AcDbVertex
100
AcDb2dVertex
 10
2.190944881889763
 20
3.286417322834645
 30
0.0
  0
VERTEX
  5
3A0
330
39D
100
AcDbEntity
  8
1
100
AcDbVertex
100
AcDb2dVertex
 10
2.205708661417322
 20
3.259842519685039
 30
0.0
  0
VERTEX
  5
3A1
330
39D
100
AcDbEntity
  8
1
100
AcDbVertex
100
AcDb2dVertex
 10
2.229330708661417
 20
3.241141732283464
 30
0.0
  0
VERTEX
  5
3A2
330
39D
100
AcDbEntity
  8
1
100
AcDbVertex
100
AcDb2dVertex
 10
2.256889763779527
 20
3.230314960629921
 30
0.0
  0
VERTEX
  5
3A3
330
39D
100
AcDbEntity
  8
1
100
AcDbVertex
100
AcDb2dVertex
 10
2.287401574803149
 20
3.230314960629921
 30
0.0
  0
VERTEX
  5
3A4
330
39D
100
AcDbEntity
  8
1
100
AcDbVertex
100
AcDb2dVertex
 10
2.315944881889763
 20
3.241141732283464
 30
0.0
  0
VERTEX
  5
3A5
330
39D
100
AcDbEntity
  8
1
100
AcDbVertex
100
AcDb2dVertex
 10
2.338582677165354
 20
3.259842519685039
 30
0.0
  0
VERTEX
  5
3A6
330
39D
100
AcDbEntity
  8
1
100
AcDbVertex
100
AcDb2dVertex
 10
2.353346456692913
 20
3.286417322834645
 30
0.0
  0
VERTEX
  5
3A7
330
39D
100
AcDbEntity
  8
1
100
AcDbVertex
100
AcDb2dVertex
 10
2.359251968503937
 20
3.315944881889763
 30
0.0
  0
SEQEND
  5
3A8
330
39D
100
AcDbEntity
  8
1
  0
LINE
  5
3A9
330
1F
100
AcDbEntity
  8
1
100
AcDbLine
 10
2.359251968503937
 20
3.315944881889763
 30
0.0
 11
2.359251968503937
 21
3.451771653543306
 31
0.0
  0
LINE
  5
3AA
330
1F
100
AcDbEntity
  8
1
100
AcDbLine
 10
3.809055118110236
 20
3.835629921259842
 30
0.0
 11
3.809055118110236
 21
3.663385826771653
 31
0.0
  0
LINE
  5
3AB
330
1F
100
AcDbEntity
  8
1
100
AcDbLine
 10
3.809055118110236
 20
3.663385826771653
 30
0.0
 11
3.839566929133858
 21
3.663385826771653
 31
0.0
  0
LINE
  5
3AC
330
1F
100
AcDbEntity
  8
1
100
AcDbLine
 10
3.839566929133858
 20
3.835629921259842
 30
0.0
 11
3.839566929133858
 21
3.663385826771653
 31
0.0
  0
LINE
  5
3AD
330
1F
100
AcDbEntity
  8
1
100
AcDbLine
 10
3.809055118110236
 20
3.835629921259842
 30
0.0
 11
3.839566929133858
 21
3.835629921259842
 31
0.0
  0
LINE
  5
3AE
330
1F
100
AcDbEntity
  8
1
100
AcDbLine
 10
3.809055118110236
 20
3.099409448818897
 30
0.0
 11
3.809055118110236
 21
2.927165354330708
 31
0.0
  0
LINE
  5
3AF
330
1F
100
AcDbEntity
  8
1
100
AcDbLine
 10
3.809055118110236
 20
2.927165354330708
 30
0.0
 11
3.839566929133858
 21
2.927165354330708
 31
0.0
  0
LINE
  5
3B0
330
1F
100
AcDbEntity
  8
1
100
AcDbLine
 10
3.839566929133858
 20
3.099409448818897
 30
0.0
 11
3.839566929133858
 21
2.927165354330708
 31
0.0
  0
LINE
  5
3B1
330
1F
100
AcDbEntity
  8
1
100
AcDbLine
 10
3.809055118110236
 20
3.099409448818897
 30
0.0
 11
3.839566929133858
 21
3.099409448818897
 31
0.0
  0
LINE
  5
3B2
330
1F
100
AcDbEntity
  8
1
100
AcDbLine
 10
3.840551181102362
 20
3.838582677165354
 30
0.0
 11
3.839566929133858
 21
3.835629921259842
 31
0.0
  0
LINE
  5
3B3
330
1F
100
AcDbEntity
  8
1
100
AcDbLine
 10
3.839566929133858
 20
3.663385826771653
 30
0.0
 11
3.840551181102362
 21
3.660433070866141
 31
0.0
  0
LINE
  5
3B4
330
1F
100
AcDbEntity
  8
1
100
AcDbLine
 10
3.840551181102362
 20
3.838582677165354
 30
0.0
 11
3.840551181102362
 21
3.660433070866141
 31
0.0
  0
LINE
  5
3B5
330
1F
100
AcDbEntity
  8
1
100
AcDbLine
 10
3.808070866141732
 20
3.838582677165354
 30
0.0
 11
3.808070866141732
 21
3.835629921259842
 31
0.0
  0
LINE
  5
3B6
330
1F
100
AcDbEntity
  8
1
100
AcDbLine
 10
3.808070866141732
 20
3.835629921259842
 30
0.0
 11
3.809055118110236
 21
3.835629921259842
 31
0.0
  0
LINE
  5
3B7
330
1F
100
AcDbEntity
  8
1
100
AcDbLine
 10
3.808070866141732
 20
3.838582677165354
 30
0.0
 11
3.840551181102362
 21
3.838582677165354
 31
0.0
  0
LINE
  5
3B8
330
1F
100
AcDbEntity
  8
1
100
AcDbLine
 10
3.809055118110236
 20
3.663385826771653
 30
0.0
 11
3.808070866141732
 21
3.663385826771653
 31
0.0
  0
LINE
  5
3B9
330
1F
100
AcDbEntity
  8
1
100
AcDbLine
 10
3.808070866141732
 20
3.660433070866141
 30
0.0
 11
3.808070866141732
 21
3.663385826771653
 31
0.0
  0
LINE
  5
3BA
330
1F
100
AcDbEntity
  8
1
100
AcDbLine
 10
3.808070866141732
 20
3.660433070866141
 30
0.0
 11
3.840551181102362
 21
3.660433070866141
 31
0.0
  0
LINE
  5
3BB
330
1F
100
AcDbEntity
  8
1
100
AcDbLine
 10
3.808070866141732
 20
3.102362204724409
 30
0.0
 11
3.808070866141732
 21
3.099409448818897
 31
0.0
  0
LINE
  5
3BC
330
1F
100
AcDbEntity
  8
1
100
AcDbLine
 10
3.808070866141732
 20
3.099409448818897
 30
0.0
 11
3.809055118110236
 21
3.099409448818897
 31
0.0
  0
LINE
  5
3BD
330
1F
100
AcDbEntity
  8
1
100
AcDbLine
 10
3.840551181102362
 20
3.102362204724409
 30
0.0
 11
3.839566929133858
 21
3.099409448818897
 31
0.0
  0
LINE
  5
3BE
330
1F
100
AcDbEntity
  8
1
100
AcDbLine
 10
3.808070866141732
 20
3.102362204724409
 30
0.0
 11
3.840551181102362
 21
3.102362204724409
 31
0.0
  0
LINE
  5
3BF
330
1F
100
AcDbEntity
  8
1
100
AcDbLine
 10
3.809055118110236
 20
2.927165354330708
 30
0.0
 11
3.808070866141732
 21
2.927165354330708
 31
0.0
  0
LINE
  5
3C0
330
1F
100
AcDbEntity
  8
1
100
AcDbLine
 10
3.808070866141732
 20
2.924212598425196
 30
0.0
 11
3.808070866141732
 21
2.927165354330708
 31
0.0
  0
LINE
  5
3C1
330
1F
100
AcDbEntity
  8
1
100
AcDbLine
 10
3.808070866141732
 20
2.924212598425196
 30
0.0
 11
3.840551181102362
 21
2.924212598425196
 31
0.0
  0
LINE
  5
3C2
330
1F
100
AcDbEntity
  8
1
100
AcDbLine
 10
3.839566929133858
 20
2.927165354330708
 30
0.0
 11
3.840551181102362
 21
2.924212598425196
 31
0.0
  0
LINE
  5
3C3
330
1F
100
AcDbEntity
  8
1
100
AcDbLine
 10
3.840551181102362
 20
3.102362204724409
 30
0.0
 11
3.840551181102362
 21
2.924212598425196
 31
0.0
  0
LINE
  5
3C4
330
1F
100
AcDbEntity
  8
1
100
AcDbLine
 10
3.808070866141732
 20
3.838582677165354
 30
0.0
 11
3.808070866141732
 21
4.084645669291338
 31
0.0
  0
LINE
  5
3C5
330
1F
100
AcDbEntity
  8
1
100
AcDbLine
 10
3.840551181102362
 20
3.838582677165354
 30
0.0
 11
3.840551181102362
 21
4.084645669291338
 31
0.0
  0
LINE
  5
3C6
330
1F
100
AcDbEntity
  8
1
100
AcDbLine
 10
3.808070866141732
 20
3.4251968503937
 30
0.0
 11
3.808070866141732
 21
3.660433070866141
 31
0.0
  0
LINE
  5
3C7
330
1F
100
AcDbEntity
  8
1
100
AcDbLine
 10
3.840551181102362
 20
3.4251968503937
 30
0.0
 11
3.840551181102362
 21
3.660433070866141
 31
0.0
  0
LINE
  5
3C8
330
1F
100
AcDbEntity
  8
1
100
AcDbLine
 10
3.853346456692913
 20
4.084645669291338
 30
0.0
 11
3.853346456692913
 21
3.4251968503937
 31
0.0
  0
LINE
  5
3C9
330
1F
100
AcDbEntity
  8
1
100
AcDbLine
 10
3.896653543307086
 20
3.4251968503937
 30
0.0
 11
3.896653543307086
 21
4.084645669291338
 31
0.0
  0
LINE
  5
3CA
330
1F
100
AcDbEntity
  8
1
100
AcDbLine
 10
3.953740157480314
 20
3.4251968503937
 30
0.0
 11
3.953740157480314
 21
4.084645669291338
 31
0.0
  0
LINE
  5
3CB
330
1F
100
AcDbEntity
  8
1
100
AcDbLine
 10
3.808070866141732
 20
3.342519685039369
 30
0.0
 11
3.808070866141732
 21
3.102362204724409
 31
0.0
  0
LINE
  5
3CC
330
1F
100
AcDbEntity
  8
1
100
AcDbLine
 10
3.808070866141732
 20
2.924212598425196
 30
0.0
 11
3.808070866141732
 21
2.683070866141732
 31
0.0
  0
LINE
  5
3CD
330
1F
100
AcDbEntity
  8
1
100
AcDbLine
 10
3.840551181102362
 20
3.102362204724409
 30
0.0
 11
3.840551181102362
 21
3.342519685039369
 31
0.0
  0
LINE
  5
3CE
330
1F
100
AcDbEntity
  8
1
100
AcDbLine
 10
3.840551181102362
 20
2.683070866141732
 30
0.0
 11
3.840551181102362
 21
2.924212598425196
 31
0.0
  0
LINE
  5
3CF
330
1F
100
AcDbEntity
  8
1
100
AcDbLine
 10
3.853346456692913
 20
3.342519685039369
 30
0.0
 11
3.853346456692913
 21
2.683070866141732
 31
0.0
  0
LINE
  5
3D0
330
1F
100
AcDbEntity
  8
1
100
AcDbLine
 10
3.896653543307086
 20
3.342519685039369
 30
0.0
 11
3.896653543307086
 21
2.683070866141732
 31
0.0
  0
LINE
  5
3D1
330
1F
100
AcDbEntity
  8
1
100
AcDbLine
 10
3.953740157480314
 20
2.683070866141732
 30
0.0
 11
3.953740157480314
 21
3.342519685039369
 31
0.0
  0
LINE
  5
3D2
330
1F
100
AcDbEntity
  8
1
100
AcDbLine
 10
1.649606299212598
 20
1.826771653543307
 30
0.0
 11
6.611220472440944
 21
1.826771653543307
 31
0.0
  0
POLYLINE
  5
3D3
330
1F
100
AcDbEntity
  8
1
100
AcDb2dPolyline
 66
     1
 10
0.0
 20
0.0
 30
0.0
  0
VERTEX
  5
3D4
330
3D3
100
AcDbEntity
  8
1
100
AcDbVertex
100
AcDb2dVertex
 10
1.649606299212598
 20
1.826771653543307
 30
0.0
  0
VERTEX
  5
3D5
330
3D3
100
AcDbEntity
  8
1
100
AcDbVertex
100
AcDb2dVertex
 10
1.624015748031496
 20
1.831692913385826
 30
0.0
  0
VERTEX
  5
3D6
330
3D3
100
AcDbEntity
  8
1
100
AcDbVertex
100
AcDb2dVertex
 10
1.601377952755905
 20
1.846456692913385
 30
0.0
  0
VERTEX
  5
3D7
330
3D3
100
AcDbEntity
  8
1
100
AcDbVertex
100
AcDb2dVertex
 10
1.58759842519685
 20
1.868110236220472
 30
0.0
  0
VERTEX
  5
3D8
330
3D3
100
AcDbEntity
  8
1
100
AcDbVertex
100
AcDb2dVertex
 10
1.581692913385826
 20
1.894685039370078
 30
0.0
  0
SEQEND
  5
3D9
330
3D3
100
AcDbEntity
  8
1
  0
LINE
  5
3DA
330
1F
100
AcDbEntity
  8
1
100
AcDbLine
 10
1.581692913385826
 20
4.873031496062991
 30
0.0
 11
1.581692913385826
 21
1.894685039370078
 31
0.0
  0
POLYLINE
  5
3DB
330
1F
100
AcDbEntity
  8
1
100
AcDb2dPolyline
 66
     1
 10
0.0
 20
0.0
 30
0.0
  0
VERTEX
  5
3DC
330
3DB
100
AcDbEntity
  8
1
100
AcDbVertex
100
AcDb2dVertex
 10
1.581692913385826
 20
4.873031496062991
 30
0.0
  0
VERTEX
  5
3DD
330
3DB
100
AcDbEntity
  8
1
100
AcDbVertex
100
AcDb2dVertex
 10
1.58759842519685
 20
4.899606299212598
 30
0.0
  0
VERTEX
  5
3DE
330
3DB
100
AcDbEntity
  8
1
100
AcDbVertex
100
AcDb2dVertex
 10
1.601377952755905
 20
4.921259842519685
 30
0.0
  0
VERTEX
  5
3DF
330
3DB
100
AcDbEntity
  8
1
100
AcDbVertex
100
AcDb2dVertex
 10
1.624015748031496
 20
4.936023622047244
 30
0.0
  0
VERTEX
  5
3E0
330
3DB
100
AcDbEntity
  8
1
100
AcDbVertex
100
AcDb2dVertex
 10
1.649606299212598
 20
4.940944881889763
 30
0.0
  0
SEQEND
  5
3E1
330
3DB
100
AcDbEntity
  8
1
  0
LINE
  5
3E2
330
1F
100
AcDbEntity
  8
1
100
AcDbLine
 10
6.611220472440944
 20
4.940944881889763
 30
0.0
 11
1.649606299212598
 21
4.940944881889763
 31
0.0
  0
POLYLINE
  5
3E3
330
1F
100
AcDbEntity
  8
1
100
AcDb2dPolyline
 66
     1
 10
0.0
 20
0.0
 30
0.0
  0
VERTEX
  5
3E4
330
3E3
100
AcDbEntity
  8
1
100
AcDbVertex
100
AcDb2dVertex
 10
6.611220472440944
 20
4.940944881889763
 30
0.0
  0
VERTEX
  5
3E5
330
3E3
100
AcDbEntity
  8
1
100
AcDbVertex
100
AcDb2dVertex
 10
6.636811023622047
 20
4.936023622047244
 30
0.0
  0
VERTEX
  5
3E6
330
3E3
100
AcDbEntity
  8
1
100
AcDbVertex
100
AcDb2dVertex
 10
6.658464566929133
 20
4.921259842519685
 30
0.0
  0
VERTEX
  5
3E7
330
3E3
100
AcDbEntity
  8
1
100
AcDbVertex
100
AcDb2dVertex
 10
6.673228346456692
 20
4.899606299212598
 30
0.0
  0
VERTEX
  5
3E8
330
3E3
100
AcDbEntity
  8
1
100
AcDbVertex
100
AcDb2dVertex
 10
6.679133858267716
 20
4.873031496062991
 30
0.0
  0
SEQEND
  5
3E9
330
3E3
100
AcDbEntity
  8
1
  0
LINE
  5
3EA
330
1F
100
AcDbEntity
  8
1
100
AcDbLine
 10
6.679133858267716
 20
1.894685039370078
 30
0.0
 11
6.679133858267716
 21
4.873031496062991
 31
0.0
  0
POLYLINE
  5
3EB
330
1F
100
AcDbEntity
  8
1
100
AcDb2dPolyline
 66
     1
 10
0.0
 20
0.0
 30
0.0
  0
VERTEX
  5
3EC
330
3EB
100
AcDbEntity
  8
1
100
AcDbVertex
100
AcDb2dVertex
 10
6.679133858267716
 20
1.894685039370078
 30
0.0
  0
VERTEX
  5
3ED
330
3EB
100
AcDbEntity
  8
1
100
AcDbVertex
100
AcDb2dVertex
 10
6.673228346456692
 20
1.868110236220472
 30
0.0
  0
VERTEX
  5
3EE
330
3EB
100
AcDbEntity
  8
1
100
AcDbVertex
100
AcDb2dVertex
 10
6.658464566929133
 20
1.846456692913385
 30
0.0
  0
VERTEX
  5
3EF
330
3EB
100
AcDbEntity
  8
1
100
AcDbVertex
100
AcDb2dVertex
 10
6.636811023622047
 20
1.831692913385826
 30
0.0
  0
VERTEX
  5
3F0
330
3EB
100
AcDbEntity
  8
1
100
AcDbVertex
100
AcDb2dVertex
 10
6.611220472440944
 20
1.826771653543307
 30
0.0
  0
SEQEND
  5
3F1
330
3EB
100
AcDbEntity
  8
1
  0
LINE
  5
3F2
330
1F
100
AcDbEntity
  8
1
100
AcDbLine
 10
1.581692913385826
 20
1.894685039370078
 30
0.0
 11
1.585629921259842
 21
1.89763779527559
 31
0.0
  0
LINE
  5
3F3
330
1F
100
AcDbEntity
  8
1
100
AcDbLine
 10
1.585629921259842
 20
4.87007874015748
 30
0.0
 11
1.581692913385826
 21
4.873031496062991
 31
0.0
  0
LINE
  5
3F4
330
1F
100
AcDbEntity
  8
1
100
AcDbLine
 10
1.653543307086614
 20
1.830708661417322
 30
0.0
 11
1.649606299212598
 21
1.826771653543307
 31
0.0
  0
LINE
  5
3F5
330
1F
100
AcDbEntity
  8
1
100
AcDbLine
 10
6.611220472440944
 20
1.826771653543307
 30
0.0
 11
6.607283464566928
 21
1.830708661417322
 31
0.0
  0
LINE
  5
3F6
330
1F
100
AcDbEntity
  8
1
100
AcDbLine
 10
1.649606299212598
 20
4.940944881889763
 30
0.0
 11
1.653543307086614
 21
4.937992125984251
 31
0.0
  0
LINE
  5
3F7
330
1F
100
AcDbEntity
  8
1
100
AcDbLine
 10
6.607283464566928
 20
4.937992125984251
 30
0.0
 11
6.611220472440944
 21
4.940944881889763
 31
0.0
  0
LINE
  5
3F8
330
1F
100
AcDbEntity
  8
1
100
AcDbLine
 10
6.6751968503937
 20
1.89763779527559
 30
0.0
 11
6.679133858267716
 21
1.894685039370078
 31
0.0
  0
LINE
  5
3F9
330
1F
100
AcDbEntity
  8
1
100
AcDbLine
 10
6.679133858267716
 20
4.873031496062991
 30
0.0
 11
6.6751968503937
 21
4.87007874015748
 31
0.0
  0
POLYLINE
  5
3FA
330
1F
100
AcDbEntity
  8
1
100
AcDb2dPolyline
 66
     1
 10
0.0
 20
0.0
 30
0.0
  0
VERTEX
  5
3FB
330
3FA
100
AcDbEntity
  8
1
100
AcDbVertex
100
AcDb2dVertex
 10
1.585629921259842
 20
8.506889763779527
 30
0.0
  0
VERTEX
  5
3FC
330
3FA
100
AcDbEntity
  8
1
100
AcDbVertex
100
AcDb2dVertex
 10
1.591535433070866
 20
8.549212598425196
 30
0.0
  0
VERTEX
  5
3FD
330
3FA
100
AcDbEntity
  8
1
100
AcDbVertex
100
AcDb2dVertex
 10
1.604330708661417
 20
8.590551181102362
 30
0.0
  0
VERTEX
  5
3FE
330
3FA
100
AcDbEntity
  8
1
100
AcDbVertex
100
AcDb2dVertex
 10
1.624015748031496
 20
8.627952755905511
 30
0.0
  0
VERTEX
  5
3FF
330
3FA
100
AcDbEntity
  8
1
100
AcDbVertex
100
AcDb2dVertex
 10
1.649606299212598
 20
8.662401574803149
 30
0.0
  0
VERTEX
  5
400
330
3FA
100
AcDbEntity
  8
1
100
AcDbVertex
100
AcDb2dVertex
 10
1.681102362204724
 20
8.691929133858266
 30
0.0
  0
VERTEX
  5
401
330
3FA
100
AcDbEntity
  8
1
100
AcDbVertex
100
AcDb2dVertex
 10
1.716535433070866
 20
8.716535433070866
 30
0.0
  0
VERTEX
  5
402
330
3FA
100
AcDbEntity
  8
1
100
AcDbVertex
100
AcDb2dVertex
 10
1.755905511811023
 20
8.733267716535433
 30
0.0
  0
VERTEX
  5
403
330
3FA
100
AcDbEntity
  8
1
100
AcDbVertex
100
AcDb2dVertex
 10
1.797244094488188
 20
8.744094488188975
 30
0.0
  0
VERTEX
  5
404
330
3FA
100
AcDbEntity
  8
1
100
AcDbVertex
100
AcDb2dVertex
 10
1.840551181102362
 20
8.748031496062992
 30
0.0
  0
SEQEND
  5
405
330
3FA
100
AcDbEntity
  8
1
  0
POLYLINE
  5
406
330
1F
100
AcDbEntity
  8
1
100
AcDb2dPolyline
 66
     1
 10
0.0
 20
0.0
 30
0.0
  0
VERTEX
  5
407
330
406
100
AcDbEntity
  8
1
100
AcDbVertex
100
AcDb2dVertex
 10
1.585629921259842
 20
8.506889763779527
 30
0.0
  0
VERTEX
  5
408
330
406
100
AcDbEntity
  8
1
100
AcDbVertex
100
AcDb2dVertex
 10
1.590551181102362
 20
8.507874015748031
 30
0.0
  0
VERTEX
  5
409
330
406
100
AcDbEntity
  8
1
100
AcDbVertex
100
AcDb2dVertex
 10
1.605314960629921
 20
8.507874015748031
 30
0.0
  0
VERTEX
  5
40A
330
406
100
AcDbEntity
  8
1
100
AcDbVertex
100
AcDb2dVertex
 10
1.627952755905511
 20
8.507874015748031
 30
0.0
  0
VERTEX
  5
40B
330
406
100
AcDbEntity
  8
1
100
AcDbVertex
100
AcDb2dVertex
 10
1.653543307086614
 20
8.506889763779527
 30
0.0
  0
SEQEND
  5
40C
330
406
100
AcDbEntity
  8
1
  0
POLYLINE
  5
40D
330
1F
100
AcDbEntity
  8
1
100
AcDb2dPolyline
 66
     1
 10
0.0
 20
0.0
 30
0.0
  0
VERTEX
  5
40E
330
40D
100
AcDbEntity
  8
1
100
AcDbVertex
100
AcDb2dVertex
 10
1.840551181102362
 20
8.748031496062992
 30
0.0
  0
VERTEX
  5
40F
330
40D
100
AcDbEntity
  8
1
100
AcDbVertex
100
AcDb2dVertex
 10
1.809055118110236
 20
8.744094488188975
 30
0.0
  0
VERTEX
  5
410
330
40D
100
AcDbEntity
  8
1
100
AcDbVertex
100
AcDb2dVertex
 10
1.778543307086614
 20
8.733267716535433
 30
0.0
  0
VERTEX
  5
411
330
40D
100
AcDbEntity
  8
1
100
AcDbVertex
100
AcDb2dVertex
 10
1.75
 20
8.716535433070866
 30
0.0
  0
VERTEX
  5
412
330
40D
100
AcDbEntity
  8
1
100
AcDbVertex
100
AcDb2dVertex
 10
1.723425196850393
 20
8.691929133858266
 30
0.0
  0
VERTEX
  5
413
330
40D
100
AcDbEntity
  8
1
100
AcDbVertex
100
AcDb2dVertex
 10
1.700787401574803
 20
8.662401574803149
 30
0.0
  0
VERTEX
  5
414
330
40D
100
AcDbEntity
  8
1
100
AcDbVertex
100
AcDb2dVertex
 10
1.682086614173228
 20
8.627952755905511
 30
0.0
  0
VERTEX
  5
415
330
40D
100
AcDbEntity
  8
1
100
AcDbVertex
100
AcDb2dVertex
 10
1.667322834645669
 20
8.590551181102362
 30
0.0
  0
VERTEX
  5
416
330
40D
100
AcDbEntity
  8
1
100
AcDbVertex
100
AcDb2dVertex
 10
1.657480314960629
 20
8.549212598425196
 30
0.0
  0
VERTEX
  5
417
330
40D
100
AcDbEntity
  8
1
100
AcDbVertex
100
AcDb2dVertex
 10
1.653543307086614
 20
8.506889763779527
 30
0.0
  0
SEQEND
  5
418
330
40D
100
AcDbEntity
  8
1
  0
LINE
  5
419
330
1F
100
AcDbEntity
  8
1
100
AcDbLine
 10
6.607283464566928
 20
8.506889763779527
 30
0.0
 11
1.653543307086614
 21
8.506889763779527
 31
0.0
  0
POLYLINE
  5
41A
330
1F
100
AcDbEntity
  8
1
100
AcDb2dPolyline
 66
     1
 10
0.0
 20
0.0
 30
0.0
  0
VERTEX
  5
41B
330
41A
100
AcDbEntity
  8
1
100
AcDbVertex
100
AcDb2dVertex
 10
6.607283464566928
 20
8.506889763779527
 30
0.0
  0
VERTEX
  5
41C
330
41A
100
AcDbEntity
  8
1
100
AcDbVertex
100
AcDb2dVertex
 10
6.603346456692912
 20
8.549212598425196
 30
0.0
  0
VERTEX
  5
41D
330
41A
100
AcDbEntity
  8
1
100
AcDbVertex
100
AcDb2dVertex
 10
6.593503937007874
 20
8.590551181102362
 30
0.0
  0
VERTEX
  5
41E
330
41A
100
AcDbEntity
  8
1
100
AcDbVertex
100
AcDb2dVertex
 10
6.578740157480314
 20
8.627952755905511
 30
0.0
  0
VERTEX
  5
41F
330
41A
100
AcDbEntity
  8
1
100
AcDbVertex
100
AcDb2dVertex
 10
6.560039370078739
 20
8.662401574803149
 30
0.0
  0
VERTEX
  5
420
330
41A
100
AcDbEntity
  8
1
100
AcDbVertex
100
AcDb2dVertex
 10
6.537401574803149
 20
8.691929133858266
 30
0.0
  0
VERTEX
  5
421
330
41A
100
AcDbEntity
  8
1
100
AcDbVertex
100
AcDb2dVertex
 10
6.510826771653543
 20
8.716535433070866
 30
0.0
  0
VERTEX
  5
422
330
41A
100
AcDbEntity
  8
1
100
AcDbVertex
100
AcDb2dVertex
 10
6.482283464566928
 20
8.733267716535433
 30
0.0
  0
VERTEX
  5
423
330
41A
100
AcDbEntity
  8
1
100
AcDbVertex
100
AcDb2dVertex
 10
6.451771653543307
 20
8.744094488188975
 30
0.0
  0
VERTEX
  5
424
330
41A
100
AcDbEntity
  8
1
100
AcDbVertex
100
AcDb2dVertex
 10
6.42027559055118
 20
8.748031496062992
 30
0.0
  0
SEQEND
  5
425
330
41A
100
AcDbEntity
  8
1
  0
LINE
  5
426
330
1F
100
AcDbEntity
  8
1
100
AcDbLine
 10
1.840551181102362
 20
8.748031496062992
 30
0.0
 11
6.42027559055118
 21
8.748031496062992
 31
0.0
  0
LINE
  5
427
330
1F
100
AcDbEntity
  8
1
100
AcDbLine
 10
5.432086614173228
 20
8.378937007874014
 30
0.0
 11
5.374015748031496
 21
8.437007874015748
 31
0.0
  0
LINE
  5
428
330
1F
100
AcDbEntity
  8
1
100
AcDbLine
 10
4.019685039370078
 20
8.437007874015748
 30
0.0
 11
4.015748031496062
 21
8.363188976377951
 31
0.0
  0
LINE
  5
429
330
1F
100
AcDbEntity
  8
1
100
AcDbLine
 10
3.808070866141732
 20
8.378937007874014
 30
0.0
 11
3.75
 21
8.437007874015748
 31
0.0
  0
POLYLINE
  5
42A
330
1F
100
AcDbEntity
  8
1
100
AcDb2dPolyline
 66
     1
 10
0.0
 20
0.0
 30
0.0
  0
VERTEX
  5
42B
330
42A
100
AcDbEntity
  8
1
100
AcDbVertex
100
AcDb2dVertex
 10
5.432086614173228
 20
8.378937007874014
 30
0.0
  0
VERTEX
  5
42C
330
42A
100
AcDbEntity
  8
1
100
AcDbVertex
100
AcDb2dVertex
 10
5.436023622047244
 20
8.378937007874014
 30
0.0
  0
VERTEX
  5
42D
330
42A
100
AcDbEntity
  8
1
100
AcDbVertex
100
AcDb2dVertex
 10
5.443897637795275
 20
8.381889763779527
 30
0.0
  0
SEQEND
  5
42E
330
42A
100
AcDbEntity
  8
1
  0
LINE
  5
42F
330
1F
100
AcDbEntity
  8
1
100
AcDbLine
 10
5.389763779527559
 20
8.437007874015748
 30
0.0
 11
5.443897637795275
 21
8.381889763779527
 31
0.0
  0
LINE
  5
430
330
1F
100
AcDbEntity
  8
1
100
AcDbLine
 10
5.443897637795275
 20
8.381889763779527
 30
0.0
 11
5.443897637795275
 21
8.320866141732283
 31
0.0
  0
POLYLINE
  5
431
330
1F
100
AcDbEntity
  8
1
100
AcDb2dPolyline
 66
     1
 10
0.0
 20
0.0
 30
0.0
  0
VERTEX
  5
432
330
431
100
AcDbEntity
  8
1
100
AcDbVertex
100
AcDb2dVertex
 10
5.443897637795275
 20
8.320866141732283
 30
0.0
  0
VERTEX
  5
433
330
431
100
AcDbEntity
  8
1
100
AcDbVertex
100
AcDb2dVertex
 10
5.450787401574802
 20
8.30511811023622
 30
0.0
  0
VERTEX
  5
434
330
431
100
AcDbEntity
  8
1
100
AcDbVertex
100
AcDb2dVertex
 10
5.466535433070865
 20
8.298228346456692
 30
0.0
  0
SEQEND
  5
435
330
431
100
AcDbEntity
  8
1
  0
LINE
  5
436
330
1F
100
AcDbEntity
  8
1
100
AcDbLine
 10
5.466535433070865
 20
8.298228346456692
 30
0.0
 11
5.560039370078739
 21
8.298228346456692
 31
0.0
  0
POLYLINE
  5
437
330
1F
100
AcDbEntity
  8
1
100
AcDb2dPolyline
 66
     1
 10
0.0
 20
0.0
 30
0.0
  0
VERTEX
  5
438
330
437
100
AcDbEntity
  8
1
100
AcDbVertex
100
AcDb2dVertex
 10
5.560039370078739
 20
8.298228346456692
 30
0.0
  0
VERTEX
  5
439
330
437
100
AcDbEntity
  8
1
100
AcDbVertex
100
AcDb2dVertex
 10
5.585629921259842
 20
8.303149606299212
 30
0.0
  0
VERTEX
  5
43A
330
437
100
AcDbEntity
  8
1
100
AcDbVertex
100
AcDb2dVertex
 10
5.607283464566928
 20
8.316929133858268
 30
0.0
  0
VERTEX
  5
43B
330
437
100
AcDbEntity
  8
1
100
AcDbVertex
100
AcDb2dVertex
 10
5.622047244094487
 20
8.33759842519685
 30
0.0
  0
VERTEX
  5
43C
330
437
100
AcDbEntity
  8
1
100
AcDbVertex
100
AcDb2dVertex
 10
5.627952755905512
 20
8.363188976377951
 30
0.0
  0
SEQEND
  5
43D
330
437
100
AcDbEntity
  8
1
  0
LINE
  5
43E
330
1F
100
AcDbEntity
  8
1
100
AcDbLine
 10
5.627952755905512
 20
8.363188976377951
 30
0.0
 11
5.631889763779527
 21
8.437007874015748
 31
0.0
  0
POLYLINE
  5
43F
330
1F
100
AcDbEntity
  8
1
100
AcDb2dPolyline
 66
     1
 10
0.0
 20
0.0
 30
0.0
  0
VERTEX
  5
440
330
43F
100
AcDbEntity
  8
1
100
AcDbVertex
100
AcDb2dVertex
 10
3.808070866141732
 20
8.378937007874014
 30
0.0
  0
VERTEX
  5
441
330
43F
100
AcDbEntity
  8
1
100
AcDbVertex
100
AcDb2dVertex
 10
3.812007874015748
 20
8.378937007874014
 30
0.0
  0
VERTEX
  5
442
330
43F
100
AcDbEntity
  8
1
100
AcDbVertex
100
AcDb2dVertex
 10
3.819881889763779
 20
8.381889763779527
 30
0.0
  0
SEQEND
  5
443
330
43F
100
AcDbEntity
  8
1
  0
LINE
  5
444
330
1F
100
AcDbEntity
  8
1
100
AcDbLine
 10
3.765748031496062
 20
8.437007874015748
 30
0.0
 11
3.819881889763779
 21
8.381889763779527
 31
0.0
  0
LINE
  5
445
330
1F
100
AcDbEntity
  8
1
100
AcDbLine
 10
3.819881889763779
 20
8.381889763779527
 30
0.0
 11
3.819881889763779
 21
8.320866141732283
 31
0.0
  0
POLYLINE
  5
446
330
1F
100
AcDbEntity
  8
1
100
AcDb2dPolyline
 66
     1
 10
0.0
 20
0.0
 30
0.0
  0
VERTEX
  5
447
330
446
100
AcDbEntity
  8
1
100
AcDbVertex
100
AcDb2dVertex
 10
3.819881889763779
 20
8.320866141732283
 30
0.0
  0
VERTEX
  5
448
330
446
100
AcDbEntity
  8
1
100
AcDbVertex
100
AcDb2dVertex
 10
3.826771653543307
 20
8.30511811023622
 30
0.0
  0
VERTEX
  5
449
330
446
100
AcDbEntity
  8
1
100
AcDbVertex
100
AcDb2dVertex
 10
3.84251968503937
 20
8.298228346456692
 30
0.0
  0
SEQEND
  5
44A
330
446
100
AcDbEntity
  8
1
  0
LINE
  5
44B
330
1F
100
AcDbEntity
  8
1
100
AcDbLine
 10
3.84251968503937
 20
8.298228346456692
 30
0.0
 11
3.937007874015748
 21
8.298228346456692
 31
0.0
  0
POLYLINE
  5
44C
330
1F
100
AcDbEntity
  8
1
100
AcDb2dPolyline
 66
     1
 10
0.0
 20
0.0
 30
0.0
  0
VERTEX
  5
44D
330
44C
100
AcDbEntity
  8
1
100
AcDbVertex
100
AcDb2dVertex
 10
3.937007874015748
 20
8.298228346456692
 30
0.0
  0
VERTEX
  5
44E
330
44C
100
AcDbEntity
  8
1
100
AcDbVertex
100
AcDb2dVertex
 10
3.961614173228346
 20
8.303149606299212
 30
0.0
  0
VERTEX
  5
44F
330
44C
100
AcDbEntity
  8
1
100
AcDbVertex
100
AcDb2dVertex
 10
3.983267716535432
 20
8.316929133858268
 30
0.0
  0
VERTEX
  5
450
330
44C
100
AcDbEntity
  8
1
100
AcDbVertex
100
AcDb2dVertex
 10
3.998031496062992
 20
8.33759842519685
 30
0.0
  0
VERTEX
  5
451
330
44C
100
AcDbEntity
  8
1
100
AcDbVertex
100
AcDb2dVertex
 10
4.004921259842519
 20
8.363188976377951
 30
0.0
  0
SEQEND
  5
452
330
44C
100
AcDbEntity
  8
1
  0
LINE
  5
453
330
1F
100
AcDbEntity
  8
1
100
AcDbLine
 10
4.004921259842519
 20
8.363188976377951
 30
0.0
 11
4.007874015748031
 21
8.437007874015748
 31
0.0
  0
POLYLINE
  5
454
330
1F
100
AcDbEntity
  8
1
100
AcDb2dPolyline
 66
     1
 10
0.0
 20
0.0
 30
0.0
  0
VERTEX
  5
455
330
454
100
AcDbEntity
  8
1
100
AcDbVertex
100
AcDb2dVertex
 10
4.004921259842519
 20
8.363188976377951
 30
0.0
  0
VERTEX
  5
456
330
454
100
AcDbEntity
  8
1
100
AcDbVertex
100
AcDb2dVertex
 10
4.01279527559055
 20
8.362204724409448
 30
0.0
  0
VERTEX
  5
457
330
454
100
AcDbEntity
  8
1
100
AcDbVertex
100
AcDb2dVertex
 10
4.015748031496062
 20
8.363188976377951
 30
0.0
  0
SEQEND
  5
458
330
454
100
AcDbEntity
  8
1
  0
POLYLINE
  5
459
330
1F
100
AcDbEntity
  8
1
100
AcDb2dPolyline
 66
     1
 10
0.0
 20
0.0
 30
0.0
  0
VERTEX
  5
45A
330
459
100
AcDbEntity
  8
1
100
AcDbVertex
100
AcDb2dVertex
 10
6.607283464566928
 20
8.506889763779527
 30
0.0
  0
VERTEX
  5
45B
330
459
100
AcDbEntity
  8
1
100
AcDbVertex
100
AcDb2dVertex
 10
6.632874015748031
 20
8.507874015748031
 30
0.0
  0
VERTEX
  5
45C
330
459
100
AcDbEntity
  8
1
100
AcDbVertex
100
AcDb2dVertex
 10
6.655511811023622
 20
8.507874015748031
 30
0.0
  0
VERTEX
  5
45D
330
459
100
AcDbEntity
  8
1
100
AcDbVertex
100
AcDb2dVertex
 10
6.67027559055118
 20
8.507874015748031
 30
0.0
  0
VERTEX
  5
45E
330
459
100
AcDbEntity
  8
1
100
AcDbVertex
100
AcDb2dVertex
 10
6.6751968503937
 20
8.506889763779527
 30
0.0
  0
SEQEND
  5
45F
330
459
100
AcDbEntity
  8
1
  0
POLYLINE
  5
460
330
1F
100
AcDbEntity
  8
1
100
AcDb2dPolyline
 66
     1
 10
0.0
 20
0.0
 30
0.0
  0
VERTEX
  5
461
330
460
100
AcDbEntity
  8
1
100
AcDbVertex
100
AcDb2dVertex
 10
6.42027559055118
 20
8.748031496062992
 30
0.0
  0
VERTEX
  5
462
330
460
100
AcDbEntity
  8
1
100
AcDbVertex
100
AcDb2dVertex
 10
6.463582677165354
 20
8.744094488188975
 30
0.0
  0
VERTEX
  5
463
330
460
100
AcDbEntity
  8
1
100
AcDbVertex
100
AcDb2dVertex
 10
6.504921259842519
 20
8.733267716535433
 30
0.0
  0
VERTEX
  5
464
330
460
100
AcDbEntity
  8
1
100
AcDbVertex
100
AcDb2dVertex
 10
6.544291338582676
 20
8.716535433070866
 30
0.0
  0
VERTEX
  5
465
330
460
100
AcDbEntity
  8
1
100
AcDbVertex
100
AcDb2dVertex
 10
6.579724409448818
 20
8.691929133858266
 30
0.0
  0
VERTEX
  5
466
330
460
100
AcDbEntity
  8
1
100
AcDbVertex
100
AcDb2dVertex
 10
6.611220472440944
 20
8.662401574803149
 30
0.0
  0
VERTEX
  5
467
330
460
100
AcDbEntity
  8
1
100
AcDbVertex
100
AcDb2dVertex
 10
6.636811023622047
 20
8.627952755905511
 30
0.0
  0
VERTEX
  5
468
330
460
100
AcDbEntity
  8
1
100
AcDbVertex
100
AcDb2dVertex
 10
6.656496062992125
 20
8.590551181102362
 30
0.0
  0
VERTEX
  5
469
330
460
100
AcDbEntity
  8
1
100
AcDbVertex
100
AcDb2dVertex
 10
6.669291338582676
 20
8.549212598425196
 30
0.0
  0
VERTEX
  5
46A
330
460
100
AcDbEntity
  8
1
100
AcDbVertex
100
AcDb2dVertex
 10
6.6751968503937
 20
8.506889763779527
 30
0.0
  0
SEQEND
  5
46B
330
460
100
AcDbEntity
  8
1
  0
LINE
  5
46C
330
1F
100
AcDbEntity
  8
1
100
AcDbLine
 10
2.674212598425196
 20
8.748031496062992
 30
0.0
 11
3.27755905511811
 21
9.351377952755905
 31
0.0
  0
POLYLINE
  5
46D
330
1F
100
AcDbEntity
  8
1
100
AcDb2dPolyline
 66
     1
 10
0.0
 20
0.0
 30
0.0
  0
VERTEX
  5
46E
330
46D
100
AcDbEntity
  8
1
100
AcDbVertex
100
AcDb2dVertex
 10
3.27755905511811
 20
9.351377952755905
 30
0.0
  0
VERTEX
  5
46F
330
46D
100
AcDbEntity
  8
1
100
AcDbVertex
100
AcDb2dVertex
 10
3.304133858267716
 20
9.371062992125983
 30
0.0
  0
VERTEX
  5
470
330
46D
100
AcDbEntity
  8
1
100
AcDbVertex
100
AcDb2dVertex
 10
3.334645669291338
 20
9.380905511811024
 30
0.0
  0
VERTEX
  5
471
330
46D
100
AcDbEntity
  8
1
100
AcDbVertex
100
AcDb2dVertex
 10
3.368110236220472
 20
9.380905511811024
 30
0.0
  0
VERTEX
  5
472
330
46D
100
AcDbEntity
  8
1
100
AcDbVertex
100
AcDb2dVertex
 10
3.399606299212598
 20
9.371062992125983
 30
0.0
  0
VERTEX
  5
473
330
46D
100
AcDbEntity
  8
1
100
AcDbVertex
100
AcDb2dVertex
 10
3.426181102362204
 20
9.351377952755905
 30
0.0
  0
SEQEND
  5
474
330
46D
100
AcDbEntity
  8
1
  0
LINE
  5
475
330
1F
100
AcDbEntity
  8
1
100
AcDbLine
 10
3.426181102362204
 20
9.351377952755905
 30
0.0
 11
4.029527559055117
 21
8.748031496062992
 31
0.0
  0
LINE
  5
476
330
1F
100
AcDbEntity
  8
1
100
AcDbLine
 10
4.298228346456692
 20
8.748031496062992
 30
0.0
 11
4.900590551181101
 21
9.351377952755905
 31
0.0
  0
POLYLINE
  5
477
330
1F
100
AcDbEntity
  8
1
100
AcDb2dPolyline
 66
     1
 10
0.0
 20
0.0
 30
0.0
  0
VERTEX
  5
478
330
477
100
AcDbEntity
  8
1
100
AcDbVertex
100
AcDb2dVertex
 10
4.900590551181101
 20
9.351377952755905
 30
0.0
  0
VERTEX
  5
479
330
477
100
AcDbEntity
  8
1
100
AcDbVertex
100
AcDb2dVertex
 10
4.927165354330708
 20
9.371062992125983
 30
0.0
  0
VERTEX
  5
47A
330
477
100
AcDbEntity
  8
1
100
AcDbVertex
100
AcDb2dVertex
 10
4.958661417322834
 20
9.380905511811024
 30
0.0
  0
VERTEX
  5
47B
330
477
100
AcDbEntity
  8
1
100
AcDbVertex
100
AcDb2dVertex
 10
4.992125984251968
 20
9.380905511811024
 30
0.0
  0
VERTEX
  5
47C
330
477
100
AcDbEntity
  8
1
100
AcDbVertex
100
AcDb2dVertex
 10
5.023622047244094
 20
9.371062992125983
 30
0.0
  0
VERTEX
  5
47D
330
477
100
AcDbEntity
  8
1
100
AcDbVertex
100
AcDb2dVertex
 10
5.0501968503937
 20
9.351377952755905
 30
0.0
  0
SEQEND
  5
47E
330
477
100
AcDbEntity
  8
1
  0
LINE
  5
47F
330
1F
100
AcDbEntity
  8
1
100
AcDbLine
 10
5.0501968503937
 20
9.351377952755905
 30
0.0
 11
5.653543307086613
 21
8.748031496062992
 31
0.0
  0
LINE
  5
480
330
1F
100
AcDbEntity
  8
1
100
AcDbLine
 10
3.88779527559055
 20
8.748031496062992
 30
0.0
 11
3.351377952755905
 21
9.284448818897637
 31
0.0
  0
LINE
  5
481
330
1F
100
AcDbEntity
  8
1
100
AcDbLine
 10
3.351377952755905
 20
9.284448818897637
 30
0.0
 11
2.815944881889763
 21
8.748031496062992
 31
0.0
  0
LINE
  5
482
330
1F
100
AcDbEntity
  8
1
100
AcDbLine
 10
5.511811023622047
 20
8.748031496062992
 30
0.0
 11
4.975393700787401
 21
9.284448818897637
 31
0.0
  0
LINE
  5
483
330
1F
100
AcDbEntity
  8
1
100
AcDbLine
 10
4.975393700787401
 20
9.284448818897637
 30
0.0
 11
4.438976377952755
 21
8.748031496062992
 31
0.0
  0
POLYLINE
  5
484
330
1F
100
AcDbEntity
  8
1
100
AcDb2dPolyline
 66
     1
 10
0.0
 20
0.0
 30
0.0
  0
VERTEX
  5
485
330
484
100
AcDbEntity
  8
1
100
AcDbVertex
100
AcDb2dVertex
 10
4.975393700787401
 20
9.284448818897637
 30
0.0
  0
VERTEX
  5
486
330
484
100
AcDbEntity
  8
1
100
AcDbVertex
100
AcDb2dVertex
 10
4.952755905511811
 20
9.306102362204724
 30
0.0
  0
VERTEX
  5
487
330
484
100
AcDbEntity
  8
1
100
AcDbVertex
100
AcDb2dVertex
 10
4.933070866141732
 20
9.324803149606299
 30
0.0
  0
VERTEX
  5
488
330
484
100
AcDbEntity
  8
1
100
AcDbVertex
100
AcDb2dVertex
 10
4.916338582677165
 20
9.339566929133857
 30
0.0
  0
VERTEX
  5
489
330
484
100
AcDbEntity
  8
1
100
AcDbVertex
100
AcDb2dVertex
 10
4.905511811023622
 20
9.349409448818898
 30
0.0
  0
VERTEX
  5
48A
330
484
100
AcDbEntity
  8
1
100
AcDbVertex
100
AcDb2dVertex
 10
4.900590551181101
 20
9.351377952755905
 30
0.0
  0
SEQEND
  5
48B
330
484
100
AcDbEntity
  8
1
  0
POLYLINE
  5
48C
330
1F
100
AcDbEntity
  8
1
100
AcDb2dPolyline
 66
     1
 10
0.0
 20
0.0
 30
0.0
  0
VERTEX
  5
48D
330
48C
100
AcDbEntity
  8
1
100
AcDbVertex
100
AcDb2dVertex
 10
4.975393700787401
 20
9.284448818897637
 30
0.0
  0
VERTEX
  5
48E
330
48C
100
AcDbEntity
  8
1
100
AcDbVertex
100
AcDb2dVertex
 10
4.998031496062991
 20
9.306102362204724
 30
0.0
  0
VERTEX
  5
48F
330
48C
100
AcDbEntity
  8
1
100
AcDbVertex
100
AcDb2dVertex
 10
5.01771653543307
 20
9.324803149606299
 30
0.0
  0
VERTEX
  5
490
330
48C
100
AcDbEntity
  8
1
100
AcDbVertex
100
AcDb2dVertex
 10
5.034448818897637
 20
9.339566929133857
 30
0.0
  0
VERTEX
  5
491
330
48C
100
AcDbEntity
  8
1
100
AcDbVertex
100
AcDb2dVertex
 10
5.045275590551181
 20
9.349409448818898
 30
0.0
  0
VERTEX
  5
492
330
48C
100
AcDbEntity
  8
1
100
AcDbVertex
100
AcDb2dVertex
 10
5.0501968503937
 20
9.351377952755905
 30
0.0
  0
SEQEND
  5
493
330
48C
100
AcDbEntity
  8
1
  0
POLYLINE
  5
494
330
1F
100
AcDbEntity
  8
1
100
AcDb2dPolyline
 66
     1
 10
0.0
 20
0.0
 30
0.0
  0
VERTEX
  5
495
330
494
100
AcDbEntity
  8
1
100
AcDbVertex
100
AcDb2dVertex
 10
3.351377952755905
 20
9.284448818897637
 30
0.0
  0
VERTEX
  5
496
330
494
100
AcDbEntity
  8
1
100
AcDbVertex
100
AcDb2dVertex
 10
3.374015748031495
 20
9.306102362204724
 30
0.0
  0
VERTEX
  5
497
330
494
100
AcDbEntity
  8
1
100
AcDbVertex
100
AcDb2dVertex
 10
3.394685039370078
 20
9.324803149606299
 30
0.0
  0
VERTEX
  5
498
330
494
100
AcDbEntity
  8
1
100
AcDbVertex
100
AcDb2dVertex
 10
3.410433070866141
 20
9.339566929133857
 30
0.0
  0
VERTEX
  5
499
330
494
100
AcDbEntity
  8
1
100
AcDbVertex
100
AcDb2dVertex
 10
3.421259842519685
 20
9.349409448818898
 30
0.0
  0
VERTEX
  5
49A
330
494
100
AcDbEntity
  8
1
100
AcDbVertex
100
AcDb2dVertex
 10
3.426181102362204
 20
9.351377952755905
 30
0.0
  0
SEQEND
  5
49B
330
494
100
AcDbEntity
  8
1
  0
POLYLINE
  5
49C
330
1F
100
AcDbEntity
  8
1
100
AcDb2dPolyline
 66
     1
 10
0.0
 20
0.0
 30
0.0
  0
VERTEX
  5
49D
330
49C
100
AcDbEntity
  8
1
100
AcDbVertex
100
AcDb2dVertex
 10
3.351377952755905
 20
9.284448818897637
 30
0.0
  0
VERTEX
  5
49E
330
49C
100
AcDbEntity
  8
1
100
AcDbVertex
100
AcDb2dVertex
 10
3.329724409448818
 20
9.306102362204724
 30
0.0
  0
VERTEX
  5
49F
330
49C
100
AcDbEntity
  8
1
100
AcDbVertex
100
AcDb2dVertex
 10
3.309055118110236
 20
9.324803149606299
 30
0.0
  0
VERTEX
  5
4A0
330
49C
100
AcDbEntity
  8
1
100
AcDbVertex
100
AcDb2dVertex
 10
3.292322834645669
 20
9.339566929133857
 30
0.0
  0
VERTEX
  5
4A1
330
49C
100
AcDbEntity
  8
1
100
AcDbVertex
100
AcDb2dVertex
 10
3.281496062992125
 20
9.349409448818898
 30
0.0
  0
VERTEX
  5
4A2
330
49C
100
AcDbEntity
  8
1
100
AcDbVertex
100
AcDb2dVertex
 10
3.27755905511811
 20
9.351377952755905
 30
0.0
  0
SEQEND
  5
4A3
330
49C
100
AcDbEntity
  8
1
  0
LINE
  5
4A4
330
1F
100
AcDbEntity
  8
1
100
AcDbLine
 10
5.643700787401574
 20
8.437007874015748
 30
0.0
 11
5.639763779527559
 21
8.363188976377951
 31
0.0
  0
POLYLINE
  5
4A5
330
1F
100
AcDbEntity
  8
1
100
AcDb2dPolyline
 66
     1
 10
0.0
 20
0.0
 30
0.0
  0
VERTEX
  5
4A6
330
4A5
100
AcDbEntity
  8
1
100
AcDbVertex
100
AcDb2dVertex
 10
5.639763779527559
 20
8.363188976377951
 30
0.0
  0
VERTEX
  5
4A7
330
4A5
100
AcDbEntity
  8
1
100
AcDbVertex
100
AcDb2dVertex
 10
5.632874015748031
 20
8.333661417322835
 30
0.0
  0
VERTEX
  5
4A8
330
4A5
100
AcDbEntity
  8
1
100
AcDbVertex
100
AcDb2dVertex
 10
5.61515748031496
 20
8.31003937007874
 30
0.0
  0
VERTEX
  5
4A9
330
4A5
100
AcDbEntity
  8
1
100
AcDbVertex
100
AcDb2dVertex
 10
5.589566929133858
 20
8.293307086614172
 30
0.0
  0
VERTEX
  5
4AA
330
4A5
100
AcDbEntity
  8
1
100
AcDbVertex
100
AcDb2dVertex
 10
5.560039370078739
 20
8.288385826771653
 30
0.0
  0
SEQEND
  5
4AB
330
4A5
100
AcDbEntity
  8
1
  0
LINE
  5
4AC
330
1F
100
AcDbEntity
  8
1
100
AcDbLine
 10
5.560039370078739
 20
8.288385826771653
 30
0.0
 11
5.466535433070865
 21
8.288385826771653
 31
0.0
  0
POLYLINE
  5
4AD
330
1F
100
AcDbEntity
  8
1
100
AcDb2dPolyline
 66
     1
 10
0.0
 20
0.0
 30
0.0
  0
VERTEX
  5
4AE
330
4AD
100
AcDbEntity
  8
1
100
AcDbVertex
100
AcDb2dVertex
 10
5.466535433070865
 20
8.288385826771653
 30
0.0
  0
VERTEX
  5
4AF
330
4AD
100
AcDbEntity
  8
1
100
AcDbVertex
100
AcDb2dVertex
 10
5.449803149606299
 20
8.292322834645668
 30
0.0
  0
VERTEX
  5
4B0
330
4AD
100
AcDbEntity
  8
1
100
AcDbVertex
100
AcDb2dVertex
 10
5.437007874015748
 20
8.30511811023622
 30
0.0
  0
VERTEX
  5
4B1
330
4AD
100
AcDbEntity
  8
1
100
AcDbVertex
100
AcDb2dVertex
 10
5.432086614173228
 20
8.321850393700787
 30
0.0
  0
SEQEND
  5
4B2
330
4AD
100
AcDbEntity
  8
1
  0
LINE
  5
4B3
330
1F
100
AcDbEntity
  8
1
100
AcDbLine
 10
5.432086614173228
 20
8.321850393700787
 30
0.0
 11
5.432086614173228
 21
8.378937007874014
 31
0.0
  0
POLYLINE
  5
4B4
330
1F
100
AcDbEntity
  8
1
100
AcDb2dPolyline
 66
     1
 10
0.0
 20
0.0
 30
0.0
  0
VERTEX
  5
4B5
330
4B4
100
AcDbEntity
  8
1
100
AcDbVertex
100
AcDb2dVertex
 10
5.627952755905512
 20
8.363188976377951
 30
0.0
  0
VERTEX
  5
4B6
330
4B4
100
AcDbEntity
  8
1
100
AcDbVertex
100
AcDb2dVertex
 10
5.636811023622047
 20
8.362204724409448
 30
0.0
  0
VERTEX
  5
4B7
330
4B4
100
AcDbEntity
  8
1
100
AcDbVertex
100
AcDb2dVertex
 10
5.639763779527559
 20
8.363188976377951
 30
0.0
  0
SEQEND
  5
4B8
330
4B4
100
AcDbEntity
  8
1
  0
POLYLINE
  5
4B9
330
1F
100
AcDbEntity
  8
1
100
AcDb2dPolyline
 66
     1
 10
0.0
 20
0.0
 30
0.0
  0
VERTEX
  5
4BA
330
4B9
100
AcDbEntity
  8
1
100
AcDbVertex
100
AcDb2dVertex
 10
5.560039370078739
 20
8.298228346456692
 30
0.0
  0
VERTEX
  5
4BB
330
4B9
100
AcDbEntity
  8
1
100
AcDbVertex
100
AcDb2dVertex
 10
5.560039370078739
 20
8.291338582677164
 30
0.0
  0
VERTEX
  5
4BC
330
4B9
100
AcDbEntity
  8
1
100
AcDbVertex
100
AcDb2dVertex
 10
5.560039370078739
 20
8.288385826771653
 30
0.0
  0
SEQEND
  5
4BD
330
4B9
100
AcDbEntity
  8
1
  0
POLYLINE
  5
4BE
330
1F
100
AcDbEntity
  8
1
100
AcDb2dPolyline
 66
     1
 10
0.0
 20
0.0
 30
0.0
  0
VERTEX
  5
4BF
330
4BE
100
AcDbEntity
  8
1
100
AcDbVertex
100
AcDb2dVertex
 10
5.466535433070865
 20
8.298228346456692
 30
0.0
  0
VERTEX
  5
4C0
330
4BE
100
AcDbEntity
  8
1
100
AcDbVertex
100
AcDb2dVertex
 10
5.466535433070865
 20
8.291338582677164
 30
0.0
  0
VERTEX
  5
4C1
330
4BE
100
AcDbEntity
  8
1
100
AcDbVertex
100
AcDb2dVertex
 10
5.466535433070865
 20
8.288385826771653
 30
0.0
  0
SEQEND
  5
4C2
330
4BE
100
AcDbEntity
  8
1
  0
POLYLINE
  5
4C3
330
1F
100
AcDbEntity
  8
1
100
AcDb2dPolyline
 66
     1
 10
0.0
 20
0.0
 30
0.0
  0
VERTEX
  5
4C4
330
4C3
100
AcDbEntity
  8
1
100
AcDbVertex
100
AcDb2dVertex
 10
5.443897637795275
 20
8.320866141732283
 30
0.0
  0
VERTEX
  5
4C5
330
4C3
100
AcDbEntity
  8
1
100
AcDbVertex
100
AcDb2dVertex
 10
5.436023622047244
 20
8.320866141732283
 30
0.0
  0
VERTEX
  5
4C6
330
4C3
100
AcDbEntity
  8
1
100
AcDbVertex
100
AcDb2dVertex
 10
5.432086614173228
 20
8.321850393700787
 30
0.0
  0
SEQEND
  5
4C7
330
4C3
100
AcDbEntity
  8
1
  0
LINE
  5
4C8
330
1F
100
AcDbEntity
  8
1
100
AcDbLine
 10
3.937007874015748
 20
8.288385826771653
 30
0.0
 11
3.84251968503937
 21
8.288385826771653
 31
0.0
  0
POLYLINE
  5
4C9
330
1F
100
AcDbEntity
  8
1
100
AcDb2dPolyline
 66
     1
 10
0.0
 20
0.0
 30
0.0
  0
VERTEX
  5
4CA
330
4C9
100
AcDbEntity
  8
1
100
AcDbVertex
100
AcDb2dVertex
 10
3.84251968503937
 20
8.288385826771653
 30
0.0
  0
VERTEX
  5
4CB
330
4C9
100
AcDbEntity
  8
1
100
AcDbVertex
100
AcDb2dVertex
 10
3.825787401574803
 20
8.292322834645668
 30
0.0
  0
VERTEX
  5
4CC
330
4C9
100
AcDbEntity
  8
1
100
AcDbVertex
100
AcDb2dVertex
 10
3.812992125984251
 20
8.30511811023622
 30
0.0
  0
VERTEX
  5
4CD
330
4C9
100
AcDbEntity
  8
1
100
AcDbVertex
100
AcDb2dVertex
 10
3.808070866141732
 20
8.321850393700787
 30
0.0
  0
SEQEND
  5
4CE
330
4C9
100
AcDbEntity
  8
1
  0
POLYLINE
  5
4CF
330
1F
100
AcDbEntity
  8
1
100
AcDb2dPolyline
 66
     1
 10
0.0
 20
0.0
 30
0.0
  0
VERTEX
  5
4D0
330
4CF
100
AcDbEntity
  8
1
100
AcDbVertex
100
AcDb2dVertex
 10
4.015748031496062
 20
8.363188976377951
 30
0.0
  0
VERTEX
  5
4D1
330
4CF
100
AcDbEntity
  8
1
100
AcDbVertex
100
AcDb2dVertex
 10
4.008858267716535
 20
8.333661417322835
 30
0.0
  0
VERTEX
  5
4D2
330
4CF
100
AcDbEntity
  8
1
100
AcDbVertex
100
AcDb2dVertex
 10
3.991141732283464
 20
8.31003937007874
 30
0.0
  0
VERTEX
  5
4D3
330
4CF
100
AcDbEntity
  8
1
100
AcDbVertex
100
AcDb2dVertex
 10
3.965551181102362
 20
8.293307086614172
 30
0.0
  0
VERTEX
  5
4D4
330
4CF
100
AcDbEntity
  8
1
100
AcDbVertex
100
AcDb2dVertex
 10
3.937007874015748
 20
8.288385826771653
 30
0.0
  0
SEQEND
  5
4D5
330
4CF
100
AcDbEntity
  8
1
  0
LINE
  5
4D6
330
1F
100
AcDbEntity
  8
1
100
AcDbLine
 10
3.808070866141732
 20
8.321850393700787
 30
0.0
 11
3.808070866141732
 21
8.378937007874014
 31
0.0
  0
POLYLINE
  5
4D7
330
1F
100
AcDbEntity
  8
1
100
AcDb2dPolyline
 66
     1
 10
0.0
 20
0.0
 30
0.0
  0
VERTEX
  5
4D8
330
4D7
100
AcDbEntity
  8
1
100
AcDbVertex
100
AcDb2dVertex
 10
3.937007874015748
 20
8.288385826771653
 30
0.0
  0
VERTEX
  5
4D9
330
4D7
100
AcDbEntity
  8
1
100
AcDbVertex
100
AcDb2dVertex
 10
3.937007874015748
 20
8.291338582677164
 30
0.0
  0
VERTEX
  5
4DA
330
4D7
100
AcDbEntity
  8
1
100
AcDbVertex
100
AcDb2dVertex
 10
3.937007874015748
 20
8.298228346456692
 30
0.0
  0
SEQEND
  5
4DB
330
4D7
100
AcDbEntity
  8
1
  0
POLYLINE
  5
4DC
330
1F
100
AcDbEntity
  8
1
100
AcDb2dPolyline
 66
     1
 10
0.0
 20
0.0
 30
0.0
  0
VERTEX
  5
4DD
330
4DC
100
AcDbEntity
  8
1
100
AcDbVertex
100
AcDb2dVertex
 10
3.84251968503937
 20
8.288385826771653
 30
0.0
  0
VERTEX
  5
4DE
330
4DC
100
AcDbEntity
  8
1
100
AcDbVertex
100
AcDb2dVertex
 10
3.84251968503937
 20
8.291338582677164
 30
0.0
  0
VERTEX
  5
4DF
330
4DC
100
AcDbEntity
  8
1
100
AcDbVertex
100
AcDb2dVertex
 10
3.84251968503937
 20
8.298228346456692
 30
0.0
  0
SEQEND
  5
4E0
330
4DC
100
AcDbEntity
  8
1
  0
POLYLINE
  5
4E1
330
1F
100
AcDbEntity
  8
1
100
AcDb2dPolyline
 66
     1
 10
0.0
 20
0.0
 30
0.0
  0
VERTEX
  5
4E2
330
4E1
100
AcDbEntity
  8
1
100
AcDbVertex
100
AcDb2dVertex
 10
3.808070866141732
 20
8.321850393700787
 30
0.0
  0
VERTEX
  5
4E3
330
4E1
100
AcDbEntity
  8
1
100
AcDbVertex
100
AcDb2dVertex
 10
3.812007874015748
 20
8.320866141732283
 30
0.0
  0
VERTEX
  5
4E4
330
4E1
100
AcDbEntity
  8
1
100
AcDbVertex
100
AcDb2dVertex
 10
3.819881889763779
 20
8.320866141732283
 30
0.0
  0
SEQEND
  5
4E5
330
4E1
100
AcDbEntity
  8
1
  0
LINE
  5
4E6
330
1F
100
AcDbEntity
  8
1
100
AcDbLine
 10
1.649606299212598
 20
8.437007874015748
 30
0.0
 11
6.611220472440944
 21
8.437007874015748
 31
0.0
  0
POLYLINE
  5
4E7
330
1F
100
AcDbEntity
  8
1
100
AcDb2dPolyline
 66
     1
 10
0.0
 20
0.0
 30
0.0
  0
VERTEX
  5
4E8
330
4E7
100
AcDbEntity
  8
1
100
AcDbVertex
100
AcDb2dVertex
 10
1.649606299212598
 20
8.437007874015748
 30
0.0
  0
VERTEX
  5
4E9
330
4E7
100
AcDbEntity
  8
1
100
AcDbVertex
100
AcDb2dVertex
 10
1.624015748031496
 20
8.437007874015748
 30
0.0
  0
VERTEX
  5
4EA
330
4E7
100
AcDbEntity
  8
1
100
AcDbVertex
100
AcDb2dVertex
 10
1.601377952755905
 20
8.437007874015748
 30
0.0
  0
VERTEX
  5
4EB
330
4E7
100
AcDbEntity
  8
1
100
AcDbVertex
100
AcDb2dVertex
 10
1.58759842519685
 20
8.437007874015748
 30
0.0
  0
VERTEX
  5
4EC
330
4E7
100
AcDbEntity
  8
1
100
AcDbVertex
100
AcDb2dVertex
 10
1.581692913385826
 20
8.437007874015748
 30
0.0
  0
SEQEND
  5
4ED
330
4E7
100
AcDbEntity
  8
1
  0
POLYLINE
  5
4EE
330
1F
100
AcDbEntity
  8
1
100
AcDb2dPolyline
 66
     1
 10
0.0
 20
0.0
 30
0.0
  0
VERTEX
  5
4EF
330
4EE
100
AcDbEntity
  8
1
100
AcDbVertex
100
AcDb2dVertex
 10
6.679133858267716
 20
8.437007874015748
 30
0.0
  0
VERTEX
  5
4F0
330
4EE
100
AcDbEntity
  8
1
100
AcDbVertex
100
AcDb2dVertex
 10
6.673228346456692
 20
8.437007874015748
 30
0.0
  0
VERTEX
  5
4F1
330
4EE
100
AcDbEntity
  8
1
100
AcDbVertex
100
AcDb2dVertex
 10
6.658464566929133
 20
8.437007874015748
 30
0.0
  0
VERTEX
  5
4F2
330
4EE
100
AcDbEntity
  8
1
100
AcDbVertex
100
AcDb2dVertex
 10
6.636811023622047
 20
8.437007874015748
 30
0.0
  0
VERTEX
  5
4F3
330
4EE
100
AcDbEntity
  8
1
100
AcDbVertex
100
AcDb2dVertex
 10
6.611220472440944
 20
8.437007874015748
 30
0.0
  0
SEQEND
  5
4F4
330
4EE
100
AcDbEntity
  8
1
  0
LINE
  5
4F5
330
1F
100
AcDbEntity
  8
1
100
AcDbLine
 10
1.581692913385826
 20
8.437007874015748
 30
0.0
 11
1.585629921259842
 21
8.506889763779527
 31
0.0
  0
LINE
  5
4F6
330
1F
100
AcDbEntity
  8
1
100
AcDbLine
 10
1.653543307086614
 20
8.506889763779527
 30
0.0
 11
1.649606299212598
 21
8.437007874015748
 31
0.0
  0
LINE
  5
4F7
330
1F
100
AcDbEntity
  8
1
100
AcDbLine
 10
6.611220472440944
 20
8.437007874015748
 30
0.0
 11
6.607283464566928
 21
8.506889763779527
 31
0.0
  0
LINE
  5
4F8
330
1F
100
AcDbEntity
  8
1
100
AcDbLine
 10
6.6751968503937
 20
8.506889763779527
 30
0.0
 11
6.679133858267716
 21
8.437007874015748
 31
0.0
  0
ENDSEC
  0
SECTION
  2
OBJECTS
  0
DICTIONARY
  5
C
330
0
100
AcDbDictionary
281
     1
  3
ACAD_COLOR
350
500
  3
ACAD_GROUP
350
D
  3
ACAD_IMAGE_DICT
350
5A
  3
ACAD_LAYOUT
350
1A
  3
ACAD_MATERIAL
350
4FC
  3
ACAD_MLEADERSTYLE
350
4FA
  3
ACAD_MLINESTYLE
350
17
  3
ACAD_PLOTSETTINGS
350
19
  3
ACAD_PLOTSTYLENAME
350
E
  3
ACAD_TABLESTYLE
350
4F9
  3
ACAD_VISUALSTYLE
350
2A
  3
AcDbVariableDictionary
350
520
  0
DICTIONARY
  5
500
102
{ACAD_REACTORS
330
C
102
}
330
C
100
AcDbDictionary
281
     1
  0
DICTIONARY
  5
D
102
{ACAD_REACTORS
330
C
102
}
330
C
100
AcDbDictionary
281
     1
  0
DICTIONARY
  5
5A
102
{ACAD_REACTORS
330
C
102
}
330
C
100
AcDbDictionary
281
     1
  0
DICTIONARY
  5
1A
102
{ACAD_REACTORS
330
C
102
}
330
C
100
AcDbDictionary
281
     1
  3
Layout1
350
1E
  3
Layout2
350
26
  3
Model
350
22
  0
DICTIONARY
  5
4FC
102
{ACAD_REACTORS
330
C
102
}
330
C
100
AcDbDictionary
281
     1
  3
ByBlock
350
4FE
  3
ByLayer
350
4FD
  3
Global
350
4FF
  0
DICTIONARY
  5
4FA
102
{ACAD_REACTORS
330
C
102
}
330
C
100
AcDbDictionary
281
     1
  0
DICTIONARY
  5
17
102
{ACAD_REACTORS
330
C
102
}
330
C
100
AcDbDictionary
281
     1
  3
Standard
350
18
  0
DICTIONARY
  5
19
102
{ACAD_REACTORS
330
C
102
}
330
C
100
AcDbDictionary
281
     1
  0
ACDBDICTIONARYWDFLT
  5
E
102
{ACAD_REACTORS
330
C
102
}
330
C
100
AcDbDictionary
281
     1
  3
Normal
350
F
100
AcDbDictionaryWithDefault
340
F
  0
DICTIONARY
  5
4F9
102
{ACAD_REACTORS
330
C
102
}
330
C
100
AcDbDictionary
281
     1
  3
Standard
350
501
  0
DICTIONARY
  5
2A
102
{ACAD_REACTORS
330
C
102
}
330
C
100
AcDbDictionary
281
     1
  3
2dWireframe
350
2F
  3
3D Hidden
350
31
  3
3dWireframe
350
30
  3
Basic
350
32
  3
Brighten
350
36
  3
ColorChange
350
3A
  3
Conceptual
350
34
  3
Dim
350
35
  3
Facepattern
350
39
  3
Flat
350
2B
  3
FlatWithEdges
350
2C
  3
Gouraud
350
2D
  3
GouraudWithEdges
350
2E
  3
Linepattern
350
38
  3
Realistic
350
33
  3
Thicken
350
37
  0
DICTIONARY
  5
520
102
{ACAD_REACTORS
330
C
102
}
330
C
100
AcDbDictionary
281
     1
  3
CTABLESTYLE
350
521
  0
LAYOUT
  5
1E
102
{ACAD_REACTORS
330
1A
102
}
330
1A
100
AcDbPlotSettings
  1

  2
none_device
  4

  6

 40
0.0
 41
0.0
 42
0.0
 43
0.0
 44
0.0
 45
0.0
 46
0.0
 47
0.0
 48
0.0
 49
0.0
140
0.0
141
0.0
142
1.0
143
1.0
 70
   688
 72
     0
 73
     0
 74
     5
  7

 75
    16
147
1.0
 76
     0
 77
     2
 78
   300
148
0.0
149
0.0
100
AcDbLayout
  1
Layout1
 70
     1
 71
     1
 10
0.0
 20
0.0
 11
12.0
 21
9.0
 12
0.0
 22
0.0
 32
0.0
 14
1.000000000000000E+20
 24
1.000000000000000E+20
 34
1.000000000000000E+20
 15
-1.000000000000000E+20
 25
-1.000000000000000E+20
 35
-1.000000000000000E+20
146
0.0
 13
0.0
 23
0.0
 33
0.0
 16
1.0
 26
0.0
 36
0.0
 17
0.0
 27
1.0
 37
0.0
 76
     0
330
1B
  0
LAYOUT
  5
26
102
{ACAD_REACTORS
330
1A
102
}
330
1A
100
AcDbPlotSettings
  1

  2
none_device
  4

  6

 40
0.0
 41
0.0
 42
0.0
 43
0.0
 44
0.0
 45
0.0
 46
0.0
 47
0.0
 48
0.0
 49
0.0
140
0.0
141
0.0
142
1.0
143
1.0
 70
   688
 72
     0
 73
     0
 74
     5
  7

 75
    16
147
1.0
 76
     0
 77
     2
 78
   300
148
0.0
149
0.0
100
AcDbLayout
  1
Layout2
 70
     1
 71
     2
 10
0.0
 20
0.0
 11
0.0
 21
0.0
 12
0.0
 22
0.0
 32
0.0
 14
0.0
 24
0.0
 34
0.0
 15
0.0
 25
0.0
 35
0.0
146
0.0
 13
0.0
 23
0.0
 33
0.0
 16
1.0
 26
0.0
 36
0.0
 17
0.0
 27
1.0
 37
0.0
 76
     0
330
23
  0
LAYOUT
  5
22
102
{ACAD_REACTORS
330
1A
102
}
330
1A
100
AcDbPlotSettings
  1

  2
none_device
  4

  6

 40
0.0
 41
0.0
 42
0.0
 43
0.0
 44
0.0
 45
0.0
 46
0.0
 47
0.0
 48
0.0
 49
0.0
140
0.0
141
0.0
142
1.0
143
1.0
 70
  1712
 72
     0
 73
     0
 74
     0
  7

 75
     0
147
1.0
 76
     0
 77
     2
 78
   300
148
0.0
149
0.0
100
AcDbLayout
  1
Model
 70
     1
 71
     0
 10
0.0
 20
0.0
 11
12.0
 21
9.0
 12
0.0
 22
0.0
 32
0.0
 14
1.000000000000000E+20
 24
1.000000000000000E+20
 34
1.000000000000000E+20
 15
-1.000000000000000E+20
 25
-1.000000000000000E+20
 35
-1.000000000000000E+20
146
0.0
 13
0.0
 23
0.0
 33
0.0
 16
1.0
 26
0.0
 36
0.0
 17
0.0
 27
1.0
 37
0.0
 76
     0
330
1F
331
29
  0
MATERIAL
  5
4FE
102
{ACAD_XDICTIONARY
360
524
102
}
102
{ACAD_REACTORS
330
4FC
102
}
330
4FC
100
AcDbMaterial
  1
ByBlock
  0
MATERIAL
  5
4FD
102
{ACAD_XDICTIONARY
360
522
102
}
102
{ACAD_REACTORS
330
4FC
102
}
330
4FC
100
AcDbMaterial
  1
ByLayer
  0
MATERIAL
  5
4FF
102
{ACAD_XDICTIONARY
360
526
102
}
102
{ACAD_REACTORS
330
4FC
102
}
330
4FC
100
AcDbMaterial
  1
Global
  0
MLINESTYLE
  5
18
102
{ACAD_REACTORS
330
17
102
}
330
17
100
AcDbMlineStyle
  2
STANDARD
 70
     0
  3

 62
   256
 51
90.0
 52
90.0
 71
     2
 49
0.5
 62
   256
  6
BYLAYER
 49
-0.5
 62
   256
  6
BYLAYER
  0
ACDBPLACEHOLDER
  5
F
102
{ACAD_REACTORS
330
E
102
}
330
E
  0
TABLESTYLE
  5
501
102
{ACAD_XDICTIONARY
360
528
102
}
102
{ACAD_REACTORS
330
4F9
102
}
330
4F9
100
AcDbTableStyle
  3
Standard
 70
     0
 71
     0
 40
0.06
 41
0.06
280
     0
281
     0
  7
Standard
140
0.18
170
     2
 62
     0
 63
     7
283
     0
274
    -2
284
     1
 64
     0
275
    -2
285
     1
 65
     0
276
    -2
286
     1
 66
     0
277
    -2
287
     1
 67
     0
278
    -2
288
     1
 68
     0
279
    -2
289
     1
 69
     0
  7
Standard
140
0.25
170
     5
 62
     0
 63
     7
283
     0
274
    -2
284
     1
 64
     0
275
    -2
285
     1
 65
     0
276
    -2
286
     1
 66
     0
277
    -2
287
     1
 67
     0
278
    -2
288
     1
 68
     0
279
    -2
289
     1
 69
     0
  7
Standard
140
0.18
170
     5
 62
     0
 63
     7
283
     0
274
    -2
284
     1
 64
     0
275
    -2
285
     1
 65
     0
276
    -2
286
     1
 66
     0
277
    -2
287
     1
 67
     0
278
    -2
288
     1
 68
     0
279
    -2
289
     1
 69
     0
  0
VISUALSTYLE
  5
2F
102
{ACAD_REACTORS
330
2A
102
}
330
2A
100
AcDbVisualStyle
  2
2dWireframe
 70
     4
 71
     0
 72
     2
 73
     0
 90
        0
 40
-0.6
 41
-30.0
 62
     5
 63
     7
 74
     1
 91
        4
 64
     7
 65
   257
 75
     1
175
     1
 42
1.0
 92
        0
 66
   257
 43
1.0
 76
     1
 77
     6
 78
     2
 67
     7
 79
     5
170
     0
171
     0
290
     0
174
     0
 93
        1
 44
0.0
173
     0
291
     0
 45
0.0
1001
ACAD
1000
AcDbSavedByObjectVersion
1070
     0
  0
VISUALSTYLE
  5
31
102
{ACAD_REACTORS
330
2A
102
}
330
2A
100
AcDbVisualStyle
  2
3D Hidden
 70
     6
 71
     1
 72
     2
 73
     2
 90
        0
 40
-0.6
 41
-30.0
 62
     5
 63
     7
 74
     2
 91
        2
 64
     7
 65
   257
 75
     2
175
     1
 42
40.0
 92
        0
 66
   257
 43
1.0
 76
     1
 77
     6
 78
     2
 67
     7
 79
     3
170
     0
171
     0
290
     0
174
     0
 93
        1
 44
0.0
173
     0
291
     0
 45
0.0
1001
ACAD
1000
AcDbSavedByObjectVersion
1070
     0
  0
VISUALSTYLE
  5
30
102
{ACAD_REACTORS
330
2A
102
}
330
2A
100
AcDbVisualStyle
  2
3dWireframe
 70
     5
 71
     0
 72
     2
 73
     0
 90
        0
 40
-0.6
 41
-30.0
 62
     5
 63
     7
 74
     1
 91
        4
 64
     7
 65
   257
 75
     1
175
     1
 42
1.0
 92
        0
 66
   257
 43
1.0
 76
     1
 77
     6
 78
     2
 67
     7
 79
     5
170
     0
171
     0
290
     0
174
     0
 93
        1
 44
0.0
173
     0
291
     0
 45
0.0
1001
ACAD
1000
AcDbSavedByObjectVersion
1070
     0
  0
VISUALSTYLE
  5
32
102
{ACAD_REACTORS
330
2A
102
}
330
2A
100
AcDbVisualStyle
  2
Basic
 70
     7
 71
     1
 72
     0
 73
     1
 90
        0
 40
-0.6
 41
-30.0
 62
     5
 63
     7
 74
     0
 91
        4
 64
     7
 65
   257
 75
     1
175
     1
 42
1.0
 92
        8
 66
     7
 43
1.0
 76
     1
 77
     6
 78
     2
 67
     7
 79
     5
170
     0
171
     0
290
     0
174
     0
 93
        1
 44
0.0
173
     0
291
     1
 45
0.0
1001
ACAD
1000
AcDbSavedByObjectVersion
1070
     0
  0
VISUALSTYLE
  5
36
102
{ACAD_REACTORS
330
2A
102
}
330
2A
100
AcDbVisualStyle
  2
Brighten
 70
    12
 71
     2
 72
     2
 73
     0
 90
        0
 40
-0.6
 41
-30.0
 62
     5
 63
     7
 74
     1
 91
        4
 64
     7
 65
   257
 75
     1
175
     1
 42
1.0
 92
        8
 66
     7
 43
1.0
 76
     1
 77
     6
 78
     2
 67
     7
 79
     5
170
     0
171
     0
290
     0
174
     0
 93
        1
 44
50.0
173
     0
291
     1
 45
0.0
1001
ACAD
1000
AcDbSavedByObjectVersion
1070
     0
  0
VISUALSTYLE
  5
3A
102
{ACAD_REACTORS
330
2A
102
}
330
2A
100
AcDbVisualStyle
  2
ColorChange
 70
    16
 71
     2
 72
     2
 73
     3
 90
        0
 40
-0.6
 41
-30.0
 62
     5
 63
     8
 74
     1
 91
        4
 64
     7
 65
   257
 75
     1
175
     1
 42
1.0
 92
        8
 66
     8
 43
1.0
 76
     1
 77
     6
 78
     2
 67
     7
 79
     5
170
     0
171
     0
290
     0
174
     0
 93
        1
 44
0.0
173
     0
291
     1
 45
0.0
1001
ACAD
1000
AcDbSavedByObjectVersion
1070
     0
  0
VISUALSTYLE
  5
34
102
{ACAD_REACTORS
330
2A
102
}
330
2A
100
AcDbVisualStyle
  2
Conceptual
 70
     9
 71
     3
 72
     2
 73
     0
 90
        0
 40
-0.6
 41
-30.0
 62
     5
 63
     7
 74
     2
 91
        2
 64
     7
 65
   257
 75
     1
175
     1
 42
40.0
 92
        8
 66
     7
 43
1.0
 76
     1
 77
     6
 78
     2
 67
     7
 79
     3
170
     0
171
     0
290
     0
174
     0
 93
        1
 44
0.0
173
     0
291
     0
 45
0.0
1001
ACAD
1000
AcDbSavedByObjectVersion
1070
     0
  0
VISUALSTYLE
  5
35
102
{ACAD_REACTORS
330
2A
102
}
330
2A
100
AcDbVisualStyle
  2
Dim
 70
    11
 71
     2
 72
     2
 73
     0
 90
        0
 40
-0.6
 41
-30.0
 62
     5
 63
     7
 74
     1
 91
        4
 64
     7
 65
   257
 75
     1
175
     1
 42
1.0
 92
        8
 66
     7
 43
1.0
 76
     1
 77
     6
 78
     2
 67
     7
 79
     5
170
     0
171
     0
290
     0
174
     0
 93
        1
 44
-50.0
173
     0
291
     1
 45
0.0
1001
ACAD
1000
AcDbSavedByObjectVersion
1070
     0
  0
VISUALSTYLE
  5
39
102
{ACAD_REACTORS
330
2A
102
}
330
2A
100
AcDbVisualStyle
  2
Facepattern
 70
    15
 71
     2
 72
     2
 73
     0
 90
        0
 40
-0.6
 41
-30.0
 62
     5
 63
     7
 74
     1
 91
        4
 64
     7
 65
   257
 75
     1
175
     1
 42
1.0
 92
        8
 66
     7
 43
1.0
 76
     1
 77
     6
 78
     2
 67
     7
 79
     5
170
     0
171
     0
290
     0
174
     0
 93
        1
 44
0.0
173
     0
291
     1
 45
0.0
1001
ACAD
1000
AcDbSavedByObjectVersion
1070
     0
  0
VISUALSTYLE
  5
2B
102
{ACAD_REACTORS
330
2A
102
}
330
2A
100
AcDbVisualStyle
  2
Flat
 70
     0
 71
     2
 72
     1
 73
     1
 90
        2
 40
-0.6
 41
30.0
 62
     5
 63
     7
 74
     0
 91
        4
 64
     7
 65
   257
 75
     1
175
     1
 42
1.0
 92
        8
 66
     7
 43
1.0
 76
     1
 77
     6
 78
     2
 67
     7
 79
     5
170
     0
171
     0
290
     0
174
     0
 93
       13
 44
0.0
173
     0
291
     1
 45
0.0
1001
ACAD
1000
AcDbSavedByObjectVersion
1070
     0
  0
VISUALSTYLE
  5
2C
102
{ACAD_REACTORS
330
2A
102
}
330
2A
100
AcDbVisualStyle
  2
FlatWithEdges
 70
     1
 71
     2
 72
     1
 73
     1
 90
        2
 40
-0.6
 41
30.0
 62
     5
 63
     7
 74
     1
 91
        4
 64
     7
 65
   257
 75
     1
175
     1
 42
1.0
 92
        0
 66
   257
 43
1.0
 76
     1
 77
     6
 78
     2
 67
     7
 79
     5
170
     0
171
     0
290
     0
174
     0
 93
       13
 44
0.0
173
     0
291
     1
 45
0.0
1001
ACAD
1000
AcDbSavedByObjectVersion
1070
     0
  0
VISUALSTYLE
  5
2D
102
{ACAD_REACTORS
330
2A
102
}
330
2A
100
AcDbVisualStyle
  2
Gouraud
 70
     2
 71
     2
 72
     2
 73
     1
 90
        2
 40
-0.6
 41
30.0
 62
     5
 63
     7
 74
     0
 91
        4
 64
     7
 65
   257
 75
     1
175
     1
 42
1.0
 92
        0
 66
     7
 43
1.0
 76
     1
 77
     6
 78
     2
 67
     7
 79
     5
170
     0
171
     0
290
     0
174
     0
 93
       13
 44
0.0
173
     0
291
     1
 45
0.0
1001
ACAD
1000
AcDbSavedByObjectVersion
1070
     0
  0
VISUALSTYLE
  5
2E
102
{ACAD_REACTORS
330
2A
102
}
330
2A
100
AcDbVisualStyle
  2
GouraudWithEdges
 70
     3
 71
     2
 72
     2
 73
     1
 90
        2
 40
-0.6
 41
30.0
 62
     5
 63
     7
 74
     1
 91
        4
 64
     7
 65
   257
 75
     1
175
     1
 42
1.0
 92
        0
 66
   257
 43
1.0
 76
     1
 77
     6
 78
     2
 67
     7
 79
     5
170
     0
171
     0
290
     0
174
     0
 93
       13
 44
0.0
173
     0
291
     1
 45
0.0
1001
ACAD
1000
AcDbSavedByObjectVersion
1070
     0
  0
VISUALSTYLE
  5
38
102
{ACAD_REACTORS
330
2A
102
}
330
2A
100
AcDbVisualStyle
  2
Linepattern
 70
    14
 71
     2
 72
     2
 73
     0
 90
        0
 40
-0.6
 41
-30.0
 62
     5
 63
     7
 74
     1
 91
        4
 64
     7
 65
   257
 75
     7
175
     7
 42
1.0
 92
        8
 66
     7
 43
1.0
 76
     1
 77
     6
 78
     2
 67
     7
 79
     5
170
     0
171
     0
290
     0
174
     0
 93
        1
 44
0.0
173
     0
291
     1
 45
0.0
1001
ACAD
1000
AcDbSavedByObjectVersion
1070
     0
  0
VISUALSTYLE
  5
33
102
{ACAD_REACTORS
330
2A
102
}
330
2A
100
AcDbVisualStyle
  2
Realistic
 70
     8
 71
     2
 72
     2
 73
     0
 90
        0
 40
-0.6
 41
-30.0
 62
     5
 63
     7
 74
     1
 91
        0
 64
     7
 65
   257
 75
     1
175
     1
 42
1.0
 92
        8
 66
     8
 43
1.0
 76
     1
 77
     6
 78
     2
 67
     7
 79
     5
170
     0
171
     0
290
     0
174
     0
 93
       13
 44
0.0
173
     0
291
     0
 45
0.0
1001
ACAD
1000
AcDbSavedByObjectVersion
1070
     0
  0
VISUALSTYLE
  5
37
102
{ACAD_REACTORS
330
2A
102
}
330
2A
100
AcDbVisualStyle
  2
Thicken
 70
    13
 71
     2
 72
     2
 73
     0
 90
        0
 40
-0.6
 41
-30.0
 62
     5
 63
     7
 74
     1
 91
        4
 64
     7
 65
   257
 75
     1
175
     1
 42
1.0
 92
       12
 66
     7
 43
1.0
 76
     1
 77
     6
 78
     2
 67
     7
 79
     5
170
     0
171
     0
290
     0
174
     0
 93
        1
 44
0.0
173
     0
291
     1
 45
0.0
1001
ACAD
1000
AcDbSavedByObjectVersion
1070
     0
  0
DICTIONARYVAR
  5
521
102
{ACAD_REACTORS
330
520
102
}
330
520
100
DictionaryVariables
280
     0
  1
STANDARD
  0
DICTIONARY
  5
524
330
4FE
100
AcDbDictionary
280
     1
281
     1
  3
ACAD_XREC_ROUNDTRIP
360
525
  0
DICTIONARY
  5
522
330
4FD
100
AcDbDictionary
280
     1
281
     1
  3
ACAD_XREC_ROUNDTRIP
360
523
  0
DICTIONARY
  5
526
330
4FF
100
AcDbDictionary
280
     1
281
     1
  3
ACAD_XREC_ROUNDTRIP
360
527
  0
DICTIONARY
  5
528
330
501
100
AcDbDictionary
280
     1
281
     1
  3
ACAD_XREC_ROUNDTRIP
360
529
  0
XRECORD
  5
525
102
{ACAD_REACTORS
330
524
102
}
330
524
100
AcDbXrecord
280
     1
102
MATERIAL
148
0.0
149
0.0
149
0.0
 93
        0
 94
       63
282
     0
 72
     1
 77
     1
171
     1
175
     1
179
     1
273
     0
  0
XRECORD
  5
523
102
{ACAD_REACTORS
330
522
102
}
330
522
100
AcDbXrecord
280
     1
102
MATERIAL
148
0.0
149
0.0
149
0.0
 93
        0
 94
       63
282
     0
 72
     1
 77
     1
171
     1
175
     1
179
     1
273
     0
  0
XRECORD
  5
527
102
{ACAD_REACTORS
330
526
102
}
330
526
100
AcDbXrecord
280
     1
102
MATERIAL
148
0.0
149
0.0
149
0.0
 93
        0
 94
       63
282
     0
 72
     1
 77
     1
171
     1
175
     1
179
     1
273
     0
  0
XRECORD
  5
529
102
{ACAD_REACTORS
330
528
102
}
330
528
100
AcDbXrecord
280
     1
102
ACAD_ROUNDTRIP_PRE2007_TABLESTYLE
 90
      512
 91
        0
  1

 92
      512
 93
        0
  2

 94
      512
 95
        0
  3

  0
ENDSEC
  0
EOF
