  0
SECTION
  2
HEADER
  9
$ACADVER
  1
AC1015
  9
$ACADMAINTVER
 70
     6
  9
$DWGCODEPAGE
  3
ANSI_1252
  9
$INSBASE
 10
0.0
 20
0.0
 30
0.0
  9
$EXTMIN
 10
-0.0003661829982491
 20
-0.0002746372486868
 30
-0.0015258207003583
  9
$EXTMAX
 10
4.600158710731378
 20
4.414855972648197
 30
0.0000000349246037
  9
$LIMMIN
 10
0.0
 20
0.0
  9
$LIMMAX
 10
12.0
 20
9.0
  9
$ORTHOMODE
 70
     0
  9
$REGENMODE
 70
     1
  9
$FILLMODE
 70
     1
  9
$QTEXTMODE
 70
     0
  9
$MIRRTEXT
 70
     1
  9
$LTSCALE
 40
1.0
  9
$ATTMODE
 70
     1
  9
$TEXTSIZE
 40
0.2
  9
$TRACEWID
 40
0.05
  9
$TEXTSTYLE
  7
STANDARD
  9
$CLAYER
  8
0
  9
$CELTYPE
  6
ByLayer
  9
$CECOLOR
 62
   256
  9
$CELTSCALE
 40
1.0
  9
$DISPSILH
 70
     0
  9
$DIMSCALE
 40
1.0
  9
$DIMASZ
 40
0.18
  9
$DIMEXO
 40
0.0625
  9
$DIMDLI
 40
0.38
  9
$DIMRND
 40
0.0
  9
$DIMDLE
 40
0.0
  9
$DIMEXE
 40
0.18
  9
$DIMTP
 40
0.0
  9
$DIMTM
 40
0.0
  9
$DIMTXT
 40
0.18
  9
$DIMCEN
 40
0.09
  9
$DIMTSZ
 40
0.0
  9
$DIMTOL
 70
     0
  9
$DIMLIM
 70
     0
  9
$DIMTIH
 70
     1
  9
$DIMTOH
 70
     1
  9
$DIMSE1
 70
     0
  9
$DIMSE2
 70
     0
  9
$DIMTAD
 70
     0
  9
$DIMZIN
 70
     0
  9
$DIMBLK
  1

  9
$DIMASO
 70
     1
  9
$DIMSHO
 70
     1
  9
$DIMPOST
  1

  9
$DIMAPOST
  1

  9
$DIMALT
 70
     0
  9
$DIMALTD
 70
     2
  9
$DIMALTF
 40
25.4
  9
$DIMLFAC
 40
1.0
  9
$DIMTOFL
 70
     0
  9
$DIMTVP
 40
0.0
  9
$DIMTIX
 70
     0
  9
$DIMSOXD
 70
     0
  9
$DIMSAH
 70
     0
  9
$DIMBLK1
  1

  9
$DIMBLK2
  1

  9
$DIMSTYLE
  2
Standard
  9
$DIMCLRD
 70
     0
  9
$DIMCLRE
 70
     0
  9
$DIMCLRT
 70
     0
  9
$DIMTFAC
 40
1.0
  9
$DIMGAP
 40
0.09
  9
$DIMJUST
 70
     0
  9
$DIMSD1
 70
     0
  9
$DIMSD2
 70
     0
  9
$DIMTOLJ
 70
     1
  9
$DIMTZIN
 70
     0
  9
$DIMALTZ
 70
     0
  9
$DIMALTTZ
 70
     0
  9
$DIMUPT
 70
     0
  9
$DIMDEC
 70
     4
  9
$DIMTDEC
 70
     4
  9
$DIMALTU
 70
     2
  9
$DIMALTTD
 70
     2
  9
$DIMTXSTY
  7
STANDARD
  9
$DIMAUNIT
 70
     0
  9
$DIMADEC
 70
     0
  9
$DIMALTRND
 40
0.0
  9
$DIMAZIN
 70
     0
  9
$DIMDSEP
 70
    46
  9
$DIMATFIT
 70
     3
  9
$DIMFRAC
 70
     0
  9
$DIMLDRBLK
  1

  9
$DIMLUNIT
 70
     2
  9
$DIMLWD
 70
    -2
  9
$DIMLWE
 70
    -2
  9
$DIMTMOVE
 70
     2
  9
$LUNITS
 70
     2
  9
$LUPREC
 70
     4
  9
$SKETCHINC
 40
0.1
  9
$FILLETRAD
 40
0.0
  9
$AUNITS
 70
     0
  9
$AUPREC
 70
     0
  9
$MENU
  1
acad
  9
$ELEVATION
 40
0.0
  9
$PELEVATION
 40
0.0
  9
$THICKNESS
 40
0.0
  9
$LIMCHECK
 70
     0
  9
$CHAMFERA
 40
0.0
  9
$CHAMFERB
 40
0.0
  9
$CHAMFERC
 40
0.0
  9
$CHAMFERD
 40
0.0
  9
$SKPOLY
 70
     0
  9
$TDCREATE
 40
2454060.698553241
  9
$TDUCREATE
 40
2454060.948553240
  9
$TDUPDATE
 40
2454060.710436944
  9
$TDUUPDATE
 40
2454060.960436944
  9
$TDINDWG
 40
0.0005452662
  9
$TDUSRTIMER
 40
0.0005452662
  9
$USRTIMER
 70
     1
  9
$ANGBASE
 50
0.0
  9
$ANGDIR
 70
     0
  9
$PDMODE
 70
     0
  9
$PDSIZE
 40
0.0
  9
$PLINEWID
 40
0.0
  9
$SPLFRAME
 70
     0
  9
$SPLINETYPE
 70
     6
  9
$SPLINESEGS
 70
     8
  9
$HANDSEED
  5
AF5
  9
$SURFTAB1
 70
     6
  9
$SURFTAB2
 70
     6
  9
$SURFTYPE
 70
     6
  9
$SURFU
 70
     6
  9
$SURFV
 70
     6
  9
$UCSBASE
  2

  9
$UCSNAME
  2

  9
$UCSORG
 10
0.0
 20
0.0
 30
0.0
  9
$UCSXDIR
 10
1.0
 20
0.0
 30
0.0
  9
$UCSYDIR
 10
0.0
 20
1.0
 30
0.0
  9
$UCSORTHOREF
  2

  9
$UCSORTHOVIEW
 70
     0
  9
$UCSORGTOP
 10
0.0
 20
0.0
 30
0.0
  9
$UCSORGBOTTOM
 10
0.0
 20
0.0
 30
0.0
  9
$UCSORGLEFT
 10
0.0
 20
0.0
 30
0.0
  9
$UCSORGRIGHT
 10
0.0
 20
0.0
 30
0.0
  9
$UCSORGFRONT
 10
0.0
 20
0.0
 30
0.0
  9
$UCSORGBACK
 10
0.0
 20
0.0
 30
0.0
  9
$PUCSBASE
  2

  9
$PUCSNAME
  2

  9
$PUCSORG
 10
0.0
 20
0.0
 30
0.0
  9
$PUCSXDIR
 10
1.0
 20
0.0
 30
0.0
  9
$PUCSYDIR
 10
0.0
 20
1.0
 30
0.0
  9
$PUCSORTHOREF
  2

  9
$PUCSORTHOVIEW
 70
     0
  9
$PUCSORGTOP
 10
0.0
 20
0.0
 30
0.0
  9
$PUCSORGBOTTOM
 10
0.0
 20
0.0
 30
0.0
  9
$PUCSORGLEFT
 10
0.0
 20
0.0
 30
0.0
  9
$PUCSORGRIGHT
 10
0.0
 20
0.0
 30
0.0
  9
$PUCSORGFRONT
 10
0.0
 20
0.0
 30
0.0
  9
$PUCSORGBACK
 10
0.0
 20
0.0
 30
0.0
  9
$USERI1
 70
     0
  9
$USERI2
 70
     0
  9
$USERI3
 70
     0
  9
$USERI4
 70
     0
  9
$USERI5
 70
     0
  9
$USERR1
 40
0.0
  9
$USERR2
 40
0.0
  9
$USERR3
 40
0.0
  9
$USERR4
 40
0.0
  9
$USERR5
 40
0.0
  9
$WORLDVIEW
 70
     1
  9
$SHADEDGE
 70
     3
  9
$SHADEDIF
 70
    70
  9
$TILEMODE
 70
     1
  9
$MAXACTVP
 70
    16
  9
$PINSBASE
 10
0.0
 20
0.0
 30
0.0
  9
$PLIMCHECK
 70
     0
  9
$PEXTMIN
 10
1.000000000000000E+20
 20
1.000000000000000E+20
 30
1.000000000000000E+20
  9
$PEXTMAX
 10
-1.000000000000000E+20
 20
-1.000000000000000E+20
 30
-1.000000000000000E+20
  9
$PLIMMIN
 10
0.0
 20
0.0
  9
$PLIMMAX
 10
12.0
 20
9.0
  9
$UNITMODE
 70
     0
  9
$VISRETAIN
 70
     0
  9
$PLINEGEN
 70
     0
  9
$PSLTSCALE
 70
     1
  9
$TREEDEPTH
 70
  3020
  9
$CMLSTYLE
  2
Standard
  9
$CMLJUST
 70
     0
  9
$CMLSCALE
 40
1.0
  9
$PROXYGRAPHICS
 70
     1
  9
$MEASUREMENT
 70
     0
  9
$CELWEIGHT
370
    -1
  9
$ENDCAPS
280
     0
  9
$JOINSTYLE
280
     0
  9
$LWDISPLAY
290
     0
  9
$INSUNITS
 70
     0
  9
$HYPERLINKBASE
  1

  9
$STYLESHEET
  1

  9
$XEDIT
290
     1
  9
$CEPSNTYPE
380
     0
  9
$PSTYLEMODE
290
     1
  9
$FINGERPRINTGUID
  2
{423783DA-92EA-40A0-A2F5-59605A4669C8}
  9
$VERSIONGUID
  2
{1B06EF08-28B2-444C-92CF-B4276F56AED5}
  9
$EXTNAMES
290
     1
  9
$PSVPSCALE
 40
0.0
  9
$OLESTARTUP
290
     0
  0
ENDSEC
  0
SECTION
  2
CLASSES
  0
CLASS
  1
ACDBDICTIONARYWDFLT
  2
AcDbDictionaryWithDefault
  3
AutoCAD 2000
 90
        0
280
     0
281
     0
  0
CLASS
  1
ACDBPLACEHOLDER
  2
AcDbPlaceHolder
  3
AutoCAD 2000
 90
        0
280
     0
281
     0
  0
CLASS
  1
LAYOUT
  2
AcDbLayout
  3
AutoCAD 2000
 90
        0
280
     0
281
     0
  0
ENDSEC
  0
SECTION
  2
TABLES
  0
TABLE
  2
VPORT
  5
8
330
0
100
AcDbSymbolTable
 70
     2
  0
VPORT
  5
AF4
330
8
100
AcDbSymbolTableRecord
100
AcDbViewportTableRecord
  2
*Active
 70
     0
 10
0.0
 20
0.0
 11
1.0
 21
1.0
 12
3.467498603262133
 22
2.346705868464612
 13
0.0
 23
0.0
 14
1.0
 24
1.0
 15
0.0
 25
0.0
 16
0.0
 26
0.0
 36
1.0
 17
0.0
 27
0.0
 37
0.0
 40
4.449668796220503
 41
1.607049608355091
 42
50.0
 43
0.0
 44
0.0
 50
0.0
 51
0.0
 71
     0
 72
   100
 73
     1
 74
     1
 75
     0
 76
     0
 77
     0
 78
     0
281
     0
 65
     1
110
0.0
120
0.0
130
0.0
111
1.0
121
0.0
131
0.0
112
0.0
122
1.0
132
0.0
 79
     0
146
0.0
  0
ENDTAB
  0
TABLE
  2
LTYPE
  5
5
330
0
100
AcDbSymbolTable
 70
    25
  0
LTYPE
  5
13
330
5
100
AcDbSymbolTableRecord
100
AcDbLinetypeTableRecord
  2
ByBlock
 70
     0
  3

 72
    65
 73
     0
 40
0.0
  0
LTYPE
  5
14
330
5
100
AcDbSymbolTableRecord
100
AcDbLinetypeTableRecord
  2
ByLayer
 70
     0
  3

 72
    65
 73
     0
 40
0.0
  0
LTYPE
  5
15
330
5
100
AcDbSymbolTableRecord
100
AcDbLinetypeTableRecord
  2
CONTINUOUS
 70
     0
  3
Solid line
 72
    65
 73
     0
 40
0.0
  0
LTYPE
  5
22
330
5
100
AcDbSymbolTableRecord
100
AcDbLinetypeTableRecord
  2
BORDER
 70
     0
  3
__ __ . __ __ . __ __ . __ __ . __ __ . __ __ .
 72
    65
 73
     6
 40
1.75
 49
0.5
 74
     0
 49
-0.25
 74
     0
 49
0.5
 74
     0
 49
-0.25
 74
     0
 49
0.5
 74
     0
 49
-0.25
 74
     0
  0
LTYPE
  5
23
330
5
100
AcDbSymbolTableRecord
100
AcDbLinetypeTableRecord
  2
BORDER2
 70
     0
  3
__.__.__.__.__.__.__.__.
 72
    65
 73
     6
 40
0.875
 49
0.25
 74
     0
 49
-0.125
 74
     0
 49
0.25
 74
     0
 49
-0.125
 74
     0
 49
0.25
 74
     0
 49
-0.125
 74
     0
  0
LTYPE
  5
24
330
5
100
AcDbSymbolTableRecord
100
AcDbLinetypeTableRecord
  2
BORDERX2
 70
     0
  3
____  ____  .  
 72
    65
 73
     6
 40
3.5
 49
1.0
 74
     0
 49
-0.5
 74
     0
 49
1.0
 74
     0
 49
-0.5
 74
     0
 49
1.0
 74
     0
 49
-0.5
 74
     0
  0
LTYPE
  5
25
330
5
100
AcDbSymbolTableRecord
100
AcDbLinetypeTableRecord
  2
CENTER
 70
     0
  3
____ _ ____ _ ____ _ 
 72
    65
 73
     4
 40
2.0
 49
1.25
 74
     0
 49
-0.25
 74
     0
 49
0.25
 74
     0
 49
-0.25
 74
     0
  0
LTYPE
  5
26
330
5
100
AcDbSymbolTableRecord
100
AcDbLinetypeTableRecord
  2
CENTER2
 70
     0
  3
____ _ ____ _ ____ _ 
 72
    65
 73
     4
 40
1.125
 49
0.75
 74
     0
 49
-0.125
 74
     0
 49
0.125
 74
     0
 49
-0.125
 74
     0
  0
LTYPE
  5
27
330
5
100
AcDbSymbolTableRecord
100
AcDbLinetypeTableRecord
  2
CENTERX2
 70
     0
  3
________  __  
 72
    65
 73
     4
 40
4.0
 49
2.5
 74
     0
 49
-0.5
 74
     0
 49
0.5
 74
     0
 49
-0.5
 74
     0
  0
LTYPE
  5
28
330
5
100
AcDbSymbolTableRecord
100
AcDbLinetypeTableRecord
  2
DASHDOT
 70
     0
  3
__ . __ . __ . __ . 
 72
    65
 73
     4
 40
1.0
 49
0.5
 74
     0
 49
-0.25
 74
     0
 49
0.0
 74
     0
 49
-0.25
 74
     0
  0
LTYPE
  5
29
330
5
100
AcDbSymbolTableRecord
100
AcDbLinetypeTableRecord
  2
DASHDOT2
 70
     0
  3
_._._._._._._._._.
 72
    65
 73
     4
 40
0.5
 49
0.25
 74
     0
 49
-0.125
 74
     0
 49
0.0
 74
     0
 49
-0.125
 74
     0
  0
LTYPE
  5
2A
330
5
100
AcDbSymbolTableRecord
100
AcDbLinetypeTableRecord
  2
DASHDOTX2
 70
     0
  3
____  .  ____  .  
 72
    65
 73
     4
 40
2.0
 49
1.0
 74
     0
 49
-0.5
 74
     0
 49
0.0
 74
     0
 49
-0.5
 74
     0
  0
LTYPE
  5
2B
330
5
100
AcDbSymbolTableRecord
100
AcDbLinetypeTableRecord
  2
DASHED
 70
     0
  3
__ __ __ __ __ __ __ 
 72
    65
 73
     2
 40
0.75
 49
0.5
 74
     0
 49
-0.25
 74
     0
  0
LTYPE
  5
2C
330
5
100
AcDbSymbolTableRecord
100
AcDbLinetypeTableRecord
  2
DASHED2
 70
     0
  3
_ _ _ _ _ _ _ _ _ _ 
 72
    65
 73
     2
 40
0.375
 49
0.25
 74
     0
 49
-0.125
 74
     0
  0
LTYPE
  5
2D
330
5
100
AcDbSymbolTableRecord
100
AcDbLinetypeTableRecord
  2
DASHEDX2
 70
     0
  3
____  ____  ____  
 72
    65
 73
     2
 40
1.5
 49
1.0
 74
     0
 49
-0.5
 74
     0
  0
LTYPE
  5
2E
330
5
100
AcDbSymbolTableRecord
100
AcDbLinetypeTableRecord
  2
DIVIDE
 70
     0
  3
____ . . ____ . . 
 72
    65
 73
     6
 40
1.25
 49
0.5
 74
     0
 49
-0.25
 74
     0
 49
0.0
 74
     0
 49
-0.25
 74
     0
 49
0.0
 74
     0
 49
-0.25
 74
     0
  0
LTYPE
  5
2F
330
5
100
AcDbSymbolTableRecord
100
AcDbLinetypeTableRecord
  2
DIVIDE2
 70
     0
  3
__..__..__..__..__..
 72
    65
 73
     6
 40
0.625
 49
0.25
 74
     0
 49
-0.125
 74
     0
 49
0.0
 74
     0
 49
-0.125
 74
     0
 49
0.0
 74
     0
 49
-0.125
 74
     0
  0
LTYPE
  5
30
330
5
100
AcDbSymbolTableRecord
100
AcDbLinetypeTableRecord
  2
DIVIDEX2
 70
     0
  3
________  .  .  
 72
    65
 73
     6
 40
2.5
 49
1.0
 74
     0
 49
-0.5
 74
     0
 49
0.0
 74
     0
 49
-0.5
 74
     0
 49
0.0
 74
     0
 49
-0.5
 74
     0
  0
LTYPE
  5
31
330
5
100
AcDbSymbolTableRecord
100
AcDbLinetypeTableRecord
  2
DOT
 70
     0
  3
. . . . . . . . . 
 72
    65
 73
     2
 40
0.25
 49
0.0
 74
     0
 49
-0.25
 74
     0
  0
LTYPE
  5
32
330
5
100
AcDbSymbolTableRecord
100
AcDbLinetypeTableRecord
  2
DOT2
 70
     0
  3
..................
 72
    65
 73
     2
 40
0.125
 49
0.0
 74
     0
 49
-0.125
 74
     0
  0
LTYPE
  5
33
330
5
100
AcDbSymbolTableRecord
100
AcDbLinetypeTableRecord
  2
DOTX2
 70
     0
  3
.  .  .  .  .  .  
 72
    65
 73
     2
 40
0.5
 49
0.0
 74
     0
 49
-0.5
 74
     0
  0
LTYPE
  5
34
330
5
100
AcDbSymbolTableRecord
100
AcDbLinetypeTableRecord
  2
HIDDEN
 70
     0
  3
__ __ __ __ __ __ 
 72
    65
 73
     2
 40
0.375
 49
0.25
 74
     0
 49
-0.125
 74
     0
  0
LTYPE
  5
35
330
5
100
AcDbSymbolTableRecord
100
AcDbLinetypeTableRecord
  2
HIDDEN2
 70
     0
  3
_ _ _ _ _ _ _ _ _ 
 72
    65
 73
     2
 40
0.1875
 49
0.125
 74
     0
 49
-0.0625
 74
     0
  0
LTYPE
  5
36
330
5
100
AcDbSymbolTableRecord
100
AcDbLinetypeTableRecord
  2
HIDDENX2
 70
     0
  3
____ ____ ____ ____ 
 72
    65
 73
     2
 40
0.75
 49
0.5
 74
     0
 49
-0.25
 74
     0
  0
LTYPE
  5
37
330
5
100
AcDbSymbolTableRecord
100
AcDbLinetypeTableRecord
  2
PHANTOM
 70
     0
  3
______  __  __  
 72
    65
 73
     6
 40
2.5
 49
1.25
 74
     0
 49
-0.25
 74
     0
 49
0.25
 74
     0
 49
-0.25
 74
     0
 49
0.25
 74
     0
 49
-0.25
 74
     0
  0
LTYPE
  5
38
330
5
100
AcDbSymbolTableRecord
100
AcDbLinetypeTableRecord
  2
PHANTOM2
 70
     0
  3
___ _ _ ___ _ _ 
 72
    65
 73
     6
 40
1.25
 49
0.625
 74
     0
 49
-0.125
 74
     0
 49
0.125
 74
     0
 49
-0.125
 74
     0
 49
0.125
 74
     0
 49
-0.125
 74
     0
  0
LTYPE
  5
39
330
5
100
AcDbSymbolTableRecord
100
AcDbLinetypeTableRecord
  2
PHANTOMX2
 70
     0
  3
___ _ _ ___ _ _ 
 72
    65
 73
     6
 40
5.0
 49
2.5
 74
     0
 49
-0.5
 74
     0
 49
0.5
 74
     0
 49
-0.5
 74
     0
 49
0.5
 74
     0
 49
-0.5
 74
     0
  0
ENDTAB
  0
TABLE
  2
LAYER
  5
2
330
0
100
AcDbSymbolTable
 70
   256
  0
LAYER
  5
10
330
2
100
AcDbSymbolTableRecord
100
AcDbLayerTableRecord
  2
0
 70
     0
 62
     7
  6
CONTINUOUS
370
    -3
390
F
  0
LAYER
  5
3A
330
2
100
AcDbSymbolTableRecord
100
AcDbLayerTableRecord
  2
1
 70
     0
 62
     1
  6
CONTINUOUS
370
    -3
390
F
  0
LAYER
  5
3B
330
2
100
AcDbSymbolTableRecord
100
AcDbLayerTableRecord
  2
2
 70
     0
 62
     2
  6
CONTINUOUS
370
    -3
390
F
  0
LAYER
  5
3C
330
2
100
AcDbSymbolTableRecord
100
AcDbLayerTableRecord
  2
3
 70
     0
 62
     3
  6
CONTINUOUS
370
    -3
390
F
  0
LAYER
  5
3D
330
2
100
AcDbSymbolTableRecord
100
AcDbLayerTableRecord
  2
4
 70
     0
 62
     4
  6
CONTINUOUS
370
    -3
390
F
  0
LAYER
  5
3E
330
2
100
AcDbSymbolTableRecord
100
AcDbLayerTableRecord
  2
5
 70
     0
 62
     5
  6
CONTINUOUS
370
    -3
390
F
  0
LAYER
  5
3F
330
2
100
AcDbSymbolTableRecord
100
AcDbLayerTableRecord
  2
6
 70
     0
 62
     6
  6
CONTINUOUS
370
    -3
390
F
  0
LAYER
  5
40
330
2
100
AcDbSymbolTableRecord
100
AcDbLayerTableRecord
  2
7
 70
     0
 62
     7
  6
CONTINUOUS
370
    -3
390
F
  0
LAYER
  5
41
330
2
100
AcDbSymbolTableRecord
100
AcDbLayerTableRecord
  2
8
 70
     0
 62
     8
  6
CONTINUOUS
370
    -3
390
F
  0
LAYER
  5
42
330
2
100
AcDbSymbolTableRecord
100
AcDbLayerTableRecord
  2
9
 70
     0
 62
     9
  6
CONTINUOUS
370
    -3
390
F
  0
LAYER
  5
43
330
2
100
AcDbSymbolTableRecord
100
AcDbLayerTableRecord
  2
10
 70
     0
 62
    10
  6
CONTINUOUS
370
    -3
390
F
  0
LAYER
  5
44
330
2
100
AcDbSymbolTableRecord
100
AcDbLayerTableRecord
  2
11
 70
     0
 62
    11
  6
CONTINUOUS
370
    -3
390
F
  0
LAYER
  5
45
330
2
100
AcDbSymbolTableRecord
100
AcDbLayerTableRecord
  2
12
 70
     0
 62
    12
  6
CONTINUOUS
370
    -3
390
F
  0
LAYER
  5
46
330
2
100
AcDbSymbolTableRecord
100
AcDbLayerTableRecord
  2
13
 70
     0
 62
    13
  6
CONTINUOUS
370
    -3
390
F
  0
LAYER
  5
47
330
2
100
AcDbSymbolTableRecord
100
AcDbLayerTableRecord
  2
14
 70
     0
 62
    14
  6
CONTINUOUS
370
    -3
390
F
  0
LAYER
  5
48
330
2
100
AcDbSymbolTableRecord
100
AcDbLayerTableRecord
  2
15
 70
     0
 62
    15
  6
CONTINUOUS
370
    -3
390
F
  0
LAYER
  5
49
330
2
100
AcDbSymbolTableRecord
100
AcDbLayerTableRecord
  2
16
 70
     0
 62
    16
  6
CONTINUOUS
370
    -3
390
F
  0
LAYER
  5
4A
330
2
100
AcDbSymbolTableRecord
100
AcDbLayerTableRecord
  2
17
 70
     0
 62
    17
  6
CONTINUOUS
370
    -3
390
F
  0
LAYER
  5
4B
330
2
100
AcDbSymbolTableRecord
100
AcDbLayerTableRecord
  2
18
 70
     0
 62
    18
  6
CONTINUOUS
370
    -3
390
F
  0
LAYER
  5
4C
330
2
100
AcDbSymbolTableRecord
100
AcDbLayerTableRecord
  2
19
 70
     0
 62
    19
  6
CONTINUOUS
370
    -3
390
F
  0
LAYER
  5
4D
330
2
100
AcDbSymbolTableRecord
100
AcDbLayerTableRecord
  2
20
 70
     0
 62
    20
  6
CONTINUOUS
370
    -3
390
F
  0
LAYER
  5
4E
330
2
100
AcDbSymbolTableRecord
100
AcDbLayerTableRecord
  2
21
 70
     0
 62
    21
  6
CONTINUOUS
370
    -3
390
F
  0
LAYER
  5
4F
330
2
100
AcDbSymbolTableRecord
100
AcDbLayerTableRecord
  2
22
 70
     0
 62
    22
  6
CONTINUOUS
370
    -3
390
F
  0
LAYER
  5
50
330
2
100
AcDbSymbolTableRecord
100
AcDbLayerTableRecord
  2
23
 70
     0
 62
    23
  6
CONTINUOUS
370
    -3
390
F
  0
LAYER
  5
51
330
2
100
AcDbSymbolTableRecord
100
AcDbLayerTableRecord
  2
24
 70
     0
 62
    24
  6
CONTINUOUS
370
    -3
390
F
  0
LAYER
  5
52
330
2
100
AcDbSymbolTableRecord
100
AcDbLayerTableRecord
  2
25
 70
     0
 62
    25
  6
CONTINUOUS
370
    -3
390
F
  0
LAYER
  5
53
330
2
100
AcDbSymbolTableRecord
100
AcDbLayerTableRecord
  2
26
 70
     0
 62
    26
  6
CONTINUOUS
370
    -3
390
F
  0
LAYER
  5
54
330
2
100
AcDbSymbolTableRecord
100
AcDbLayerTableRecord
  2
27
 70
     0
 62
    27
  6
CONTINUOUS
370
    -3
390
F
  0
LAYER
  5
55
330
2
100
AcDbSymbolTableRecord
100
AcDbLayerTableRecord
  2
28
 70
     0
 62
    28
  6
CONTINUOUS
370
    -3
390
F
  0
LAYER
  5
56
330
2
100
AcDbSymbolTableRecord
100
AcDbLayerTableRecord
  2
29
 70
     0
 62
    29
  6
CONTINUOUS
370
    -3
390
F
  0
LAYER
  5
57
330
2
100
AcDbSymbolTableRecord
100
AcDbLayerTableRecord
  2
30
 70
     0
 62
    30
  6
CONTINUOUS
370
    -3
390
F
  0
LAYER
  5
58
330
2
100
AcDbSymbolTableRecord
100
AcDbLayerTableRecord
  2
31
 70
     0
 62
    31
  6
CONTINUOUS
370
    -3
390
F
  0
LAYER
  5
59
330
2
100
AcDbSymbolTableRecord
100
AcDbLayerTableRecord
  2
32
 70
     0
 62
    32
  6
CONTINUOUS
370
    -3
390
F
  0
LAYER
  5
5A
330
2
100
AcDbSymbolTableRecord
100
AcDbLayerTableRecord
  2
33
 70
     0
 62
    33
  6
CONTINUOUS
370
    -3
390
F
  0
LAYER
  5
5B
330
2
100
AcDbSymbolTableRecord
100
AcDbLayerTableRecord
  2
34
 70
     0
 62
    34
  6
CONTINUOUS
370
    -3
390
F
  0
LAYER
  5
5C
330
2
100
AcDbSymbolTableRecord
100
AcDbLayerTableRecord
  2
35
 70
     0
 62
    35
  6
CONTINUOUS
370
    -3
390
F
  0
LAYER
  5
5D
330
2
100
AcDbSymbolTableRecord
100
AcDbLayerTableRecord
  2
36
 70
     0
 62
    36
  6
CONTINUOUS
370
    -3
390
F
  0
LAYER
  5
5E
330
2
100
AcDbSymbolTableRecord
100
AcDbLayerTableRecord
  2
37
 70
     0
 62
    37
  6
CONTINUOUS
370
    -3
390
F
  0
LAYER
  5
5F
330
2
100
AcDbSymbolTableRecord
100
AcDbLayerTableRecord
  2
38
 70
     0
 62
    38
  6
CONTINUOUS
370
    -3
390
F
  0
LAYER
  5
60
330
2
100
AcDbSymbolTableRecord
100
AcDbLayerTableRecord
  2
39
 70
     0
 62
    39
  6
CONTINUOUS
370
    -3
390
F
  0
LAYER
  5
61
330
2
100
AcDbSymbolTableRecord
100
AcDbLayerTableRecord
  2
40
 70
     0
 62
    40
  6
CONTINUOUS
370
    -3
390
F
  0
LAYER
  5
62
330
2
100
AcDbSymbolTableRecord
100
AcDbLayerTableRecord
  2
41
 70
     0
 62
    41
  6
CONTINUOUS
370
    -3
390
F
  0
LAYER
  5
63
330
2
100
AcDbSymbolTableRecord
100
AcDbLayerTableRecord
  2
42
 70
     0
 62
    42
  6
CONTINUOUS
370
    -3
390
F
  0
LAYER
  5
64
330
2
100
AcDbSymbolTableRecord
100
AcDbLayerTableRecord
  2
43
 70
     0
 62
    43
  6
CONTINUOUS
370
    -3
390
F
  0
LAYER
  5
65
330
2
100
AcDbSymbolTableRecord
100
AcDbLayerTableRecord
  2
44
 70
     0
 62
    44
  6
CONTINUOUS
370
    -3
390
F
  0
LAYER
  5
66
330
2
100
AcDbSymbolTableRecord
100
AcDbLayerTableRecord
  2
45
 70
     0
 62
    45
  6
CONTINUOUS
370
    -3
390
F
  0
LAYER
  5
67
330
2
100
AcDbSymbolTableRecord
100
AcDbLayerTableRecord
  2
46
 70
     0
 62
    46
  6
CONTINUOUS
370
    -3
390
F
  0
LAYER
  5
68
330
2
100
AcDbSymbolTableRecord
100
AcDbLayerTableRecord
  2
47
 70
     0
 62
    47
  6
CONTINUOUS
370
    -3
390
F
  0
LAYER
  5
69
330
2
100
AcDbSymbolTableRecord
100
AcDbLayerTableRecord
  2
48
 70
     0
 62
    48
  6
CONTINUOUS
370
    -3
390
F
  0
LAYER
  5
6A
330
2
100
AcDbSymbolTableRecord
100
AcDbLayerTableRecord
  2
49
 70
     0
 62
    49
  6
CONTINUOUS
370
    -3
390
F
  0
LAYER
  5
6B
330
2
100
AcDbSymbolTableRecord
100
AcDbLayerTableRecord
  2
50
 70
     0
 62
    50
  6
CONTINUOUS
370
    -3
390
F
  0
LAYER
  5
6C
330
2
100
AcDbSymbolTableRecord
100
AcDbLayerTableRecord
  2
51
 70
     0
 62
    51
  6
CONTINUOUS
370
    -3
390
F
  0
LAYER
  5
6D
330
2
100
AcDbSymbolTableRecord
100
AcDbLayerTableRecord
  2
52
 70
     0
 62
    52
  6
CONTINUOUS
370
    -3
390
F
  0
LAYER
  5
6E
330
2
100
AcDbSymbolTableRecord
100
AcDbLayerTableRecord
  2
53
 70
     0
 62
    53
  6
CONTINUOUS
370
    -3
390
F
  0
LAYER
  5
6F
330
2
100
AcDbSymbolTableRecord
100
AcDbLayerTableRecord
  2
54
 70
     0
 62
    54
  6
CONTINUOUS
370
    -3
390
F
  0
LAYER
  5
70
330
2
100
AcDbSymbolTableRecord
100
AcDbLayerTableRecord
  2
55
 70
     0
 62
    55
  6
CONTINUOUS
370
    -3
390
F
  0
LAYER
  5
71
330
2
100
AcDbSymbolTableRecord
100
AcDbLayerTableRecord
  2
56
 70
     0
 62
    56
  6
CONTINUOUS
370
    -3
390
F
  0
LAYER
  5
72
330
2
100
AcDbSymbolTableRecord
100
AcDbLayerTableRecord
  2
57
 70
     0
 62
    57
  6
CONTINUOUS
370
    -3
390
F
  0
LAYER
  5
73
330
2
100
AcDbSymbolTableRecord
100
AcDbLayerTableRecord
  2
58
 70
     0
 62
    58
  6
CONTINUOUS
370
    -3
390
F
  0
LAYER
  5
74
330
2
100
AcDbSymbolTableRecord
100
AcDbLayerTableRecord
  2
59
 70
     0
 62
    59
  6
CONTINUOUS
370
    -3
390
F
  0
LAYER
  5
75
330
2
100
AcDbSymbolTableRecord
100
AcDbLayerTableRecord
  2
60
 70
     0
 62
    60
  6
CONTINUOUS
370
    -3
390
F
  0
LAYER
  5
76
330
2
100
AcDbSymbolTableRecord
100
AcDbLayerTableRecord
  2
61
 70
     0
 62
    61
  6
CONTINUOUS
370
    -3
390
F
  0
LAYER
  5
77
330
2
100
AcDbSymbolTableRecord
100
AcDbLayerTableRecord
  2
62
 70
     0
 62
    62
  6
CONTINUOUS
370
    -3
390
F
  0
LAYER
  5
78
330
2
100
AcDbSymbolTableRecord
100
AcDbLayerTableRecord
  2
63
 70
     0
 62
    63
  6
CONTINUOUS
370
    -3
390
F
  0
LAYER
  5
79
330
2
100
AcDbSymbolTableRecord
100
AcDbLayerTableRecord
  2
64
 70
     0
 62
    64
  6
CONTINUOUS
370
    -3
390
F
  0
LAYER
  5
7A
330
2
100
AcDbSymbolTableRecord
100
AcDbLayerTableRecord
  2
65
 70
     0
 62
    65
  6
CONTINUOUS
370
    -3
390
F
  0
LAYER
  5
7B
330
2
100
AcDbSymbolTableRecord
100
AcDbLayerTableRecord
  2
66
 70
     0
 62
    66
  6
CONTINUOUS
370
    -3
390
F
  0
LAYER
  5
7C
330
2
100
AcDbSymbolTableRecord
100
AcDbLayerTableRecord
  2
67
 70
     0
 62
    67
  6
CONTINUOUS
370
    -3
390
F
  0
LAYER
  5
7D
330
2
100
AcDbSymbolTableRecord
100
AcDbLayerTableRecord
  2
68
 70
     0
 62
    68
  6
CONTINUOUS
370
    -3
390
F
  0
LAYER
  5
7E
330
2
100
AcDbSymbolTableRecord
100
AcDbLayerTableRecord
  2
69
 70
     0
 62
    69
  6
CONTINUOUS
370
    -3
390
F
  0
LAYER
  5
7F
330
2
100
AcDbSymbolTableRecord
100
AcDbLayerTableRecord
  2
70
 70
     0
 62
    70
  6
CONTINUOUS
370
    -3
390
F
  0
LAYER
  5
80
330
2
100
AcDbSymbolTableRecord
100
AcDbLayerTableRecord
  2
71
 70
     0
 62
    71
  6
CONTINUOUS
370
    -3
390
F
  0
LAYER
  5
81
330
2
100
AcDbSymbolTableRecord
100
AcDbLayerTableRecord
  2
72
 70
     0
 62
    72
  6
CONTINUOUS
370
    -3
390
F
  0
LAYER
  5
82
330
2
100
AcDbSymbolTableRecord
100
AcDbLayerTableRecord
  2
73
 70
     0
 62
    73
  6
CONTINUOUS
370
    -3
390
F
  0
LAYER
  5
83
330
2
100
AcDbSymbolTableRecord
100
AcDbLayerTableRecord
  2
74
 70
     0
 62
    74
  6
CONTINUOUS
370
    -3
390
F
  0
LAYER
  5
84
330
2
100
AcDbSymbolTableRecord
100
AcDbLayerTableRecord
  2
75
 70
     0
 62
    75
  6
CONTINUOUS
370
    -3
390
F
  0
LAYER
  5
85
330
2
100
AcDbSymbolTableRecord
100
AcDbLayerTableRecord
  2
76
 70
     0
 62
    76
  6
CONTINUOUS
370
    -3
390
F
  0
LAYER
  5
86
330
2
100
AcDbSymbolTableRecord
100
AcDbLayerTableRecord
  2
77
 70
     0
 62
    77
  6
CONTINUOUS
370
    -3
390
F
  0
LAYER
  5
87
330
2
100
AcDbSymbolTableRecord
100
AcDbLayerTableRecord
  2
78
 70
     0
 62
    78
  6
CONTINUOUS
370
    -3
390
F
  0
LAYER
  5
88
330
2
100
AcDbSymbolTableRecord
100
AcDbLayerTableRecord
  2
79
 70
     0
 62
    79
  6
CONTINUOUS
370
    -3
390
F
  0
LAYER
  5
89
330
2
100
AcDbSymbolTableRecord
100
AcDbLayerTableRecord
  2
80
 70
     0
 62
    80
  6
CONTINUOUS
370
    -3
390
F
  0
LAYER
  5
8A
330
2
100
AcDbSymbolTableRecord
100
AcDbLayerTableRecord
  2
81
 70
     0
 62
    81
  6
CONTINUOUS
370
    -3
390
F
  0
LAYER
  5
8B
330
2
100
AcDbSymbolTableRecord
100
AcDbLayerTableRecord
  2
82
 70
     0
 62
    82
  6
CONTINUOUS
370
    -3
390
F
  0
LAYER
  5
8C
330
2
100
AcDbSymbolTableRecord
100
AcDbLayerTableRecord
  2
83
 70
     0
 62
    83
  6
CONTINUOUS
370
    -3
390
F
  0
LAYER
  5
8D
330
2
100
AcDbSymbolTableRecord
100
AcDbLayerTableRecord
  2
84
 70
     0
 62
    84
  6
CONTINUOUS
370
    -3
390
F
  0
LAYER
  5
8E
330
2
100
AcDbSymbolTableRecord
100
AcDbLayerTableRecord
  2
85
 70
     0
 62
    85
  6
CONTINUOUS
370
    -3
390
F
  0
LAYER
  5
8F
330
2
100
AcDbSymbolTableRecord
100
AcDbLayerTableRecord
  2
86
 70
     0
 62
    86
  6
CONTINUOUS
370
    -3
390
F
  0
LAYER
  5
90
330
2
100
AcDbSymbolTableRecord
100
AcDbLayerTableRecord
  2
87
 70
     0
 62
    87
  6
CONTINUOUS
370
    -3
390
F
  0
LAYER
  5
91
330
2
100
AcDbSymbolTableRecord
100
AcDbLayerTableRecord
  2
88
 70
     0
 62
    88
  6
CONTINUOUS
370
    -3
390
F
  0
LAYER
  5
92
330
2
100
AcDbSymbolTableRecord
100
AcDbLayerTableRecord
  2
89
 70
     0
 62
    89
  6
CONTINUOUS
370
    -3
390
F
  0
LAYER
  5
93
330
2
100
AcDbSymbolTableRecord
100
AcDbLayerTableRecord
  2
90
 70
     0
 62
    90
  6
CONTINUOUS
370
    -3
390
F
  0
LAYER
  5
94
330
2
100
AcDbSymbolTableRecord
100
AcDbLayerTableRecord
  2
91
 70
     0
 62
    91
  6
CONTINUOUS
370
    -3
390
F
  0
LAYER
  5
95
330
2
100
AcDbSymbolTableRecord
100
AcDbLayerTableRecord
  2
92
 70
     0
 62
    92
  6
CONTINUOUS
370
    -3
390
F
  0
LAYER
  5
96
330
2
100
AcDbSymbolTableRecord
100
AcDbLayerTableRecord
  2
93
 70
     0
 62
    93
  6
CONTINUOUS
370
    -3
390
F
  0
LAYER
  5
97
330
2
100
AcDbSymbolTableRecord
100
AcDbLayerTableRecord
  2
94
 70
     0
 62
    94
  6
CONTINUOUS
370
    -3
390
F
  0
LAYER
  5
98
330
2
100
AcDbSymbolTableRecord
100
AcDbLayerTableRecord
  2
95
 70
     0
 62
    95
  6
CONTINUOUS
370
    -3
390
F
  0
LAYER
  5
99
330
2
100
AcDbSymbolTableRecord
100
AcDbLayerTableRecord
  2
96
 70
     0
 62
    96
  6
CONTINUOUS
370
    -3
390
F
  0
LAYER
  5
9A
330
2
100
AcDbSymbolTableRecord
100
AcDbLayerTableRecord
  2
97
 70
     0
 62
    97
  6
CONTINUOUS
370
    -3
390
F
  0
LAYER
  5
9B
330
2
100
AcDbSymbolTableRecord
100
AcDbLayerTableRecord
  2
98
 70
     0
 62
    98
  6
CONTINUOUS
370
    -3
390
F
  0
LAYER
  5
9C
330
2
100
AcDbSymbolTableRecord
100
AcDbLayerTableRecord
  2
99
 70
     0
 62
    99
  6
CONTINUOUS
370
    -3
390
F
  0
LAYER
  5
9D
330
2
100
AcDbSymbolTableRecord
100
AcDbLayerTableRecord
  2
100
 70
     0
 62
   100
  6
CONTINUOUS
370
    -3
390
F
  0
LAYER
  5
9E
330
2
100
AcDbSymbolTableRecord
100
AcDbLayerTableRecord
  2
101
 70
     0
 62
   101
  6
CONTINUOUS
370
    -3
390
F
  0
LAYER
  5
9F
330
2
100
AcDbSymbolTableRecord
100
AcDbLayerTableRecord
  2
102
 70
     0
 62
   102
  6
CONTINUOUS
370
    -3
390
F
  0
LAYER
  5
A0
330
2
100
AcDbSymbolTableRecord
100
AcDbLayerTableRecord
  2
103
 70
     0
 62
   103
  6
CONTINUOUS
370
    -3
390
F
  0
LAYER
  5
A1
330
2
100
AcDbSymbolTableRecord
100
AcDbLayerTableRecord
  2
104
 70
     0
 62
   104
  6
CONTINUOUS
370
    -3
390
F
  0
LAYER
  5
A2
330
2
100
AcDbSymbolTableRecord
100
AcDbLayerTableRecord
  2
105
 70
     0
 62
   105
  6
CONTINUOUS
370
    -3
390
F
  0
LAYER
  5
A3
330
2
100
AcDbSymbolTableRecord
100
AcDbLayerTableRecord
  2
106
 70
     0
 62
   106
  6
CONTINUOUS
370
    -3
390
F
  0
LAYER
  5
A4
330
2
100
AcDbSymbolTableRecord
100
AcDbLayerTableRecord
  2
107
 70
     0
 62
   107
  6
CONTINUOUS
370
    -3
390
F
  0
LAYER
  5
A5
330
2
100
AcDbSymbolTableRecord
100
AcDbLayerTableRecord
  2
108
 70
     0
 62
   108
  6
CONTINUOUS
370
    -3
390
F
  0
LAYER
  5
A6
330
2
100
AcDbSymbolTableRecord
100
AcDbLayerTableRecord
  2
109
 70
     0
 62
   109
  6
CONTINUOUS
370
    -3
390
F
  0
LAYER
  5
A7
330
2
100
AcDbSymbolTableRecord
100
AcDbLayerTableRecord
  2
110
 70
     0
 62
   110
  6
CONTINUOUS
370
    -3
390
F
  0
LAYER
  5
A8
330
2
100
AcDbSymbolTableRecord
100
AcDbLayerTableRecord
  2
111
 70
     0
 62
   111
  6
CONTINUOUS
370
    -3
390
F
  0
LAYER
  5
A9
330
2
100
AcDbSymbolTableRecord
100
AcDbLayerTableRecord
  2
112
 70
     0
 62
   112
  6
CONTINUOUS
370
    -3
390
F
  0
LAYER
  5
AA
330
2
100
AcDbSymbolTableRecord
100
AcDbLayerTableRecord
  2
113
 70
     0
 62
   113
  6
CONTINUOUS
370
    -3
390
F
  0
LAYER
  5
AB
330
2
100
AcDbSymbolTableRecord
100
AcDbLayerTableRecord
  2
114
 70
     0
 62
   114
  6
CONTINUOUS
370
    -3
390
F
  0
LAYER
  5
AC
330
2
100
AcDbSymbolTableRecord
100
AcDbLayerTableRecord
  2
115
 70
     0
 62
   115
  6
CONTINUOUS
370
    -3
390
F
  0
LAYER
  5
AD
330
2
100
AcDbSymbolTableRecord
100
AcDbLayerTableRecord
  2
116
 70
     0
 62
   116
  6
CONTINUOUS
370
    -3
390
F
  0
LAYER
  5
AE
330
2
100
AcDbSymbolTableRecord
100
AcDbLayerTableRecord
  2
117
 70
     0
 62
   117
  6
CONTINUOUS
370
    -3
390
F
  0
LAYER
  5
AF
330
2
100
AcDbSymbolTableRecord
100
AcDbLayerTableRecord
  2
118
 70
     0
 62
   118
  6
CONTINUOUS
370
    -3
390
F
  0
LAYER
  5
B0
330
2
100
AcDbSymbolTableRecord
100
AcDbLayerTableRecord
  2
119
 70
     0
 62
   119
  6
CONTINUOUS
370
    -3
390
F
  0
LAYER
  5
B1
330
2
100
AcDbSymbolTableRecord
100
AcDbLayerTableRecord
  2
120
 70
     0
 62
   120
  6
CONTINUOUS
370
    -3
390
F
  0
LAYER
  5
B2
330
2
100
AcDbSymbolTableRecord
100
AcDbLayerTableRecord
  2
121
 70
     0
 62
   121
  6
CONTINUOUS
370
    -3
390
F
  0
LAYER
  5
B3
330
2
100
AcDbSymbolTableRecord
100
AcDbLayerTableRecord
  2
122
 70
     0
 62
   122
  6
CONTINUOUS
370
    -3
390
F
  0
LAYER
  5
B4
330
2
100
AcDbSymbolTableRecord
100
AcDbLayerTableRecord
  2
123
 70
     0
 62
   123
  6
CONTINUOUS
370
    -3
390
F
  0
LAYER
  5
B5
330
2
100
AcDbSymbolTableRecord
100
AcDbLayerTableRecord
  2
124
 70
     0
 62
   124
  6
CONTINUOUS
370
    -3
390
F
  0
LAYER
  5
B6
330
2
100
AcDbSymbolTableRecord
100
AcDbLayerTableRecord
  2
125
 70
     0
 62
   125
  6
CONTINUOUS
370
    -3
390
F
  0
LAYER
  5
B7
330
2
100
AcDbSymbolTableRecord
100
AcDbLayerTableRecord
  2
126
 70
     0
 62
   126
  6
CONTINUOUS
370
    -3
390
F
  0
LAYER
  5
B8
330
2
100
AcDbSymbolTableRecord
100
AcDbLayerTableRecord
  2
127
 70
     0
 62
   127
  6
CONTINUOUS
370
    -3
390
F
  0
LAYER
  5
B9
330
2
100
AcDbSymbolTableRecord
100
AcDbLayerTableRecord
  2
128
 70
     0
 62
   128
  6
CONTINUOUS
370
    -3
390
F
  0
LAYER
  5
BA
330
2
100
AcDbSymbolTableRecord
100
AcDbLayerTableRecord
  2
129
 70
     0
 62
   129
  6
CONTINUOUS
370
    -3
390
F
  0
LAYER
  5
BB
330
2
100
AcDbSymbolTableRecord
100
AcDbLayerTableRecord
  2
130
 70
     0
 62
   130
  6
CONTINUOUS
370
    -3
390
F
  0
LAYER
  5
BC
330
2
100
AcDbSymbolTableRecord
100
AcDbLayerTableRecord
  2
131
 70
     0
 62
   131
  6
CONTINUOUS
370
    -3
390
F
  0
LAYER
  5
BD
330
2
100
AcDbSymbolTableRecord
100
AcDbLayerTableRecord
  2
132
 70
     0
 62
   132
  6
CONTINUOUS
370
    -3
390
F
  0
LAYER
  5
BE
330
2
100
AcDbSymbolTableRecord
100
AcDbLayerTableRecord
  2
133
 70
     0
 62
   133
  6
CONTINUOUS
370
    -3
390
F
  0
LAYER
  5
BF
330
2
100
AcDbSymbolTableRecord
100
AcDbLayerTableRecord
  2
134
 70
     0
 62
   134
  6
CONTINUOUS
370
    -3
390
F
  0
LAYER
  5
C0
330
2
100
AcDbSymbolTableRecord
100
AcDbLayerTableRecord
  2
135
 70
     0
 62
   135
  6
CONTINUOUS
370
    -3
390
F
  0
LAYER
  5
C1
330
2
100
AcDbSymbolTableRecord
100
AcDbLayerTableRecord
  2
136
 70
     0
 62
   136
  6
CONTINUOUS
370
    -3
390
F
  0
LAYER
  5
C2
330
2
100
AcDbSymbolTableRecord
100
AcDbLayerTableRecord
  2
137
 70
     0
 62
   137
  6
CONTINUOUS
370
    -3
390
F
  0
LAYER
  5
C3
330
2
100
AcDbSymbolTableRecord
100
AcDbLayerTableRecord
  2
138
 70
     0
 62
   138
  6
CONTINUOUS
370
    -3
390
F
  0
LAYER
  5
C4
330
2
100
AcDbSymbolTableRecord
100
AcDbLayerTableRecord
  2
139
 70
     0
 62
   139
  6
CONTINUOUS
370
    -3
390
F
  0
LAYER
  5
C5
330
2
100
AcDbSymbolTableRecord
100
AcDbLayerTableRecord
  2
140
 70
     0
 62
   140
  6
CONTINUOUS
370
    -3
390
F
  0
LAYER
  5
C6
330
2
100
AcDbSymbolTableRecord
100
AcDbLayerTableRecord
  2
141
 70
     0
 62
   141
  6
CONTINUOUS
370
    -3
390
F
  0
LAYER
  5
C7
330
2
100
AcDbSymbolTableRecord
100
AcDbLayerTableRecord
  2
142
 70
     0
 62
   142
  6
CONTINUOUS
370
    -3
390
F
  0
LAYER
  5
C8
330
2
100
AcDbSymbolTableRecord
100
AcDbLayerTableRecord
  2
143
 70
     0
 62
   143
  6
CONTINUOUS
370
    -3
390
F
  0
LAYER
  5
C9
330
2
100
AcDbSymbolTableRecord
100
AcDbLayerTableRecord
  2
144
 70
     0
 62
   144
  6
CONTINUOUS
370
    -3
390
F
  0
LAYER
  5
CA
330
2
100
AcDbSymbolTableRecord
100
AcDbLayerTableRecord
  2
145
 70
     0
 62
   145
  6
CONTINUOUS
370
    -3
390
F
  0
LAYER
  5
CB
330
2
100
AcDbSymbolTableRecord
100
AcDbLayerTableRecord
  2
146
 70
     0
 62
   146
  6
CONTINUOUS
370
    -3
390
F
  0
LAYER
  5
CC
330
2
100
AcDbSymbolTableRecord
100
AcDbLayerTableRecord
  2
147
 70
     0
 62
   147
  6
CONTINUOUS
370
    -3
390
F
  0
LAYER
  5
CD
330
2
100
AcDbSymbolTableRecord
100
AcDbLayerTableRecord
  2
148
 70
     0
 62
   148
  6
CONTINUOUS
370
    -3
390
F
  0
LAYER
  5
CE
330
2
100
AcDbSymbolTableRecord
100
AcDbLayerTableRecord
  2
149
 70
     0
 62
   149
  6
CONTINUOUS
370
    -3
390
F
  0
LAYER
  5
CF
330
2
100
AcDbSymbolTableRecord
100
AcDbLayerTableRecord
  2
150
 70
     0
 62
   150
  6
CONTINUOUS
370
    -3
390
F
  0
LAYER
  5
D0
330
2
100
AcDbSymbolTableRecord
100
AcDbLayerTableRecord
  2
151
 70
     0
 62
   151
  6
CONTINUOUS
370
    -3
390
F
  0
LAYER
  5
D1
330
2
100
AcDbSymbolTableRecord
100
AcDbLayerTableRecord
  2
152
 70
     0
 62
   152
  6
CONTINUOUS
370
    -3
390
F
  0
LAYER
  5
D2
330
2
100
AcDbSymbolTableRecord
100
AcDbLayerTableRecord
  2
153
 70
     0
 62
   153
  6
CONTINUOUS
370
    -3
390
F
  0
LAYER
  5
D3
330
2
100
AcDbSymbolTableRecord
100
AcDbLayerTableRecord
  2
154
 70
     0
 62
   154
  6
CONTINUOUS
370
    -3
390
F
  0
LAYER
  5
D4
330
2
100
AcDbSymbolTableRecord
100
AcDbLayerTableRecord
  2
155
 70
     0
 62
   155
  6
CONTINUOUS
370
    -3
390
F
  0
LAYER
  5
D5
330
2
100
AcDbSymbolTableRecord
100
AcDbLayerTableRecord
  2
156
 70
     0
 62
   156
  6
CONTINUOUS
370
    -3
390
F
  0
LAYER
  5
D6
330
2
100
AcDbSymbolTableRecord
100
AcDbLayerTableRecord
  2
157
 70
     0
 62
   157
  6
CONTINUOUS
370
    -3
390
F
  0
LAYER
  5
D7
330
2
100
AcDbSymbolTableRecord
100
AcDbLayerTableRecord
  2
158
 70
     0
 62
   158
  6
CONTINUOUS
370
    -3
390
F
  0
LAYER
  5
D8
330
2
100
AcDbSymbolTableRecord
100
AcDbLayerTableRecord
  2
159
 70
     0
 62
   159
  6
CONTINUOUS
370
    -3
390
F
  0
LAYER
  5
D9
330
2
100
AcDbSymbolTableRecord
100
AcDbLayerTableRecord
  2
160
 70
     0
 62
   160
  6
CONTINUOUS
370
    -3
390
F
  0
LAYER
  5
DA
330
2
100
AcDbSymbolTableRecord
100
AcDbLayerTableRecord
  2
161
 70
     0
 62
   161
  6
CONTINUOUS
370
    -3
390
F
  0
LAYER
  5
DB
330
2
100
AcDbSymbolTableRecord
100
AcDbLayerTableRecord
  2
162
 70
     0
 62
   162
  6
CONTINUOUS
370
    -3
390
F
  0
LAYER
  5
DC
330
2
100
AcDbSymbolTableRecord
100
AcDbLayerTableRecord
  2
163
 70
     0
 62
   163
  6
CONTINUOUS
370
    -3
390
F
  0
LAYER
  5
DD
330
2
100
AcDbSymbolTableRecord
100
AcDbLayerTableRecord
  2
164
 70
     0
 62
   164
  6
CONTINUOUS
370
    -3
390
F
  0
LAYER
  5
DE
330
2
100
AcDbSymbolTableRecord
100
AcDbLayerTableRecord
  2
165
 70
     0
 62
   165
  6
CONTINUOUS
370
    -3
390
F
  0
LAYER
  5
DF
330
2
100
AcDbSymbolTableRecord
100
AcDbLayerTableRecord
  2
166
 70
     0
 62
   166
  6
CONTINUOUS
370
    -3
390
F
  0
LAYER
  5
E0
330
2
100
AcDbSymbolTableRecord
100
AcDbLayerTableRecord
  2
167
 70
     0
 62
   167
  6
CONTINUOUS
370
    -3
390
F
  0
LAYER
  5
E1
330
2
100
AcDbSymbolTableRecord
100
AcDbLayerTableRecord
  2
168
 70
     0
 62
   168
  6
CONTINUOUS
370
    -3
390
F
  0
LAYER
  5
E2
330
2
100
AcDbSymbolTableRecord
100
AcDbLayerTableRecord
  2
169
 70
     0
 62
   169
  6
CONTINUOUS
370
    -3
390
F
  0
LAYER
  5
E3
330
2
100
AcDbSymbolTableRecord
100
AcDbLayerTableRecord
  2
170
 70
     0
 62
   170
  6
CONTINUOUS
370
    -3
390
F
  0
LAYER
  5
E4
330
2
100
AcDbSymbolTableRecord
100
AcDbLayerTableRecord
  2
171
 70
     0
 62
   171
  6
CONTINUOUS
370
    -3
390
F
  0
LAYER
  5
E5
330
2
100
AcDbSymbolTableRecord
100
AcDbLayerTableRecord
  2
172
 70
     0
 62
   172
  6
CONTINUOUS
370
    -3
390
F
  0
LAYER
  5
E6
330
2
100
AcDbSymbolTableRecord
100
AcDbLayerTableRecord
  2
173
 70
     0
 62
   173
  6
CONTINUOUS
370
    -3
390
F
  0
LAYER
  5
E7
330
2
100
AcDbSymbolTableRecord
100
AcDbLayerTableRecord
  2
174
 70
     0
 62
   174
  6
CONTINUOUS
370
    -3
390
F
  0
LAYER
  5
E8
330
2
100
AcDbSymbolTableRecord
100
AcDbLayerTableRecord
  2
175
 70
     0
 62
   175
  6
CONTINUOUS
370
    -3
390
F
  0
LAYER
  5
E9
330
2
100
AcDbSymbolTableRecord
100
AcDbLayerTableRecord
  2
176
 70
     0
 62
   176
  6
CONTINUOUS
370
    -3
390
F
  0
LAYER
  5
EA
330
2
100
AcDbSymbolTableRecord
100
AcDbLayerTableRecord
  2
177
 70
     0
 62
   177
  6
CONTINUOUS
370
    -3
390
F
  0
LAYER
  5
EB
330
2
100
AcDbSymbolTableRecord
100
AcDbLayerTableRecord
  2
178
 70
     0
 62
   178
  6
CONTINUOUS
370
    -3
390
F
  0
LAYER
  5
EC
330
2
100
AcDbSymbolTableRecord
100
AcDbLayerTableRecord
  2
179
 70
     0
 62
   179
  6
CONTINUOUS
370
    -3
390
F
  0
LAYER
  5
ED
330
2
100
AcDbSymbolTableRecord
100
AcDbLayerTableRecord
  2
180
 70
     0
 62
   180
  6
CONTINUOUS
370
    -3
390
F
  0
LAYER
  5
EE
330
2
100
AcDbSymbolTableRecord
100
AcDbLayerTableRecord
  2
181
 70
     0
 62
   181
  6
CONTINUOUS
370
    -3
390
F
  0
LAYER
  5
EF
330
2
100
AcDbSymbolTableRecord
100
AcDbLayerTableRecord
  2
182
 70
     0
 62
   182
  6
CONTINUOUS
370
    -3
390
F
  0
LAYER
  5
F0
330
2
100
AcDbSymbolTableRecord
100
AcDbLayerTableRecord
  2
183
 70
     0
 62
   183
  6
CONTINUOUS
370
    -3
390
F
  0
LAYER
  5
F1
330
2
100
AcDbSymbolTableRecord
100
AcDbLayerTableRecord
  2
184
 70
     0
 62
   184
  6
CONTINUOUS
370
    -3
390
F
  0
LAYER
  5
F2
330
2
100
AcDbSymbolTableRecord
100
AcDbLayerTableRecord
  2
185
 70
     0
 62
   185
  6
CONTINUOUS
370
    -3
390
F
  0
LAYER
  5
F3
330
2
100
AcDbSymbolTableRecord
100
AcDbLayerTableRecord
  2
186
 70
     0
 62
   186
  6
CONTINUOUS
370
    -3
390
F
  0
LAYER
  5
F4
330
2
100
AcDbSymbolTableRecord
100
AcDbLayerTableRecord
  2
187
 70
     0
 62
   187
  6
CONTINUOUS
370
    -3
390
F
  0
LAYER
  5
F5
330
2
100
AcDbSymbolTableRecord
100
AcDbLayerTableRecord
  2
188
 70
     0
 62
   188
  6
CONTINUOUS
370
    -3
390
F
  0
LAYER
  5
F6
330
2
100
AcDbSymbolTableRecord
100
AcDbLayerTableRecord
  2
189
 70
     0
 62
   189
  6
CONTINUOUS
370
    -3
390
F
  0
LAYER
  5
F7
330
2
100
AcDbSymbolTableRecord
100
AcDbLayerTableRecord
  2
190
 70
     0
 62
   190
  6
CONTINUOUS
370
    -3
390
F
  0
LAYER
  5
F8
330
2
100
AcDbSymbolTableRecord
100
AcDbLayerTableRecord
  2
191
 70
     0
 62
   191
  6
CONTINUOUS
370
    -3
390
F
  0
LAYER
  5
F9
330
2
100
AcDbSymbolTableRecord
100
AcDbLayerTableRecord
  2
192
 70
     0
 62
   192
  6
CONTINUOUS
370
    -3
390
F
  0
LAYER
  5
FA
330
2
100
AcDbSymbolTableRecord
100
AcDbLayerTableRecord
  2
193
 70
     0
 62
   193
  6
CONTINUOUS
370
    -3
390
F
  0
LAYER
  5
FB
330
2
100
AcDbSymbolTableRecord
100
AcDbLayerTableRecord
  2
194
 70
     0
 62
   194
  6
CONTINUOUS
370
    -3
390
F
  0
LAYER
  5
FC
330
2
100
AcDbSymbolTableRecord
100
AcDbLayerTableRecord
  2
195
 70
     0
 62
   195
  6
CONTINUOUS
370
    -3
390
F
  0
LAYER
  5
FD
330
2
100
AcDbSymbolTableRecord
100
AcDbLayerTableRecord
  2
196
 70
     0
 62
   196
  6
CONTINUOUS
370
    -3
390
F
  0
LAYER
  5
FE
330
2
100
AcDbSymbolTableRecord
100
AcDbLayerTableRecord
  2
197
 70
     0
 62
   197
  6
CONTINUOUS
370
    -3
390
F
  0
LAYER
  5
FF
330
2
100
AcDbSymbolTableRecord
100
AcDbLayerTableRecord
  2
198
 70
     0
 62
   198
  6
CONTINUOUS
370
    -3
390
F
  0
LAYER
  5
100
330
2
100
AcDbSymbolTableRecord
100
AcDbLayerTableRecord
  2
199
 70
     0
 62
   199
  6
CONTINUOUS
370
    -3
390
F
  0
LAYER
  5
101
330
2
100
AcDbSymbolTableRecord
100
AcDbLayerTableRecord
  2
200
 70
     0
 62
   200
  6
CONTINUOUS
370
    -3
390
F
  0
LAYER
  5
102
330
2
100
AcDbSymbolTableRecord
100
AcDbLayerTableRecord
  2
201
 70
     0
 62
   201
  6
CONTINUOUS
370
    -3
390
F
  0
LAYER
  5
103
330
2
100
AcDbSymbolTableRecord
100
AcDbLayerTableRecord
  2
202
 70
     0
 62
   202
  6
CONTINUOUS
370
    -3
390
F
  0
LAYER
  5
104
330
2
100
AcDbSymbolTableRecord
100
AcDbLayerTableRecord
  2
203
 70
     0
 62
   203
  6
CONTINUOUS
370
    -3
390
F
  0
LAYER
  5
105
330
2
100
AcDbSymbolTableRecord
100
AcDbLayerTableRecord
  2
204
 70
     0
 62
   204
  6
CONTINUOUS
370
    -3
390
F
  0
LAYER
  5
106
330
2
100
AcDbSymbolTableRecord
100
AcDbLayerTableRecord
  2
205
 70
     0
 62
   205
  6
CONTINUOUS
370
    -3
390
F
  0
LAYER
  5
107
330
2
100
AcDbSymbolTableRecord
100
AcDbLayerTableRecord
  2
206
 70
     0
 62
   206
  6
CONTINUOUS
370
    -3
390
F
  0
LAYER
  5
108
330
2
100
AcDbSymbolTableRecord
100
AcDbLayerTableRecord
  2
207
 70
     0
 62
   207
  6
CONTINUOUS
370
    -3
390
F
  0
LAYER
  5
109
330
2
100
AcDbSymbolTableRecord
100
AcDbLayerTableRecord
  2
208
 70
     0
 62
   208
  6
CONTINUOUS
370
    -3
390
F
  0
LAYER
  5
10A
330
2
100
AcDbSymbolTableRecord
100
AcDbLayerTableRecord
  2
209
 70
     0
 62
   209
  6
CONTINUOUS
370
    -3
390
F
  0
LAYER
  5
10B
330
2
100
AcDbSymbolTableRecord
100
AcDbLayerTableRecord
  2
210
 70
     0
 62
   210
  6
CONTINUOUS
370
    -3
390
F
  0
LAYER
  5
10C
330
2
100
AcDbSymbolTableRecord
100
AcDbLayerTableRecord
  2
211
 70
     0
 62
   211
  6
CONTINUOUS
370
    -3
390
F
  0
LAYER
  5
10D
330
2
100
AcDbSymbolTableRecord
100
AcDbLayerTableRecord
  2
212
 70
     0
 62
   212
  6
CONTINUOUS
370
    -3
390
F
  0
LAYER
  5
10E
330
2
100
AcDbSymbolTableRecord
100
AcDbLayerTableRecord
  2
213
 70
     0
 62
   213
  6
CONTINUOUS
370
    -3
390
F
  0
LAYER
  5
10F
330
2
100
AcDbSymbolTableRecord
100
AcDbLayerTableRecord
  2
214
 70
     0
 62
   214
  6
CONTINUOUS
370
    -3
390
F
  0
LAYER
  5
110
330
2
100
AcDbSymbolTableRecord
100
AcDbLayerTableRecord
  2
215
 70
     0
 62
   215
  6
CONTINUOUS
370
    -3
390
F
  0
LAYER
  5
111
330
2
100
AcDbSymbolTableRecord
100
AcDbLayerTableRecord
  2
216
 70
     0
 62
   216
  6
CONTINUOUS
370
    -3
390
F
  0
LAYER
  5
112
330
2
100
AcDbSymbolTableRecord
100
AcDbLayerTableRecord
  2
217
 70
     0
 62
   217
  6
CONTINUOUS
370
    -3
390
F
  0
LAYER
  5
113
330
2
100
AcDbSymbolTableRecord
100
AcDbLayerTableRecord
  2
218
 70
     0
 62
   218
  6
CONTINUOUS
370
    -3
390
F
  0
LAYER
  5
114
330
2
100
AcDbSymbolTableRecord
100
AcDbLayerTableRecord
  2
219
 70
     0
 62
   219
  6
CONTINUOUS
370
    -3
390
F
  0
LAYER
  5
115
330
2
100
AcDbSymbolTableRecord
100
AcDbLayerTableRecord
  2
220
 70
     0
 62
   220
  6
CONTINUOUS
370
    -3
390
F
  0
LAYER
  5
116
330
2
100
AcDbSymbolTableRecord
100
AcDbLayerTableRecord
  2
221
 70
     0
 62
   221
  6
CONTINUOUS
370
    -3
390
F
  0
LAYER
  5
117
330
2
100
AcDbSymbolTableRecord
100
AcDbLayerTableRecord
  2
222
 70
     0
 62
   222
  6
CONTINUOUS
370
    -3
390
F
  0
LAYER
  5
118
330
2
100
AcDbSymbolTableRecord
100
AcDbLayerTableRecord
  2
223
 70
     0
 62
   223
  6
CONTINUOUS
370
    -3
390
F
  0
LAYER
  5
119
330
2
100
AcDbSymbolTableRecord
100
AcDbLayerTableRecord
  2
224
 70
     0
 62
   224
  6
CONTINUOUS
370
    -3
390
F
  0
LAYER
  5
11A
330
2
100
AcDbSymbolTableRecord
100
AcDbLayerTableRecord
  2
225
 70
     0
 62
   225
  6
CONTINUOUS
370
    -3
390
F
  0
LAYER
  5
11B
330
2
100
AcDbSymbolTableRecord
100
AcDbLayerTableRecord
  2
226
 70
     0
 62
   226
  6
CONTINUOUS
370
    -3
390
F
  0
LAYER
  5
11C
330
2
100
AcDbSymbolTableRecord
100
AcDbLayerTableRecord
  2
227
 70
     0
 62
   227
  6
CONTINUOUS
370
    -3
390
F
  0
LAYER
  5
11D
330
2
100
AcDbSymbolTableRecord
100
AcDbLayerTableRecord
  2
228
 70
     0
 62
   228
  6
CONTINUOUS
370
    -3
390
F
  0
LAYER
  5
11E
330
2
100
AcDbSymbolTableRecord
100
AcDbLayerTableRecord
  2
229
 70
     0
 62
   229
  6
CONTINUOUS
370
    -3
390
F
  0
LAYER
  5
11F
330
2
100
AcDbSymbolTableRecord
100
AcDbLayerTableRecord
  2
230
 70
     0
 62
   230
  6
CONTINUOUS
370
    -3
390
F
  0
LAYER
  5
120
330
2
100
AcDbSymbolTableRecord
100
AcDbLayerTableRecord
  2
231
 70
     0
 62
   231
  6
CONTINUOUS
370
    -3
390
F
  0
LAYER
  5
121
330
2
100
AcDbSymbolTableRecord
100
AcDbLayerTableRecord
  2
232
 70
     0
 62
   232
  6
CONTINUOUS
370
    -3
390
F
  0
LAYER
  5
122
330
2
100
AcDbSymbolTableRecord
100
AcDbLayerTableRecord
  2
233
 70
     0
 62
   233
  6
CONTINUOUS
370
    -3
390
F
  0
LAYER
  5
123
330
2
100
AcDbSymbolTableRecord
100
AcDbLayerTableRecord
  2
234
 70
     0
 62
   234
  6
CONTINUOUS
370
    -3
390
F
  0
LAYER
  5
124
330
2
100
AcDbSymbolTableRecord
100
AcDbLayerTableRecord
  2
235
 70
     0
 62
   235
  6
CONTINUOUS
370
    -3
390
F
  0
LAYER
  5
125
330
2
100
AcDbSymbolTableRecord
100
AcDbLayerTableRecord
  2
236
 70
     0
 62
   236
  6
CONTINUOUS
370
    -3
390
F
  0
LAYER
  5
126
330
2
100
AcDbSymbolTableRecord
100
AcDbLayerTableRecord
  2
237
 70
     0
 62
   237
  6
CONTINUOUS
370
    -3
390
F
  0
LAYER
  5
127
330
2
100
AcDbSymbolTableRecord
100
AcDbLayerTableRecord
  2
238
 70
     0
 62
   238
  6
CONTINUOUS
370
    -3
390
F
  0
LAYER
  5
128
330
2
100
AcDbSymbolTableRecord
100
AcDbLayerTableRecord
  2
239
 70
     0
 62
   239
  6
CONTINUOUS
370
    -3
390
F
  0
LAYER
  5
129
330
2
100
AcDbSymbolTableRecord
100
AcDbLayerTableRecord
  2
240
 70
     0
 62
   240
  6
CONTINUOUS
370
    -3
390
F
  0
LAYER
  5
12A
330
2
100
AcDbSymbolTableRecord
100
AcDbLayerTableRecord
  2
241
 70
     0
 62
   241
  6
CONTINUOUS
370
    -3
390
F
  0
LAYER
  5
12B
330
2
100
AcDbSymbolTableRecord
100
AcDbLayerTableRecord
  2
242
 70
     0
 62
   242
  6
CONTINUOUS
370
    -3
390
F
  0
LAYER
  5
12C
330
2
100
AcDbSymbolTableRecord
100
AcDbLayerTableRecord
  2
243
 70
     0
 62
   243
  6
CONTINUOUS
370
    -3
390
F
  0
LAYER
  5
12D
330
2
100
AcDbSymbolTableRecord
100
AcDbLayerTableRecord
  2
244
 70
     0
 62
   244
  6
CONTINUOUS
370
    -3
390
F
  0
LAYER
  5
12E
330
2
100
AcDbSymbolTableRecord
100
AcDbLayerTableRecord
  2
245
 70
     0
 62
   245
  6
CONTINUOUS
370
    -3
390
F
  0
LAYER
  5
12F
330
2
100
AcDbSymbolTableRecord
100
AcDbLayerTableRecord
  2
246
 70
     0
 62
   246
  6
CONTINUOUS
370
    -3
390
F
  0
LAYER
  5
130
330
2
100
AcDbSymbolTableRecord
100
AcDbLayerTableRecord
  2
247
 70
     0
 62
   247
  6
CONTINUOUS
370
    -3
390
F
  0
LAYER
  5
131
330
2
100
AcDbSymbolTableRecord
100
AcDbLayerTableRecord
  2
248
 70
     0
 62
   248
  6
CONTINUOUS
370
    -3
390
F
  0
LAYER
  5
132
330
2
100
AcDbSymbolTableRecord
100
AcDbLayerTableRecord
  2
249
 70
     0
 62
   249
  6
CONTINUOUS
370
    -3
390
F
  0
LAYER
  5
133
330
2
100
AcDbSymbolTableRecord
100
AcDbLayerTableRecord
  2
250
 70
     0
 62
   250
  6
CONTINUOUS
370
    -3
390
F
  0
LAYER
  5
134
330
2
100
AcDbSymbolTableRecord
100
AcDbLayerTableRecord
  2
251
 70
     0
 62
   251
  6
CONTINUOUS
370
    -3
390
F
  0
LAYER
  5
135
330
2
100
AcDbSymbolTableRecord
100
AcDbLayerTableRecord
  2
252
 70
     0
 62
   252
  6
CONTINUOUS
370
    -3
390
F
  0
LAYER
  5
136
330
2
100
AcDbSymbolTableRecord
100
AcDbLayerTableRecord
  2
253
 70
     0
 62
   253
  6
CONTINUOUS
370
    -3
390
F
  0
LAYER
  5
137
330
2
100
AcDbSymbolTableRecord
100
AcDbLayerTableRecord
  2
254
 70
     0
 62
   254
  6
CONTINUOUS
370
    -3
390
F
  0
LAYER
  5
138
330
2
100
AcDbSymbolTableRecord
100
AcDbLayerTableRecord
  2
255
 70
     0
 62
   255
  6
CONTINUOUS
370
    -3
390
F
  0
ENDTAB
  0
TABLE
  2
STYLE
  5
3
330
0
100
AcDbSymbolTable
 70
     1
  0
STYLE
  5
11
330
3
100
AcDbSymbolTableRecord
100
AcDbTextStyleTableRecord
  2
STANDARD
 70
     0
 40
0.0
 41
1.0
 50
0.0
 71
     0
 42
0.2
  3
txt
  4

  0
ENDTAB
  0
TABLE
  2
VIEW
  5
6
330
0
100
AcDbSymbolTable
 70
     0
  0
ENDTAB
  0
TABLE
  2
UCS
  5
7
330
0
100
AcDbSymbolTable
 70
     0
  0
ENDTAB
  0
TABLE
  2
APPID
  5
9
330
0
100
AcDbSymbolTable
 70
     1
  0
APPID
  5
12
330
9
100
AcDbSymbolTableRecord
100
AcDbRegAppTableRecord
  2
ACAD
 70
     0
  0
ENDTAB
  0
TABLE
  2
DIMSTYLE
  5
A
330
0
100
AcDbSymbolTable
 70
     1
100
AcDbDimStyleTable
 71
     0
  0
DIMSTYLE
105
AF0
330
A
100
AcDbSymbolTableRecord
100
AcDbDimStyleTableRecord
  2
Standard
 70
     0
340
11
  0
ENDTAB
  0
TABLE
  2
BLOCK_RECORD
  5
1
330
0
100
AcDbSymbolTable
 70
     0
  0
BLOCK_RECORD
  5
1E
330
1
100
AcDbSymbolTableRecord
100
AcDbBlockTableRecord
  2
*Model_Space
340
21
  0
BLOCK_RECORD
  5
1A
330
1
100
AcDbSymbolTableRecord
100
AcDbBlockTableRecord
  2
*Paper_Space
340
1D
  0
ENDTAB
  0
ENDSEC
  0
SECTION
  2
BLOCKS
  0
BLOCK
  5
13B
330
1E
100
AcDbEntity
  8
0
100
AcDbBlockBegin
  2
*Model_Space
 70
     0
 10
0.0
 20
0.0
 30
0.0
  3
*Model_Space
  1

  0
ENDBLK
  5
13C
330
1E
100
AcDbEntity
  8
0
100
AcDbBlockEnd
  0
BLOCK
  5
139
330
1A
100
AcDbEntity
 67
     1
  8
0
100
AcDbBlockBegin
  2
*Paper_Space
 70
     0
 10
0.0
 20
0.0
 30
0.0
  3
*Paper_Space
  1

  0
ENDBLK
  5
13A
330
1A
100
AcDbEntity
 67
     1
  8
0
100
AcDbBlockEnd
  0
ENDSEC
  0
SECTION
  2
ENTITIES
  0
LWPOLYLINE
  5
13E
330
1E
100
AcDbEntity
  8
0
100
AcDbPolyline
 90
        3
 70
     0
 43
0.0
 10
0.0
 20
0.0049212598425197
 10
0.0
 20
0.0
 10
0.0049212598425197
 20
0.0
  0
LINE
  5
148
330
1E
100
AcDbEntity
  8
0
100
AcDbLine
 10
4.598425196850393
 20
0.3858267716535433
 30
0.0
 11
4.572834645669291
 21
0.8730314960629922
 31
0.0
  0
LINE
  5
149
330
1E
100
AcDbEntity
  8
0
100
AcDbLine
 10
2.445866141732283
 20
0.8730314960629922
 30
0.0
 11
2.420275590551181
 21
0.3858267716535433
 31
0.0
  0
LWPOLYLINE
  5
14A
330
1E
100
AcDbEntity
  8
0
100
AcDbPolyline
 90
        7
 70
     0
 43
0.0
 10
4.486220472440944
 20
0.2677165354330708
 10
4.516732283464566
 20
0.2716535433070866
 10
4.544291338582676
 20
0.2834645669291338
 10
4.567913385826771
 20
0.3021653543307087
 10
4.585629921259842
 20
0.326771653543307
 10
4.596456692913386
 20
0.3553149606299212
 10
4.598425196850393
 20
0.3858267716535433
  0
LWPOLYLINE
  5
153
330
1E
100
AcDbEntity
  8
0
100
AcDbPolyline
 90
        7
 70
     0
 43
0.0
 10
2.420275590551181
 20
0.3858267716535433
 10
2.423228346456693
 20
0.3553149606299212
 10
2.434055118110236
 20
0.326771653543307
 10
2.451771653543306
 20
0.3021653543307087
 10
2.475393700787401
 20
0.2834645669291338
 10
2.502952755905511
 20
0.2716535433070866
 10
2.533464566929133
 20
0.2677165354330708
  0
LWPOLYLINE
  5
15C
330
1E
100
AcDbEntity
  8
0
100
AcDbPolyline
 90
        3
 70
     0
 43
0.0
 10
2.466535433070866
 20
0.8927165354330707
 10
2.452755905511811
 20
0.8868110236220472
 10
2.445866141732283
 20
0.8730314960629922
  0
LWPOLYLINE
  5
161
330
1E
100
AcDbEntity
  8
0
100
AcDbPolyline
 90
        3
 70
     0
 43
0.0
 10
4.572834645669291
 20
0.8730314960629922
 10
4.566929133858267
 20
0.8868110236220472
 10
4.553149606299212
 20
0.8927165354330707
  0
LWPOLYLINE
  5
166
330
1E
100
AcDbEntity
  8
0
100
AcDbPolyline
 90
        4
 70
     0
 43
0.0
 10
2.466535433070866
 20
0.8927165354330707
 10
2.473425196850393
 20
0.8927165354330707
 10
2.494094488188976
 20
0.8927165354330707
 10
2.52755905511811
 20
0.8927165354330707
  0
LWPOLYLINE
  5
16C
330
1E
100
AcDbEntity
  8
0
100
AcDbPolyline
 90
        3
 70
     0
 43
0.0
 10
2.52755905511811
 20
0.8927165354330707
 10
2.531496062992125
 20
0.8927165354330707
 10
2.540354330708661
 20
0.8927165354330707
  0
LWPOLYLINE
  5
171
330
1E
100
AcDbEntity
  8
0
100
AcDbPolyline
 90
        7
 70
     0
 43
0.0
 10
2.540354330708661
 20
0.8927165354330707
 10
2.58267716535433
 20
0.8927165354330707
 10
2.633858267716535
 20
0.8927165354330707
 10
2.693897637795275
 20
0.8927165354330707
 10
2.761811023622047
 20
0.8927165354330707
 10
2.836614173228346
 20
0.8927165354330707
 10
2.917322834645669
 20
0.8927165354330707
  0
LWPOLYLINE
  5
17A
330
1E
100
AcDbEntity
  8
0
100
AcDbPolyline
 90
        3
 70
     0
 43
0.0
 10
2.917322834645669
 20
0.8927165354330707
 10
2.93011811023622
 20
0.8927165354330707
 10
2.946850393700787
 20
0.8927165354330707
  0
LWPOLYLINE
  5
17F
330
1E
100
AcDbEntity
  8
0
100
AcDbPolyline
 90
       14
 70
     0
 43
0.0
 10
2.946850393700787
 20
0.8927165354330707
 10
3.025590551181102
 20
0.8927165354330707
 10
3.109251968503937
 20
0.8927165354330707
 10
3.194881889763779
 20
0.8927165354330707
 10
3.283464566929133
 20
0.8927165354330707
 10
3.373031496062992
 20
0.8927165354330707
 10
3.464566929133858
 20
0.8927165354330707
 10
3.55511811023622
 20
0.8927165354330707
 10
3.646653543307086
 20
0.8927165354330707
 10
3.736220472440944
 20
0.8927165354330707
 10
3.824803149606299
 20
0.8927165354330707
 10
3.910433070866141
 20
0.8927165354330707
 10
3.994094488188976
 20
0.8927165354330707
 10
4.072834645669291
 20
0.8927165354330707
  0
LWPOLYLINE
  5
18F
330
1E
100
AcDbEntity
  8
0
100
AcDbPolyline
 90
        3
 70
     0
 43
0.0
 10
4.072834645669291
 20
0.8927165354330707
 10
4.089566929133858
 20
0.8927165354330707
 10
4.102362204724409
 20
0.8927165354330707
  0
LWPOLYLINE
  5
194
330
1E
100
AcDbEntity
  8
0
100
AcDbPolyline
 90
        7
 70
     0
 43
0.0
 10
4.102362204724409
 20
0.8927165354330707
 10
4.183070866141732
 20
0.8927165354330707
 10
4.257874015748031
 20
0.8927165354330707
 10
4.325787401574802
 20
0.8927165354330707
 10
4.385826771653543
 20
0.8927165354330707
 10
4.437007874015748
 20
0.8927165354330707
 10
4.479330708661417
 20
0.8927165354330707
  0
LWPOLYLINE
  5
19D
330
1E
100
AcDbEntity
  8
0
100
AcDbPolyline
 90
        3
 70
     0
 43
0.0
 10
4.479330708661417
 20
0.8927165354330707
 10
4.488188976377952
 20
0.8927165354330707
 10
4.492125984251968
 20
0.8927165354330707
  0
LWPOLYLINE
  5
1A2
330
1E
100
AcDbEntity
  8
0
100
AcDbPolyline
 90
        4
 70
     0
 43
0.0
 10
4.492125984251968
 20
0.8927165354330707
 10
4.525590551181101
 20
0.8927165354330707
 10
4.546259842519685
 20
0.8927165354330707
 10
4.553149606299212
 20
0.8927165354330707
  0
LWPOLYLINE
  5
1A8
330
1E
100
AcDbEntity
  8
0
100
AcDbPolyline
 90
        4
 70
     0
 43
0.0
 10
4.479330708661417
 20
0.8927165354330707
 10
4.487204724409449
 20
0.8917322834645668
 10
4.491141732283464
 20
0.8917322834645668
 10
4.492125984251968
 20
0.8927165354330707
  0
LWPOLYLINE
  5
1AE
330
1E
100
AcDbEntity
  8
0
100
AcDbPolyline
 90
        4
 70
     0
 43
0.0
 10
4.072834645669291
 20
0.8927165354330707
 10
4.085629921259842
 20
0.8917322834645668
 10
4.097440944881889
 20
0.8917322834645668
 10
4.102362204724409
 20
0.8927165354330707
  0
LWPOLYLINE
  5
1B4
330
1E
100
AcDbEntity
  8
0
100
AcDbPolyline
 90
        4
 70
     0
 43
0.0
 10
2.917322834645669
 20
0.8927165354330707
 10
2.926181102362204
 20
0.8917322834645668
 10
2.939960629921259
 20
0.8917322834645668
 10
2.946850393700787
 20
0.8927165354330707
  0
LWPOLYLINE
  5
1BA
330
1E
100
AcDbEntity
  8
0
100
AcDbPolyline
 90
        4
 70
     0
 43
0.0
 10
2.52755905511811
 20
0.8927165354330707
 10
2.529527559055118
 20
0.8917322834645668
 10
2.536417322834645
 20
0.8917322834645668
 10
2.540354330708661
 20
0.8927165354330707
  0
LINE
  5
1C0
330
1E
100
AcDbEntity
  8
0
100
AcDbLine
 10
3.134842519685039
 20
0.8927165354330707
 30
0.0
 11
3.143700787401574
 21
1.066929133858267
 31
0.0
  0
LINE
  5
1C1
330
1E
100
AcDbEntity
  8
0
100
AcDbLine
 10
3.146653543307086
 20
1.237204724409448
 30
0.0
 11
3.141732283464566
 21
1.297244094488188
 31
0.0
  0
LWPOLYLINE
  5
1C2
330
1E
100
AcDbEntity
  8
0
100
AcDbPolyline
 90
        3
 70
     0
 43
0.0
 10
3.126968503937007
 20
1.311023622047243
 10
3.136811023622047
 20
1.307086614173228
 10
3.141732283464566
 20
1.297244094488188
  0
LINE
  5
1C7
330
1E
100
AcDbEntity
  8
0
100
AcDbLine
 10
3.084645669291338
 20
1.311023622047243
 30
0.0
 11
3.126968503937007
 21
1.311023622047243
 31
0.0
  0
LWPOLYLINE
  5
1C8
330
1E
100
AcDbEntity
  8
0
100
AcDbPolyline
 90
        3
 70
     0
 43
0.0
 10
3.084645669291338
 20
1.311023622047243
 10
3.073818897637795
 20
1.307086614173228
 10
3.068897637795275
 20
1.296259842519684
  0
LINE
  5
1CD
330
1E
100
AcDbEntity
  8
0
100
AcDbLine
 10
3.068897637795275
 20
1.296259842519684
 30
0.0
 11
3.048228346456693
 21
0.8927165354330707
 31
0.0
  0
LWPOLYLINE
  5
1CE
330
1E
100
AcDbEntity
  8
0
100
AcDbPolyline
 90
        3
 70
     0
 43
0.0
 10
3.171259842519685
 20
1.075787401574803
 10
3.187992125984251
 20
1.072834645669291
 10
3.202755905511811
 20
1.064960629921259
  0
LINE
  5
1D3
330
1E
100
AcDbEntity
  8
0
100
AcDbLine
 10
3.205708661417322
 20
1.062992125984251
 30
0.0
 11
3.202755905511811
 21
1.064960629921259
 31
0.0
  0
LINE
  5
1D4
330
1E
100
AcDbEntity
  8
0
100
AcDbLine
 10
3.205708661417322
 20
1.062992125984251
 30
0.0
 11
3.215551181102362
 21
1.062992125984251
 31
0.0
  0
LINE
  5
1D5
330
1E
100
AcDbEntity
  8
0
100
AcDbLine
 10
3.21259842519685
 20
1.105314960629921
 30
0.0
 11
3.215551181102362
 21
1.062992125984251
 31
0.0
  0
LINE
  5
1D6
330
1E
100
AcDbEntity
  8
0
100
AcDbLine
 10
3.154527559055118
 20
1.075787401574803
 30
0.0
 11
3.171259842519685
 21
1.075787401574803
 31
0.0
  0
LWPOLYLINE
  5
1D7
330
1E
100
AcDbEntity
  8
0
100
AcDbPolyline
 90
        3
 70
     0
 43
0.0
 10
3.143700787401574
 20
1.066929133858267
 10
3.14763779527559
 20
1.072834645669291
 10
3.154527559055118
 20
1.075787401574803
  0
LINE
  5
1DC
330
1E
100
AcDbEntity
  8
0
100
AcDbLine
 10
3.159448818897637
 20
1.196850393700787
 30
0.0
 11
3.21259842519685
 21
1.105314960629921
 31
0.0
  0
LINE
  5
1DD
330
1E
100
AcDbEntity
  8
0
100
AcDbLine
 10
3.044291338582677
 20
1.106299212598425
 30
0.0
 11
3.040354330708661
 21
0.8927165354330707
 31
0.0
  0
LINE
  5
1DE
330
1E
100
AcDbEntity
  8
0
100
AcDbLine
 10
3.054133858267716
 20
1.116141732283464
 30
0.0
 11
3.06003937007874
 21
1.116141732283464
 31
0.0
  0
LWPOLYLINE
  5
1DF
330
1E
100
AcDbEntity
  8
0
100
AcDbPolyline
 90
        3
 70
     0
 43
0.0
 10
3.054133858267716
 20
1.116141732283464
 10
3.047244094488188
 20
1.113188976377952
 10
3.044291338582677
 20
1.106299212598425
  0
LWPOLYLINE
  5
1E4
330
1E
100
AcDbEntity
  8
0
100
AcDbPolyline
 90
        3
 70
     0
 43
0.0
 10
3.159448818897637
 20
1.196850393700787
 10
3.150590551181102
 20
1.216535433070866
 10
3.146653543307086
 20
1.237204724409448
  0
LINE
  5
1E9
330
1E
100
AcDbEntity
  8
0
100
AcDbLine
 10
3.304133858267716
 20
2.565944881889763
 30
0.0
 11
3.304133858267716
 21
2.677165354330708
 31
0.0
  0
LINE
  5
1EA
330
1E
100
AcDbEntity
  8
0
100
AcDbLine
 10
3.304133858267716
 20
2.677165354330708
 30
0.0
 11
3.381889763779527
 21
2.677165354330708
 31
0.0
  0
LINE
  5
1EB
330
1E
100
AcDbEntity
  8
0
100
AcDbLine
 10
3.418307086614173
 20
2.651574803149606
 30
0.0
 11
3.418307086614173
 21
2.651574803149606
 31
0.0
  0
LINE
  5
1EC
330
1E
100
AcDbEntity
  8
0
100
AcDbLine
 10
3.418307086614173
 20
2.651574803149606
 30
0.0
 11
3.440944881889763
 21
2.651574803149606
 31
0.0
  0
LINE
  5
1ED
330
1E
100
AcDbEntity
  8
0
100
AcDbLine
 10
3.465551181102362
 20
2.595472440944881
 30
0.0
 11
3.465551181102362
 21
2.651574803149606
 31
0.0
  0
LINE
  5
1EE
330
1E
100
AcDbEntity
  8
0
100
AcDbLine
 10
3.418307086614173
 20
2.651574803149606
 30
0.0
 11
3.440944881889763
 21
2.651574803149606
 31
0.0
  0
LINE
  5
1EF
330
1E
100
AcDbEntity
  8
0
100
AcDbLine
 10
3.509842519685039
 20
2.62007874015748
 30
0.0
 11
3.494094488188976
 21
2.651574803149606
 31
0.0
  0
LINE
  5
1F0
330
1E
100
AcDbEntity
  8
0
100
AcDbLine
 10
3.465551181102362
 20
2.651574803149606
 30
0.0
 11
3.494094488188976
 21
2.651574803149606
 31
0.0
  0
LINE
  5
1F1
330
1E
100
AcDbEntity
  8
0
100
AcDbLine
 10
3.509842519685039
 20
2.651574803149606
 30
0.0
 11
3.531496062992125
 21
2.651574803149606
 31
0.0
  0
LINE
  5
1F2
330
1E
100
AcDbEntity
  8
0
100
AcDbLine
 10
3.531496062992125
 20
2.651574803149606
 30
0.0
 11
3.531496062992125
 21
2.565944881889763
 31
0.0
  0
LINE
  5
1F3
330
1E
100
AcDbEntity
  8
0
100
AcDbLine
 10
3.509842519685039
 20
2.62007874015748
 30
0.0
 11
3.494094488188976
 21
2.651574803149606
 31
0.0
  0
LINE
  5
1F4
330
1E
100
AcDbEntity
  8
0
100
AcDbLine
 10
3.509842519685039
 20
2.62007874015748
 30
0.0
 11
3.509842519685039
 21
2.651574803149606
 31
0.0
  0
LINE
  5
1F5
330
1E
100
AcDbEntity
  8
0
100
AcDbLine
 10
3.546259842519685
 20
2.651574803149606
 30
0.0
 11
3.594488188976377
 21
2.651574803149606
 31
0.0
  0
LINE
  5
1F6
330
1E
100
AcDbEntity
  8
0
100
AcDbLine
 10
3.609251968503937
 20
2.635826771653543
 30
0.0
 11
3.609251968503937
 21
2.580708661417322
 31
0.0
  0
LINE
  5
1F7
330
1E
100
AcDbEntity
  8
0
100
AcDbLine
 10
3.594488188976377
 20
2.565944881889763
 30
0.0
 11
3.546259842519685
 21
2.565944881889763
 31
0.0
  0
LINE
  5
1F8
330
1E
100
AcDbEntity
  8
0
100
AcDbLine
 10
3.546259842519685
 20
2.565944881889763
 30
0.0
 11
3.546259842519685
 21
2.651574803149606
 31
0.0
  0
LINE
  5
1F9
330
1E
100
AcDbEntity
  8
0
100
AcDbLine
 10
3.571850393700787
 20
2.585629921259842
 30
0.0
 11
3.571850393700787
 21
2.633858267716535
 31
0.0
  0
LINE
  5
1FA
330
1E
100
AcDbEntity
  8
0
100
AcDbLine
 10
3.571850393700787
 20
2.633858267716535
 30
0.0
 11
3.579724409448818
 21
2.633858267716535
 31
0.0
  0
LINE
  5
1FB
330
1E
100
AcDbEntity
  8
0
100
AcDbLine
 10
3.584645669291338
 20
2.628937007874015
 30
0.0
 11
3.584645669291338
 21
2.589566929133858
 31
0.0
  0
LINE
  5
1FC
330
1E
100
AcDbEntity
  8
0
100
AcDbLine
 10
3.571850393700787
 20
2.585629921259842
 30
0.0
 11
3.579724409448818
 21
2.585629921259842
 31
0.0
  0
LINE
  5
1FD
330
1E
100
AcDbEntity
  8
0
100
AcDbLine
 10
3.49015748031496
 20
2.602362204724409
 30
0.0
 11
3.505905511811023
 21
2.565944881889763
 31
0.0
  0
LINE
  5
1FE
330
1E
100
AcDbEntity
  8
0
100
AcDbLine
 10
3.531496062992125
 20
2.565944881889763
 30
0.0
 11
3.505905511811023
 21
2.565944881889763
 31
0.0
  0
LINE
  5
1FF
330
1E
100
AcDbEntity
  8
0
100
AcDbLine
 10
3.49015748031496
 20
2.565944881889763
 30
0.0
 11
3.49015748031496
 21
2.602362204724409
 31
0.0
  0
LINE
  5
200
330
1E
100
AcDbEntity
  8
0
100
AcDbLine
 10
3.49015748031496
 20
2.565944881889763
 30
0.0
 11
3.451771653543306
 21
2.565944881889763
 31
0.0
  0
LINE
  5
201
330
1E
100
AcDbEntity
  8
0
100
AcDbLine
 10
3.445866141732283
 20
2.577755905511811
 30
0.0
 11
3.451771653543306
 21
2.565944881889763
 31
0.0
  0
LINE
  5
202
330
1E
100
AcDbEntity
  8
0
100
AcDbLine
 10
3.413385826771653
 20
2.577755905511811
 30
0.0
 11
3.445866141732283
 21
2.577755905511811
 31
0.0
  0
LINE
  5
203
330
1E
100
AcDbEntity
  8
0
100
AcDbLine
 10
3.40748031496063
 20
2.565944881889763
 30
0.0
 11
3.413385826771653
 21
2.577755905511811
 31
0.0
  0
LINE
  5
204
330
1E
100
AcDbEntity
  8
0
100
AcDbLine
 10
3.40748031496063
 20
2.565944881889763
 30
0.0
 11
3.382874015748031
 21
2.565944881889763
 31
0.0
  0
LINE
  5
205
330
1E
100
AcDbEntity
  8
0
100
AcDbLine
 10
3.382874015748031
 20
2.565944881889763
 30
0.0
 11
3.398622047244094
 21
2.604330708661417
 31
0.0
  0
LINE
  5
206
330
1E
100
AcDbEntity
  8
0
100
AcDbLine
 10
3.354330708661417
 20
2.600393700787401
 30
0.0
 11
3.381889763779527
 21
2.600393700787401
 31
0.0
  0
LINE
  5
207
330
1E
100
AcDbEntity
  8
0
100
AcDbLine
 10
3.354330708661417
 20
2.600393700787401
 30
0.0
 11
3.354330708661417
 21
2.565944881889763
 31
0.0
  0
LINE
  5
208
330
1E
100
AcDbEntity
  8
0
100
AcDbLine
 10
3.354330708661417
 20
2.565944881889763
 30
0.0
 11
3.304133858267716
 21
2.565944881889763
 31
0.0
  0
LINE
  5
209
330
1E
100
AcDbEntity
  8
0
100
AcDbLine
 10
3.36515748031496
 20
2.619094488188976
 30
0.0
 11
3.354330708661417
 21
2.619094488188976
 31
0.0
  0
LINE
  5
20A
330
1E
100
AcDbEntity
  8
0
100
AcDbLine
 10
3.371062992125984
 20
2.624015748031495
 30
0.0
 11
3.371062992125984
 21
2.65255905511811
 31
0.0
  0
LINE
  5
20B
330
1E
100
AcDbEntity
  8
0
100
AcDbLine
 10
3.354330708661417
 20
2.65748031496063
 30
0.0
 11
3.36515748031496
 21
2.65748031496063
 31
0.0
  0
LINE
  5
20C
330
1E
100
AcDbEntity
  8
0
100
AcDbLine
 10
3.354330708661417
 20
2.619094488188976
 30
0.0
 11
3.354330708661417
 21
2.65748031496063
 31
0.0
  0
LINE
  5
20D
330
1E
100
AcDbEntity
  8
0
100
AcDbLine
 10
3.429133858267716
 20
2.621062992125984
 30
0.0
 11
3.418307086614173
 21
2.596456692913385
 31
0.0
  0
LINE
  5
20E
330
1E
100
AcDbEntity
  8
0
100
AcDbLine
 10
3.429133858267716
 20
2.621062992125984
 30
0.0
 11
3.439960629921259
 21
2.596456692913385
 31
0.0
  0
LINE
  5
20F
330
1E
100
AcDbEntity
  8
0
100
AcDbLine
 10
3.439960629921259
 20
2.596456692913385
 30
0.0
 11
3.418307086614173
 21
2.596456692913385
 31
0.0
  0
LINE
  5
210
330
1E
100
AcDbEntity
  8
0
100
AcDbLine
 10
3.440944881889763
 20
2.651574803149606
 30
0.0
 11
3.465551181102362
 21
2.595472440944881
 31
0.0
  0
LINE
  5
211
330
1E
100
AcDbEntity
  8
0
100
AcDbLine
 10
3.382874015748031
 20
2.565944881889763
 30
0.0
 11
3.398622047244094
 21
2.604330708661417
 31
0.0
  0
LINE
  5
212
330
1E
100
AcDbEntity
  8
0
100
AcDbLine
 10
3.624015748031495
 20
2.651574803149606
 30
0.0
 11
3.65255905511811
 21
2.651574803149606
 31
0.0
  0
LINE
  5
213
330
1E
100
AcDbEntity
  8
0
100
AcDbLine
 10
3.65255905511811
 20
2.651574803149606
 30
0.0
 11
3.65255905511811
 21
2.589566929133858
 31
0.0
  0
LINE
  5
214
330
1E
100
AcDbEntity
  8
0
100
AcDbLine
 10
3.656496062992125
 20
2.585629921259842
 30
0.0
 11
3.663385826771653
 21
2.585629921259842
 31
0.0
  0
LINE
  5
215
330
1E
100
AcDbEntity
  8
0
100
AcDbLine
 10
3.667322834645669
 20
2.589566929133858
 30
0.0
 11
3.667322834645669
 21
2.651574803149606
 31
0.0
  0
LINE
  5
216
330
1E
100
AcDbEntity
  8
0
100
AcDbLine
 10
3.667322834645669
 20
2.651574803149606
 30
0.0
 11
3.68503937007874
 21
2.651574803149606
 31
0.0
  0
LINE
  5
217
330
1E
100
AcDbEntity
  8
0
100
AcDbLine
 10
3.68503937007874
 20
2.651574803149606
 30
0.0
 11
3.68503937007874
 21
2.580708661417322
 31
0.0
  0
LINE
  5
218
330
1E
100
AcDbEntity
  8
0
100
AcDbLine
 10
3.639763779527558
 20
2.565944881889763
 30
0.0
 11
3.670275590551181
 21
2.565944881889763
 31
0.0
  0
LINE
  5
219
330
1E
100
AcDbEntity
  8
0
100
AcDbLine
 10
3.624015748031495
 20
2.580708661417322
 30
0.0
 11
3.624015748031495
 21
2.651574803149606
 31
0.0
  0
LINE
  5
21A
330
1E
100
AcDbEntity
  8
0
100
AcDbLine
 10
3.699803149606299
 20
2.651574803149606
 30
0.0
 11
3.722440944881889
 21
2.651574803149606
 31
0.0
  0
LINE
  5
21B
330
1E
100
AcDbEntity
  8
0
100
AcDbLine
 10
3.722440944881889
 20
2.565944881889763
 30
0.0
 11
3.722440944881889
 21
2.651574803149606
 31
0.0
  0
LINE
  5
21C
330
1E
100
AcDbEntity
  8
0
100
AcDbLine
 10
3.722440944881889
 20
2.565944881889763
 30
0.0
 11
3.699803149606299
 21
2.565944881889763
 31
0.0
  0
LINE
  5
21D
330
1E
100
AcDbEntity
  8
0
100
AcDbLine
 10
3.699803149606299
 20
2.565944881889763
 30
0.0
 11
3.699803149606299
 21
2.651574803149606
 31
0.0
  0
LINE
  5
21E
330
1E
100
AcDbEntity
  8
0
100
AcDbLine
 10
3.738188976377952
 20
2.651574803149606
 30
0.0
 11
3.738188976377952
 21
2.633858267716535
 31
0.0
  0
LINE
  5
21F
330
1E
100
AcDbEntity
  8
0
100
AcDbLine
 10
3.738188976377952
 20
2.651574803149606
 30
0.0
 11
3.801181102362204
 21
2.651574803149606
 31
0.0
  0
LINE
  5
220
330
1E
100
AcDbEntity
  8
0
100
AcDbLine
 10
3.801181102362204
 20
2.633858267716535
 30
0.0
 11
3.801181102362204
 21
2.651574803149606
 31
0.0
  0
LINE
  5
221
330
1E
100
AcDbEntity
  8
0
100
AcDbLine
 10
3.801181102362204
 20
2.633858267716535
 30
0.0
 11
3.781496062992125
 21
2.633858267716535
 31
0.0
  0
LINE
  5
222
330
1E
100
AcDbEntity
  8
0
100
AcDbLine
 10
3.781496062992125
 20
2.565944881889763
 30
0.0
 11
3.781496062992125
 21
2.633858267716535
 31
0.0
  0
LINE
  5
223
330
1E
100
AcDbEntity
  8
0
100
AcDbLine
 10
3.781496062992125
 20
2.565944881889763
 30
0.0
 11
3.754921259842519
 21
2.565944881889763
 31
0.0
  0
LINE
  5
224
330
1E
100
AcDbEntity
  8
0
100
AcDbLine
 10
3.754921259842519
 20
2.565944881889763
 30
0.0
 11
3.754921259842519
 21
2.633858267716535
 31
0.0
  0
LINE
  5
225
330
1E
100
AcDbEntity
  8
0
100
AcDbLine
 10
3.738188976377952
 20
2.633858267716535
 30
0.0
 11
3.754921259842519
 21
2.633858267716535
 31
0.0
  0
LINE
  5
226
330
1E
100
AcDbEntity
  8
0
100
AcDbLine
 10
3.806102362204724
 20
3.405511811023622
 30
0.0
 11
3.806102362204724
 21
3.24507874015748
 31
0.0
  0
LWPOLYLINE
  5
227
330
1E
100
AcDbEntity
  8
0
100
AcDbPolyline
 90
        3
 70
     0
 43
0.0
 10
3.418307086614173
 20
2.651574803149606
 10
3.404527559055118
 20
2.670275590551181
 10
3.381889763779527
 20
2.677165354330708
  0
LWPOLYLINE
  5
22C
330
1E
100
AcDbEntity
  8
0
100
AcDbPolyline
 90
        3
 70
     0
 43
0.0
 10
3.609251968503937
 20
2.635826771653543
 10
3.605314960629921
 20
2.646653543307086
 10
3.594488188976377
 20
2.651574803149606
  0
LWPOLYLINE
  5
231
330
1E
100
AcDbEntity
  8
0
100
AcDbPolyline
 90
        3
 70
     0
 43
0.0
 10
3.594488188976377
 20
2.565944881889763
 10
3.605314960629921
 20
2.569881889763779
 10
3.609251968503937
 20
2.580708661417322
  0
LWPOLYLINE
  5
236
330
1E
100
AcDbEntity
  8
0
100
AcDbPolyline
 90
        3
 70
     0
 43
0.0
 10
3.584645669291338
 20
2.628937007874015
 10
3.583661417322834
 20
2.631889763779527
 10
3.579724409448818
 20
2.633858267716535
  0
LWPOLYLINE
  5
23B
330
1E
100
AcDbEntity
  8
0
100
AcDbPolyline
 90
        3
 70
     0
 43
0.0
 10
3.584645669291338
 20
2.589566929133858
 10
3.583661417322834
 20
2.586614173228346
 10
3.579724409448818
 20
2.585629921259842
  0
LWPOLYLINE
  5
240
330
1E
100
AcDbEntity
  8
0
100
AcDbPolyline
 90
        3
 70
     0
 43
0.0
 10
3.381889763779527
 20
2.600393700787401
 10
3.390748031496062
 20
2.601377952755905
 10
3.398622047244094
 20
2.604330708661417
  0
LWPOLYLINE
  5
245
330
1E
100
AcDbEntity
  8
0
100
AcDbPolyline
 90
        3
 70
     0
 43
0.0
 10
3.36515748031496
 20
2.619094488188976
 10
3.369094488188976
 20
2.62007874015748
 10
3.371062992125984
 20
2.624015748031495
  0
LWPOLYLINE
  5
24A
330
1E
100
AcDbEntity
  8
0
100
AcDbPolyline
 90
        3
 70
     0
 43
0.0
 10
3.371062992125984
 20
2.65255905511811
 10
3.369094488188976
 20
2.656496062992125
 10
3.36515748031496
 20
2.65748031496063
  0
LWPOLYLINE
  5
24F
330
1E
100
AcDbEntity
  8
0
100
AcDbPolyline
 90
        3
 70
     0
 43
0.0
 10
3.65255905511811
 20
2.589566929133858
 10
3.653543307086613
 20
2.586614173228346
 10
3.656496062992125
 20
2.585629921259842
  0
LWPOLYLINE
  5
254
330
1E
100
AcDbEntity
  8
0
100
AcDbPolyline
 90
        3
 70
     0
 43
0.0
 10
3.663385826771653
 20
2.585629921259842
 10
3.666338582677165
 20
2.586614173228346
 10
3.667322834645669
 20
2.589566929133858
  0
LWPOLYLINE
  5
259
330
1E
100
AcDbEntity
  8
0
100
AcDbPolyline
 90
        3
 70
     0
 43
0.0
 10
3.670275590551181
 20
2.565944881889763
 10
3.681102362204724
 20
2.569881889763779
 10
3.68503937007874
 20
2.580708661417322
  0
LWPOLYLINE
  5
25E
330
1E
100
AcDbEntity
  8
0
100
AcDbPolyline
 90
        3
 70
     0
 43
0.0
 10
3.624015748031495
 20
2.580708661417322
 10
3.628937007874015
 20
2.569881889763779
 10
3.639763779527558
 20
2.565944881889763
  0
CIRCLE
  5
263
330
1E
100
AcDbEntity
  8
0
100
AcDbCircle
 10
3.510334645669291
 20
3.32529527559055
 30
0.0
 40
1.089074914339384
  0
LINE
  5
264
330
1E
100
AcDbEntity
  8
0
100
AcDbLine
 10
3.584645669291338
 20
4.164370078740157
 30
0.0
 11
3.43503937007874
 21
4.164370078740157
 31
0.0
  0
LINE
  5
265
330
1E
100
AcDbEntity
  8
0
100
AcDbLine
 10
3.509842519685039
 20
3.993110236220472
 30
0.0
 11
3.509842519685039
 21
4.0501968503937
 31
0.0
  0
LINE
  5
266
330
1E
100
AcDbEntity
  8
0
100
AcDbLine
 10
3.43503937007874
 20
4.164370078740157
 30
0.0
 11
3.43503937007874
 21
3.993110236220472
 31
0.0
  0
LINE
  5
267
330
1E
100
AcDbEntity
  8
0
100
AcDbLine
 10
3.509842519685039
 20
4.0501968503937
 30
0.0
 11
3.584645669291338
 21
4.0501968503937
 31
0.0
  0
LINE
  5
268
330
1E
100
AcDbEntity
  8
0
100
AcDbLine
 10
3.43503937007874
 20
3.993110236220472
 30
0.0
 11
3.509842519685039
 21
3.993110236220472
 31
0.0
  0
LWPOLYLINE
  5
269
330
1E
100
AcDbEntity
  8
0
100
AcDbPolyline
 90
        7
 70
     0
 43
0.0
 10
3.531496062992125
 20
4.098425196850393
 10
3.526574803149606
 20
4.106299212598425
 10
3.51771653543307
 20
4.106299212598425
 10
3.51279527559055
 20
4.098425196850393
 10
3.51771653543307
 20
4.090551181102362
 10
3.526574803149606
 20
4.090551181102362
 10
3.531496062992125
 20
4.098425196850393
  0
LWPOLYLINE
  5
272
330
1E
100
AcDbEntity
  8
0
100
AcDbPolyline
 90
        7
 70
     0
 43
0.0
 10
3.572834645669291
 20
4.098425196850393
 10
3.567913385826771
 20
4.106299212598425
 10
3.559055118110236
 20
4.106299212598425
 10
3.554133858267716
 20
4.098425196850393
 10
3.559055118110236
 20
4.090551181102362
 10
3.567913385826771
 20
4.090551181102362
 10
3.572834645669291
 20
4.098425196850393
  0
LWPOLYLINE
  5
27B
330
1E
100
AcDbEntity
  8
0
100
AcDbPolyline
 90
        9
 70
     0
 43
0.0
 10
3.584645669291338
 20
4.0501968503937
 10
3.606299212598425
 20
4.05511811023622
 10
3.625
 20
4.066929133858267
 10
3.63779527559055
 20
4.085629921259842
 10
3.641732283464566
 20
4.107283464566928
 10
3.63779527559055
 20
4.128937007874015
 10
3.625
 20
4.14763779527559
 10
3.606299212598425
 20
4.160433070866141
 10
3.584645669291338
 20
4.164370078740157
  0
LWPOLYLINE
  5
286
330
1E
100
AcDbEntity
  8
0
100
AcDbPolyline
 90
        7
 70
     0
 43
0.0
 10
3.552165354330708
 20
4.134842519685038
 10
3.547244094488188
 20
4.14271653543307
 10
3.538385826771653
 20
4.14271653543307
 10
3.533464566929133
 20
4.134842519685038
 10
3.538385826771653
 20
4.126968503937007
 10
3.547244094488188
 20
4.126968503937007
 10
3.552165354330708
 20
4.134842519685038
  0
LWPOLYLINE
  5
28F
330
1E
100
AcDbEntity
  8
0
100
AcDbPolyline
 90
        7
 70
     0
 43
0.0
 10
3.531496062992125
 20
4.123031496062991
 10
3.526574803149606
 20
4.129921259842519
 10
3.51771653543307
 20
4.129921259842519
 10
3.51279527559055
 20
4.123031496062991
 10
3.51771653543307
 20
4.11515748031496
 10
3.526574803149606
 20
4.11515748031496
 10
3.531496062992125
 20
4.123031496062991
  0
LWPOLYLINE
  5
298
330
1E
100
AcDbEntity
  8
0
100
AcDbPolyline
 90
        7
 70
     0
 43
0.0
 10
3.552165354330708
 20
4.11023622047244
 10
3.547244094488188
 20
4.118110236220472
 10
3.538385826771653
 20
4.118110236220472
 10
3.533464566929133
 20
4.11023622047244
 10
3.538385826771653
 20
4.102362204724409
 10
3.547244094488188
 20
4.102362204724409
 10
3.552165354330708
 20
4.11023622047244
  0
LWPOLYLINE
  5
2A1
330
1E
100
AcDbEntity
  8
0
100
AcDbPolyline
 90
        7
 70
     0
 43
0.0
 10
3.572834645669291
 20
4.123031496062991
 10
3.567913385826771
 20
4.129921259842519
 10
3.559055118110236
 20
4.129921259842519
 10
3.554133858267716
 20
4.123031496062991
 10
3.559055118110236
 20
4.11515748031496
 10
3.567913385826771
 20
4.11515748031496
 10
3.572834645669291
 20
4.123031496062991
  0
LWPOLYLINE
  5
2AA
330
1E
100
AcDbEntity
  8
0
100
AcDbPolyline
 90
        7
 70
     0
 43
0.0
 10
3.552165354330708
 20
4.086614173228346
 10
3.547244094488188
 20
4.094488188976377
 10
3.538385826771653
 20
4.094488188976377
 10
3.533464566929133
 20
4.086614173228346
 10
3.538385826771653
 20
4.078740157480314
 10
3.547244094488188
 20
4.078740157480314
 10
3.552165354330708
 20
4.086614173228346
  0
LWPOLYLINE
  5
2B3
330
1E
100
AcDbEntity
  8
0
100
AcDbPolyline
 90
        3
 70
     0
 43
0.0
 10
3.284448818897637
 20
3.808070866141732
 10
3.319881889763779
 20
3.89763779527559
 10
3.355314960629921
 20
3.808070866141732
  0
LINE
  5
2B8
330
1E
100
AcDbEntity
  8
0
100
AcDbLine
 10
3.302165354330708
 20
3.853346456692913
 30
0.0
 11
3.33759842519685
 21
3.853346456692913
 31
0.0
  0
LWPOLYLINE
  5
2B9
330
1E
100
AcDbEntity
  8
0
100
AcDbPolyline
 90
        3
 70
     0
 43
0.0
 10
3.382874015748031
 20
3.89763779527559
 10
3.418307086614173
 20
3.808070866141732
 10
3.453740157480314
 20
3.89763779527559
  0
LWPOLYLINE
  5
2BE
330
1E
100
AcDbEntity
  8
0
100
AcDbPolyline
 90
        7
 70
     0
 43
0.0
 10
3.480314960629921
 20
3.808070866141732
 10
3.480314960629921
 20
3.89763779527559
 10
3.534448818897637
 20
3.89763779527559
 10
3.552165354330708
 20
3.888779527559055
 10
3.552165354330708
 20
3.861220472440944
 10
3.533464566929133
 20
3.853346456692913
 10
3.480314960629921
 20
3.853346456692913
  0
LWPOLYLINE
  5
2C7
330
1E
100
AcDbEntity
  8
0
100
AcDbPolyline
 90
        7
 70
     0
 43
0.0
 10
3.578740157480314
 20
3.808070866141732
 10
3.630905511811023
 20
3.808070866141732
 10
3.649606299212598
 20
3.825787401574803
 10
3.649606299212598
 20
3.879921259842519
 10
3.630905511811023
 20
3.89763779527559
 10
3.578740157480314
 20
3.89763779527559
 10
3.578740157480314
 20
3.808070866141732
  0
LWPOLYLINE
  5
2D0
330
1E
100
AcDbEntity
  8
0
100
AcDbPolyline
 90
       12
 70
     0
 43
0.0
 10
3.677165354330708
 20
3.861220472440944
 10
3.677165354330708
 20
3.89763779527559
 10
3.730314960629921
 20
3.89763779527559
 10
3.738188976377952
 20
3.888779527559055
 10
3.738188976377952
 20
3.871062992125984
 10
3.730314960629921
 20
3.861220472440944
 10
3.677165354330708
 20
3.861220472440944
 10
3.677165354330708
 20
3.808070866141732
 10
3.729330708661417
 20
3.808070866141732
 10
3.747047244094487
 20
3.816929133858267
 10
3.747047244094487
 20
3.853346456692913
 10
3.730314960629921
 20
3.861220472440944
  0
LWPOLYLINE
  5
2DE
330
1E
100
AcDbEntity
  8
0
100
AcDbPolyline
 90
        3
 70
     0
 43
0.0
 10
3.996062992125984
 20
4.187007874015748
 10
4.004921259842519
 20
4.18996062992126
 10
4.033464566929134
 20
4.194881889763779
  0
LWPOLYLINE
  5
2E3
330
1E
100
AcDbEntity
  8
0
100
AcDbPolyline
 90
       13
 70
     0
 43
0.0
 10
4.033464566929134
 20
4.194881889763779
 10
3.952755905511811
 20
4.238188976377952
 10
3.869094488188976
 20
4.274606299212598
 10
3.781496062992125
 20
4.303149606299212
 10
3.691929133858267
 20
4.323818897637795
 10
3.601377952755905
 20
4.336614173228346
 10
3.509842519685039
 20
4.340551181102362
 10
3.418307086614173
 20
4.336614173228346
 10
3.327755905511811
 20
4.323818897637795
 10
3.238188976377952
 20
4.303149606299212
 10
3.150590551181102
 20
4.274606299212598
 10
3.066929133858267
 20
4.238188976377952
 10
2.986220472440944
 20
4.194881889763779
  0
LWPOLYLINE
  5
2F2
330
1E
100
AcDbEntity
  8
0
100
AcDbPolyline
 90
        4
 70
     0
 43
0.0
 10
2.986220472440944
 20
4.194881889763779
 10
2.994094488188976
 20
4.193897637795275
 10
3.020669291338582
 20
4.187992125984251
 10
3.023622047244094
 20
4.187007874015748
  0
LWPOLYLINE
  5
2F8
330
1E
100
AcDbEntity
  8
0
100
AcDbPolyline
 90
       12
 70
     0
 43
0.0
 10
3.023622047244094
 20
4.187007874015748
 10
3.106299212598425
 20
4.228346456692912
 10
3.191929133858267
 20
4.261811023622047
 10
3.281496062992125
 20
4.287401574803149
 10
3.372047244094487
 20
4.30511811023622
 10
3.463582677165354
 20
4.312992125984251
 10
3.556102362204724
 20
4.312992125984251
 10
3.64763779527559
 20
4.30511811023622
 10
3.738188976377952
 20
4.287401574803149
 10
3.827755905511811
 20
4.261811023622047
 10
3.913385826771653
 20
4.228346456692912
 10
3.996062992125984
 20
4.187007874015748
  0
LWPOLYLINE
  5
306
330
1E
100
AcDbEntity
  8
0
100
AcDbPolyline
 90
        3
 70
     0
 43
0.0
 10
2.90255905511811
 20
4.106299212598425
 10
2.903543307086614
 20
4.116141732283464
 10
2.910433070866141
 20
4.144685039370078
  0
LWPOLYLINE
  5
30B
330
1E
100
AcDbEntity
  8
0
100
AcDbPolyline
 90
        6
 70
     0
 43
0.0
 10
2.910433070866141
 20
4.144685039370078
 10
2.826771653543307
 20
4.075787401574802
 10
2.750984251968503
 20
3.999015748031495
 10
2.683070866141732
 20
3.915354330708661
 10
2.625
 20
3.823818897637795
 10
2.577755905511811
 20
3.727362204724409
  0
LWPOLYLINE
  5
313
330
1E
100
AcDbEntity
  8
0
100
AcDbPolyline
 90
        4
 70
     0
 43
0.0
 10
2.577755905511811
 20
3.727362204724409
 10
2.584645669291338
 20
3.731299212598425
 10
2.61023622047244
 20
3.742125984251968
 10
2.613188976377952
 20
3.742125984251968
  0
LWPOLYLINE
  5
319
330
1E
100
AcDbEntity
  8
0
100
AcDbPolyline
 90
        6
 70
     0
 43
0.0
 10
2.613188976377952
 20
3.742125984251968
 10
2.656496062992125
 20
3.825787401574803
 10
2.70767716535433
 20
3.904527559055118
 10
2.766732283464566
 20
3.977362204724409
 10
2.831692913385826
 20
4.045275590551181
 10
2.90255905511811
 20
4.106299212598425
  0
LWPOLYLINE
  5
321
330
1E
100
AcDbEntity
  8
0
100
AcDbPolyline
 90
        3
 70
     0
 43
0.0
 10
4.406496062992125
 20
3.742125984251968
 10
4.416338582677165
 20
3.739173228346456
 10
4.441929133858267
 20
3.727362204724409
  0
LWPOLYLINE
  5
326
330
1E
100
AcDbEntity
  8
0
100
AcDbPolyline
 90
        6
 70
     0
 43
0.0
 10
4.441929133858267
 20
3.727362204724409
 10
4.393700787401574
 20
3.823818897637795
 10
4.336614173228346
 20
3.915354330708661
 10
4.268700787401574
 20
3.999015748031495
 10
4.192913385826771
 20
4.075787401574802
 10
4.109251968503937
 20
4.144685039370078
  0
LWPOLYLINE
  5
32E
330
1E
100
AcDbEntity
  8
0
100
AcDbPolyline
 90
        4
 70
     0
 43
0.0
 10
4.109251968503937
 20
4.144685039370078
 10
4.112204724409449
 20
4.136811023622047
 10
4.116141732283464
 20
4.109251968503937
 10
4.116141732283464
 20
4.106299212598425
  0
LWPOLYLINE
  5
334
330
1E
100
AcDbEntity
  8
0
100
AcDbPolyline
 90
        6
 70
     0
 43
0.0
 10
4.116141732283464
 20
4.106299212598425
 10
4.187992125984251
 20
4.045275590551181
 10
4.252952755905512
 20
3.977362204724409
 10
4.312007874015748
 20
3.904527559055118
 10
4.363188976377952
 20
3.825787401574803
 10
4.406496062992125
 20
3.742125984251968
  0
LINE
  5
33C
330
1E
100
AcDbEntity
  8
0
100
AcDbLine
 10
3.1751968503937
 20
3.634842519685039
 30
0.0
 11
3.1751968503937
 21
3.634842519685039
 31
0.0
  0
LINE
  5
33D
330
1E
100
AcDbEntity
  8
0
100
AcDbLine
 10
3.1751968503937
 20
3.634842519685039
 30
0.0
 11
3.000984251968503
 21
3.634842519685039
 31
0.0
  0
LINE
  5
33E
330
1E
100
AcDbEntity
  8
0
100
AcDbLine
 10
3.000984251968503
 20
3.634842519685039
 30
0.0
 11
3.000984251968503
 21
3.530511811023622
 31
0.0
  0
LINE
  5
33F
330
1E
100
AcDbEntity
  8
0
100
AcDbLine
 10
3.000984251968503
 20
3.530511811023622
 30
0.0
 11
3.105314960629921
 21
3.530511811023622
 31
0.0
  0
LINE
  5
340
330
1E
100
AcDbEntity
  8
0
100
AcDbLine
 10
3.105314960629921
 20
3.567913385826771
 30
0.0
 11
3.105314960629921
 21
3.530511811023622
 31
0.0
  0
LWPOLYLINE
  5
341
330
1E
100
AcDbEntity
  8
0
100
AcDbPolyline
 90
        3
 70
     0
 43
0.0
 10
3.105314960629921
 20
3.567913385826771
 10
3.107283464566929
 20
3.575787401574803
 10
3.11515748031496
 20
3.578740157480314
  0
LINE
  5
346
330
1E
100
AcDbEntity
  8
0
100
AcDbLine
 10
3.165354330708661
 20
3.578740157480314
 30
0.0
 11
3.11515748031496
 21
3.578740157480314
 31
0.0
  0
LWPOLYLINE
  5
347
330
1E
100
AcDbEntity
  8
0
100
AcDbPolyline
 90
        3
 70
     0
 43
0.0
 10
3.165354330708661
 20
3.578740157480314
 10
3.172244094488188
 20
3.581692913385826
 10
3.1751968503937
 20
3.588582677165354
  0
LINE
  5
34C
330
1E
100
AcDbEntity
  8
0
100
AcDbLine
 10
3.1751968503937
 20
3.634842519685039
 30
0.0
 11
3.1751968503937
 21
3.588582677165354
 31
0.0
  0
LWPOLYLINE
  5
34D
330
1E
100
AcDbEntity
  8
0
100
AcDbPolyline
 90
        3
 70
     0
 43
0.0
 10
4.029527559055117
 20
3.519685039370078
 10
4.026574803149606
 20
3.511811023622047
 10
4.018700787401574
 20
3.508858267716535
  0
LWPOLYLINE
  5
352
330
1E
100
AcDbEntity
  8
0
100
AcDbPolyline
 90
        3
 70
     0
 43
0.0
 10
4.029527559055117
 20
3.519685039370078
 10
4.026574803149606
 20
3.519685039370078
 10
4.018700787401574
 20
3.519685039370078
  0
LWPOLYLINE
  5
357
330
1E
100
AcDbEntity
  8
0
100
AcDbPolyline
 90
        3
 70
     0
 43
0.0
 10
4.018700787401574
 20
3.508858267716535
 10
4.018700787401574
 20
3.511811023622047
 10
4.018700787401574
 20
3.519685039370078
  0
LINE
  5
35C
330
1E
100
AcDbEntity
  8
0
100
AcDbLine
 10
3.895669291338582
 20
3.459645669291338
 30
0.0
 11
4.02263779527559
 21
3.463582677165354
 31
0.0
  0
LINE
  5
35D
330
1E
100
AcDbEntity
  8
0
100
AcDbLine
 10
3.895669291338582
 20
3.459645669291338
 30
0.0
 11
4.018700787401574
 21
3.459645669291338
 31
0.0
  0
LINE
  5
35E
330
1E
100
AcDbEntity
  8
0
100
AcDbLine
 10
4.018700787401574
 20
3.459645669291338
 30
0.0
 11
4.02263779527559
 21
3.463582677165354
 31
0.0
  0
LINE
  5
35F
330
1E
100
AcDbEntity
  8
0
100
AcDbLine
 10
4.02263779527559
 20
3.505905511811023
 30
0.0
 11
4.018700787401574
 21
3.508858267716535
 31
0.0
  0
LINE
  5
360
330
1E
100
AcDbEntity
  8
0
100
AcDbLine
 10
4.018700787401574
 20
3.508858267716535
 30
0.0
 11
3.895669291338582
 21
3.508858267716535
 31
0.0
  0
LINE
  5
361
330
1E
100
AcDbEntity
  8
0
100
AcDbLine
 10
4.02263779527559
 20
3.505905511811023
 30
0.0
 11
3.895669291338582
 21
3.508858267716535
 31
0.0
  0
LINE
  5
362
330
1E
100
AcDbEntity
  8
0
100
AcDbLine
 10
4.029527559055117
 20
3.519685039370078
 30
0.0
 11
4.033464566929134
 21
3.514763779527558
 31
0.0
  0
LWPOLYLINE
  5
363
330
1E
100
AcDbEntity
  8
0
100
AcDbPolyline
 90
        4
 70
     0
 43
0.0
 10
4.033464566929134
 20
3.514763779527558
 10
4.031496062992125
 20
3.509842519685039
 10
4.028543307086613
 20
3.506889763779527
 10
4.02263779527559
 20
3.505905511811023
  0
LWPOLYLINE
  5
369
330
1E
100
AcDbEntity
  8
0
100
AcDbPolyline
 90
        3
 70
     0
 43
0.0
 10
4.018700787401574
 20
3.644685039370078
 10
4.026574803149606
 20
3.641732283464566
 10
4.029527559055117
 20
3.634842519685039
  0
LWPOLYLINE
  5
36E
330
1E
100
AcDbEntity
  8
0
100
AcDbPolyline
 90
        3
 70
     0
 43
0.0
 10
4.018700787401574
 20
3.644685039370078
 10
4.018700787401574
 20
3.641732283464566
 10
4.018700787401574
 20
3.634842519685039
  0
LWPOLYLINE
  5
373
330
1E
100
AcDbEntity
  8
0
100
AcDbPolyline
 90
        3
 70
     0
 43
0.0
 10
4.029527559055117
 20
3.634842519685039
 10
4.026574803149606
 20
3.634842519685039
 10
4.018700787401574
 20
3.634842519685039
  0
LINE
  5
378
330
1E
100
AcDbEntity
  8
0
100
AcDbLine
 10
3.000984251968503
 20
3.644685039370078
 30
0.0
 11
3.184055118110236
 21
3.644685039370078
 31
0.0
  0
LWPOLYLINE
  5
379
330
1E
100
AcDbEntity
  8
0
100
AcDbPolyline
 90
        3
 70
     0
 43
0.0
 10
3.000984251968503
 20
3.644685039370078
 10
3.000984251968503
 20
3.641732283464566
 10
3.000984251968503
 20
3.634842519685039
  0
LWPOLYLINE
  5
37E
330
1E
100
AcDbEntity
  8
0
100
AcDbPolyline
 90
        3
 70
     0
 43
0.0
 10
3.1751968503937
 20
3.634842519685039
 10
3.178149606299212
 20
3.641732283464566
 10
3.184055118110236
 20
3.644685039370078
  0
LWPOLYLINE
  5
383
330
1E
100
AcDbEntity
  8
0
100
AcDbPolyline
 90
        3
 70
     0
 43
0.0
 10
2.99015748031496
 20
3.634842519685039
 10
2.993110236220472
 20
3.641732283464566
 10
3.000984251968503
 20
3.644685039370078
  0
LWPOLYLINE
  5
388
330
1E
100
AcDbEntity
  8
0
100
AcDbPolyline
 90
        3
 70
     0
 43
0.0
 10
2.99015748031496
 20
3.634842519685039
 10
2.993110236220472
 20
3.634842519685039
 10
3.000984251968503
 20
3.634842519685039
  0
LINE
  5
38D
330
1E
100
AcDbEntity
  8
0
100
AcDbLine
 10
2.99015748031496
 20
3.530511811023622
 30
0.0
 11
2.99015748031496
 21
3.634842519685039
 31
0.0
  0
LWPOLYLINE
  5
38E
330
1E
100
AcDbEntity
  8
0
100
AcDbPolyline
 90
        3
 70
     0
 43
0.0
 10
2.99015748031496
 20
3.530511811023622
 10
2.993110236220472
 20
3.530511811023622
 10
3.000984251968503
 20
3.530511811023622
  0
LWPOLYLINE
  5
393
330
1E
100
AcDbEntity
  8
0
100
AcDbPolyline
 90
        3
 70
     0
 43
0.0
 10
3.000984251968503
 20
3.520669291338582
 10
2.993110236220472
 20
3.523622047244094
 10
2.99015748031496
 20
3.530511811023622
  0
LWPOLYLINE
  5
398
330
1E
100
AcDbEntity
  8
0
100
AcDbPolyline
 90
        3
 70
     0
 43
0.0
 10
3.000984251968503
 20
3.520669291338582
 10
3.000984251968503
 20
3.523622047244094
 10
3.000984251968503
 20
3.530511811023622
  0
LINE
  5
39D
330
1E
100
AcDbEntity
  8
0
100
AcDbLine
 10
3.104330708661417
 20
3.520669291338582
 30
0.0
 11
3.000984251968503
 21
3.520669291338582
 31
0.0
  0
LWPOLYLINE
  5
39E
330
1E
100
AcDbEntity
  8
0
100
AcDbPolyline
 90
        3
 70
     0
 43
0.0
 10
3.105314960629921
 20
3.530511811023622
 10
3.104330708661417
 20
3.523622047244094
 10
3.104330708661417
 20
3.520669291338582
  0
LWPOLYLINE
  5
3A3
330
1E
100
AcDbEntity
  8
0
100
AcDbPolyline
 90
        6
 70
     0
 43
0.0
 10
2.613188976377952
 20
3.742125984251968
 10
2.61515748031496
 20
3.742125984251968
 10
2.621062992125984
 20
3.738188976377952
 10
2.627952755905511
 20
3.732283464566929
 10
2.635826771653543
 20
3.724409448818897
 10
2.641732283464566
 20
3.714566929133858
  0
LWPOLYLINE
  5
3AB
330
1E
100
AcDbEntity
  8
0
100
AcDbPolyline
 90
        6
 70
     0
 43
0.0
 10
2.936023622047244
 20
4.084645669291338
 10
2.863188976377952
 20
4.023622047244094
 10
2.796259842519685
 20
3.954724409448818
 10
2.736220472440944
 20
3.879921259842519
 10
2.68503937007874
 20
3.8001968503937
 10
2.641732283464566
 20
3.714566929133858
  0
LWPOLYLINE
  5
3B3
330
1E
100
AcDbEntity
  8
0
100
AcDbPolyline
 90
        6
 70
     0
 43
0.0
 10
2.936023622047244
 20
4.084645669291338
 10
2.926181102362204
 20
4.088582677165354
 10
2.914370078740157
 20
4.094488188976377
 10
2.908464566929133
 20
4.100393700787401
 10
2.904527559055118
 20
4.104330708661417
 10
2.90255905511811
 20
4.106299212598425
  0
LWPOLYLINE
  5
3BB
330
1E
100
AcDbEntity
  8
0
100
AcDbPolyline
 90
        6
 70
     0
 43
0.0
 10
3.023622047244094
 20
4.187007874015748
 10
3.025590551181102
 20
4.185039370078739
 10
3.028543307086614
 20
4.179133858267716
 10
3.030511811023622
 20
4.169291338582676
 10
3.031496062992125
 20
4.159448818897637
 10
3.031496062992125
 20
4.14763779527559
  0
LWPOLYLINE
  5
3C3
330
1E
100
AcDbEntity
  8
0
100
AcDbPolyline
 90
       12
 70
     0
 43
0.0
 10
3.988188976377952
 20
4.14763779527559
 10
3.907480314960629
 20
4.18996062992126
 10
3.822834645669291
 20
4.223425196850393
 10
3.73523622047244
 20
4.25
 10
3.645669291338582
 20
4.266732283464566
 10
3.55511811023622
 20
4.275590551181101
 10
3.464566929133858
 20
4.275590551181101
 10
3.373031496062992
 20
4.266732283464566
 10
3.284448818897637
 20
4.25
 10
3.196850393700787
 20
4.223425196850393
 10
3.112204724409448
 20
4.18996062992126
 10
3.031496062992125
 20
4.14763779527559
  0
LWPOLYLINE
  5
3D1
330
1E
100
AcDbEntity
  8
0
100
AcDbPolyline
 90
        6
 70
     0
 43
0.0
 10
3.988188976377952
 20
4.14763779527559
 10
3.988188976377952
 20
4.158464566929134
 10
3.989173228346456
 20
4.171259842519685
 10
3.992125984251968
 20
4.18011811023622
 10
3.994094488188976
 20
4.185039370078739
 10
3.996062992125984
 20
4.187007874015748
  0
LWPOLYLINE
  5
3D9
330
1E
100
AcDbEntity
  8
0
100
AcDbPolyline
 90
        6
 70
     0
 43
0.0
 10
4.116141732283464
 20
4.106299212598425
 10
4.11515748031496
 20
4.104330708661417
 10
4.111220472440944
 20
4.099409448818897
 10
4.103346456692912
 20
4.093503937007874
 10
4.094488188976377
 20
4.088582677165354
 10
4.083661417322834
 20
4.084645669291338
  0
LWPOLYLINE
  5
3E1
330
1E
100
AcDbEntity
  8
0
100
AcDbPolyline
 90
        6
 70
     0
 43
0.0
 10
4.377952755905512
 20
3.714566929133858
 10
4.334645669291338
 20
3.8001968503937
 10
4.282480314960629
 20
3.879921259842519
 10
4.223425196850393
 20
3.954724409448818
 10
4.156496062992125
 20
4.023622047244094
 10
4.083661417322834
 20
4.084645669291338
  0
LWPOLYLINE
  5
3E9
330
1E
100
AcDbEntity
  8
0
100
AcDbPolyline
 90
        6
 70
     0
 43
0.0
 10
4.377952755905512
 20
3.714566929133858
 10
4.383858267716535
 20
3.724409448818897
 10
4.39271653543307
 20
3.734251968503937
 10
4.399606299212598
 20
3.739173228346456
 10
4.404527559055117
 20
3.742125984251968
 10
4.406496062992125
 20
3.742125984251968
  0
LWPOLYLINE
  5
3F1
330
1E
100
AcDbEntity
  8
0
100
AcDbPolyline
 90
        6
 70
     0
 43
0.0
 10
4.109251968503937
 20
4.144685039370078
 10
4.109251968503937
 20
4.145669291338582
 10
4.11023622047244
 20
4.149606299212598
 10
4.11023622047244
 20
4.154527559055117
 10
4.11023622047244
 20
4.161417322834645
 10
4.109251968503937
 20
4.169291338582676
  0
LWPOLYLINE
  5
3F9
330
1E
100
AcDbEntity
  8
0
100
AcDbPolyline
 90
        6
 70
     0
 43
0.0
 10
4.466535433070865
 20
3.721456692913385
 10
4.463582677165354
 20
3.722440944881889
 10
4.455708661417323
 20
3.725393700787401
 10
4.448818897637795
 20
3.726377952755905
 10
4.444881889763779
 20
3.726377952755905
 10
4.441929133858267
 20
3.727362204724409
  0
LWPOLYLINE
  5
401
330
1E
100
AcDbEntity
  8
0
100
AcDbPolyline
 90
        7
 70
     0
 43
0.0
 10
4.109251968503937
 20
4.169291338582676
 10
4.185039370078739
 20
4.109251968503937
 10
4.255905511811023
 20
4.043307086614173
 10
4.318897637795275
 20
3.970472440944881
 10
4.375984251968503
 20
3.891732283464566
 10
4.4251968503937
 20
3.809055118110236
 10
4.466535433070865
 20
3.721456692913385
  0
LWPOLYLINE
  5
40A
330
1E
100
AcDbEntity
  8
0
100
AcDbPolyline
 90
       12
 70
     0
 43
0.0
 10
4.057086614173228
 20
4.203740157480314
 10
4.037401574803149
 20
4.196850393700787
 10
4.023622047244094
 20
4.182086614173228
 10
4.016732283464566
 20
4.163385826771653
 10
4.018700787401574
 20
4.14271653543307
 10
4.029527559055117
 20
4.125
 10
4.046259842519685
 20
4.114173228346456
 10
4.066929133858267
 20
4.111220472440944
 10
4.086614173228346
 20
4.117125984251968
 10
4.101377952755905
 20
4.129921259842519
 10
4.109251968503937
 20
4.148622047244094
 10
4.109251968503937
 20
4.169291338582676
  0
LWPOLYLINE
  5
418
330
1E
100
AcDbEntity
  8
0
100
AcDbPolyline
 90
        6
 70
     0
 43
0.0
 10
4.057086614173228
 20
4.203740157480314
 10
4.053149606299212
 20
4.203740157480314
 10
4.045275590551181
 20
4.200787401574802
 10
4.039370078740157
 20
4.198818897637795
 10
4.035433070866141
 20
4.195866141732283
 10
4.033464566929134
 20
4.194881889763779
  0
LWPOLYLINE
  5
420
330
1E
100
AcDbEntity
  8
0
100
AcDbPolyline
 90
        6
 70
     0
 43
0.0
 10
3.988188976377952
 20
4.14763779527559
 10
3.996062992125984
 20
4.123031496062991
 10
4.011811023622047
 20
4.102362204724409
 10
4.032480314960629
 20
4.088582677165354
 10
4.058070866141732
 20
4.08267716535433
 10
4.083661417322834
 20
4.084645669291338
  0
LWPOLYLINE
  5
428
330
1E
100
AcDbEntity
  8
0
100
AcDbPolyline
 90
        6
 70
     0
 43
0.0
 10
2.986220472440944
 20
4.194881889763779
 10
2.98523622047244
 20
4.195866141732283
 10
2.981299212598425
 20
4.197834645669291
 10
2.977362204724409
 20
4.199803149606299
 10
2.971456692913385
 20
4.201771653543307
 10
2.96259842519685
 20
4.203740157480314
  0
LWPOLYLINE
  5
430
330
1E
100
AcDbEntity
  8
0
100
AcDbPolyline
 90
       13
 70
     0
 43
0.0
 10
2.96259842519685
 20
4.203740157480314
 10
3.046259842519685
 20
4.250984251968503
 10
3.134842519685039
 20
4.290354330708661
 10
3.225393700787401
 20
4.320866141732283
 10
3.318897637795275
 20
4.34251968503937
 10
3.414370078740157
 20
4.356299212598425
 10
3.509842519685039
 20
4.36023622047244
 10
3.605314960629921
 20
4.356299212598425
 10
3.700787401574803
 20
4.34251968503937
 10
3.794291338582677
 20
4.320866141732283
 10
3.884842519685039
 20
4.290354330708661
 10
3.972440944881889
 20
4.250984251968503
 10
4.057086614173228
 20
4.203740157480314
  0
LWPOLYLINE
  5
43F
330
1E
100
AcDbEntity
  8
0
100
AcDbPolyline
 90
       12
 70
     0
 43
0.0
 10
2.910433070866141
 20
4.169291338582676
 10
2.910433070866141
 20
4.148622047244094
 10
2.918307086614173
 20
4.129921259842519
 10
2.933070866141732
 20
4.117125984251968
 10
2.952755905511811
 20
4.111220472440944
 10
2.973425196850393
 20
4.114173228346456
 10
2.99015748031496
 20
4.125
 10
3.000984251968503
 20
4.14271653543307
 10
3.002952755905511
 20
4.163385826771653
 10
2.996062992125984
 20
4.182086614173228
 10
2.982283464566929
 20
4.196850393700787
 10
2.96259842519685
 20
4.203740157480314
  0
LWPOLYLINE
  5
44D
330
1E
100
AcDbEntity
  8
0
100
AcDbPolyline
 90
        6
 70
     0
 43
0.0
 10
2.910433070866141
 20
4.169291338582676
 10
2.910433070866141
 20
4.166338582677165
 10
2.909448818897637
 20
4.157480314960629
 10
2.909448818897637
 20
4.151574803149606
 10
2.910433070866141
 20
4.146653543307086
 10
2.910433070866141
 20
4.144685039370078
  0
LWPOLYLINE
  5
455
330
1E
100
AcDbEntity
  8
0
100
AcDbPolyline
 90
        6
 70
     0
 43
0.0
 10
2.936023622047244
 20
4.084645669291338
 10
2.961614173228346
 20
4.08267716535433
 10
2.987204724409448
 20
4.088582677165354
 10
3.007874015748031
 20
4.102362204724409
 10
3.023622047244094
 20
4.123031496062991
 10
3.031496062992125
 20
4.14763779527559
  0
LWPOLYLINE
  5
45D
330
1E
100
AcDbEntity
  8
0
100
AcDbPolyline
 90
        6
 70
     0
 43
0.0
 10
2.577755905511811
 20
3.727362204724409
 10
2.575787401574803
 20
3.727362204724409
 10
2.572834645669291
 20
3.726377952755905
 10
2.566929133858267
 20
3.725393700787401
 10
2.561023622047243
 20
3.724409448818897
 10
2.553149606299212
 20
3.721456692913385
  0
LWPOLYLINE
  5
465
330
1E
100
AcDbEntity
  8
0
100
AcDbPolyline
 90
        7
 70
     0
 43
0.0
 10
2.553149606299212
 20
3.721456692913385
 10
2.594488188976377
 20
3.809055118110236
 10
2.643700787401574
 20
3.891732283464566
 10
2.700787401574803
 20
3.970472440944881
 10
2.763779527559055
 20
4.043307086614173
 10
2.834645669291338
 20
4.109251968503937
 10
2.910433070866141
 20
4.169291338582676
  0
LWPOLYLINE
  5
46E
330
1E
100
AcDbEntity
  8
0
100
AcDbPolyline
 90
        3
 70
     0
 43
0.0
 10
2.540354330708661
 20
3.711614173228346
 10
2.530511811023622
 20
3.695866141732283
 10
2.52755905511811
 20
3.678149606299212
  0
LWPOLYLINE
  5
473
330
1E
100
AcDbEntity
  8
0
100
AcDbPolyline
 90
        4
 70
     0
 43
0.0
 10
2.540354330708661
 20
3.711614173228346
 10
2.53248031496063
 20
3.699803149606299
 10
2.528543307086614
 20
3.68503937007874
 10
2.52755905511811
 20
3.678149606299212
  0
LWPOLYLINE
  5
479
330
1E
100
AcDbEntity
  8
0
100
AcDbPolyline
 90
        3
 70
     0
 43
0.0
 10
2.946850393700787
 20
4.203740157480314
 10
2.93011811023622
 20
4.196850393700787
 10
2.917322834645669
 20
4.184055118110236
  0
LWPOLYLINE
  5
47E
330
1E
100
AcDbEntity
  8
0
100
AcDbPolyline
 90
        4
 70
     0
 43
0.0
 10
2.946850393700787
 20
4.203740157480314
 10
2.934055118110236
 20
4.198818897637795
 10
2.921259842519685
 20
4.18996062992126
 10
2.917322834645669
 20
4.184055118110236
  0
LWPOLYLINE
  5
484
330
1E
100
AcDbEntity
  8
0
100
AcDbPolyline
 90
        3
 70
     0
 43
0.0
 10
4.102362204724409
 20
4.184055118110236
 10
4.089566929133858
 20
4.196850393700787
 10
4.072834645669291
 20
4.203740157480314
  0
LWPOLYLINE
  5
489
330
1E
100
AcDbEntity
  8
0
100
AcDbPolyline
 90
        4
 70
     0
 43
0.0
 10
4.102362204724409
 20
4.184055118110236
 10
4.093503937007874
 20
4.193897637795275
 10
4.079724409448818
 20
4.201771653543307
 10
4.072834645669291
 20
4.203740157480314
  0
LWPOLYLINE
  5
48F
330
1E
100
AcDbEntity
  8
0
100
AcDbPolyline
 90
        3
 70
     0
 43
0.0
 10
4.492125984251968
 20
3.678149606299212
 10
4.489173228346456
 20
3.695866141732283
 10
4.479330708661417
 20
3.711614173228346
  0
LWPOLYLINE
  5
494
330
1E
100
AcDbEntity
  8
0
100
AcDbPolyline
 90
        4
 70
     0
 43
0.0
 10
4.492125984251968
 20
3.678149606299212
 10
4.49015748031496
 20
3.691929133858267
 10
4.483267716535433
 20
3.705708661417322
 10
4.479330708661417
 20
3.711614173228346
  0
LWPOLYLINE
  5
49A
330
1E
100
AcDbEntity
  8
0
100
AcDbPolyline
 90
       12
 70
     0
 43
0.0
 10
2.531496062992125
 20
3.662401574803149
 10
2.542322834645669
 20
3.645669291338582
 10
2.56003937007874
 20
3.634842519685039
 10
2.579724409448818
 20
3.632874015748031
 10
2.599409448818897
 20
3.639763779527558
 10
2.614173228346456
 20
3.653543307086613
 10
2.621062992125984
 20
3.672244094488188
 10
2.619094488188976
 20
3.692913385826771
 10
2.609251968503937
 20
3.710629921259842
 10
2.592519685039369
 20
3.722440944881889
 10
2.572834645669291
 20
3.726377952755905
 10
2.553149606299212
 20
3.721456692913385
  0
LWPOLYLINE
  5
4A8
330
1E
100
AcDbEntity
  8
0
100
AcDbPolyline
 90
        6
 70
     0
 43
0.0
 10
2.531496062992125
 20
3.662401574803149
 10
2.53248031496063
 20
3.659448818897637
 10
2.536417322834645
 20
3.65255905511811
 10
2.540354330708661
 20
3.646653543307086
 10
2.543307086614173
 20
3.643700787401574
 10
2.545275590551181
 20
3.641732283464566
  0
LWPOLYLINE
  5
4B0
330
1E
100
AcDbEntity
  8
0
100
AcDbPolyline
 90
        3
 70
     0
 43
0.0
 10
2.561023622047243
 20
3.606299212598425
 10
2.556102362204724
 20
3.61515748031496
 10
2.545275590551181
 20
3.641732283464566
  0
LWPOLYLINE
  5
4B5
330
1E
100
AcDbEntity
  8
0
100
AcDbPolyline
 90
        6
 70
     0
 43
0.0
 10
2.601377952755905
 20
3.608267716535432
 10
2.590551181102362
 20
3.605314960629921
 10
2.577755905511811
 20
3.604330708661417
 10
2.568897637795275
 20
3.604330708661417
 10
2.563976377952756
 20
3.606299212598425
 10
2.561023622047243
 20
3.606299212598425
  0
LWPOLYLINE
  5
4BD
330
1E
100
AcDbEntity
  8
0
100
AcDbPolyline
 90
        6
 70
     0
 43
0.0
 10
2.601377952755905
 20
3.608267716535432
 10
2.623031496062992
 20
3.621062992125984
 10
2.639763779527558
 20
3.640748031496062
 10
2.648622047244094
 20
3.665354330708661
 10
2.649606299212598
 20
3.690944881889763
 10
2.641732283464566
 20
3.714566929133858
  0
LWPOLYLINE
  5
4C5
330
1E
100
AcDbEntity
  8
0
100
AcDbPolyline
 90
        4
 70
     0
 43
0.0
 10
4.474409448818897
 20
3.641732283464566
 10
4.471456692913386
 20
3.633858267716535
 10
4.459645669291338
 20
3.609251968503937
 10
4.458661417322834
 20
3.606299212598425
  0
LWPOLYLINE
  5
4CB
330
1E
100
AcDbEntity
  8
0
100
AcDbPolyline
 90
        6
 70
     0
 43
0.0
 10
4.474409448818897
 20
3.641732283464566
 10
4.475393700787401
 20
3.64271653543307
 10
4.478346456692912
 20
3.645669291338582
 10
4.481299212598425
 20
3.649606299212598
 10
4.48523622047244
 20
3.654527559055118
 10
4.488188976377952
 20
3.662401574803149
  0
LWPOLYLINE
  5
4D3
330
1E
100
AcDbEntity
  8
0
100
AcDbPolyline
 90
       12
 70
     0
 43
0.0
 10
4.466535433070865
 20
3.721456692913385
 10
4.446850393700787
 20
3.726377952755905
 10
4.426181102362204
 20
3.722440944881889
 10
4.410433070866141
 20
3.710629921259842
 10
4.399606299212598
 20
3.692913385826771
 10
4.398622047244094
 20
3.672244094488188
 10
4.405511811023622
 20
3.653543307086613
 10
4.420275590551181
 20
3.639763779527558
 10
4.43996062992126
 20
3.632874015748031
 10
4.459645669291338
 20
3.634842519685039
 10
4.477362204724409
 20
3.645669291338582
 10
4.488188976377952
 20
3.662401574803149
  0
LWPOLYLINE
  5
4E1
330
1E
100
AcDbEntity
  8
0
100
AcDbPolyline
 90
        6
 70
     0
 43
0.0
 10
4.377952755905512
 20
3.714566929133858
 10
4.37007874015748
 20
3.690944881889763
 10
4.371062992125984
 20
3.665354330708661
 10
4.379921259842519
 20
3.640748031496062
 10
4.396653543307086
 20
3.621062992125984
 10
4.418307086614173
 20
3.608267716535432
  0
LWPOLYLINE
  5
4E9
330
1E
100
AcDbEntity
  8
0
100
AcDbPolyline
 90
        6
 70
     0
 43
0.0
 10
4.458661417322834
 20
3.606299212598425
 10
4.455708661417323
 20
3.605314960629921
 10
4.449803149606299
 20
3.604330708661417
 10
4.43996062992126
 20
3.604330708661417
 10
4.429133858267716
 20
3.605314960629921
 10
4.418307086614173
 20
3.608267716535432
  0
LINE
  5
4F1
330
1E
100
AcDbEntity
  8
0
100
AcDbLine
 10
3.119094488188976
 20
3.521653543307086
 30
0.0
 11
3.116141732283464
 21
3.518700787401574
 31
0.0
  0
LINE
  5
4F2
330
1E
100
AcDbEntity
  8
0
100
AcDbLine
 10
3.116141732283464
 20
3.48523622047244
 30
0.0
 11
3.116141732283464
 21
3.518700787401574
 31
0.0
  0
LINE
  5
4F3
330
1E
100
AcDbEntity
  8
0
100
AcDbLine
 10
3.116141732283464
 20
3.48523622047244
 30
0.0
 11
3.119094488188976
 21
3.482283464566929
 31
0.0
  0
LINE
  5
4F4
330
1E
100
AcDbEntity
  8
0
100
AcDbLine
 10
3.119094488188976
 20
3.521653543307086
 30
0.0
 11
3.119094488188976
 21
3.482283464566929
 31
0.0
  0
LINE
  5
4F5
330
1E
100
AcDbEntity
  8
0
100
AcDbLine
 10
3.113188976377952
 20
3.521653543307086
 30
0.0
 11
3.104330708661417
 21
3.520669291338582
 31
0.0
  0
LINE
  5
4F6
330
1E
100
AcDbEntity
  8
0
100
AcDbLine
 10
3.113188976377952
 20
3.521653543307086
 30
0.0
 11
3.113188976377952
 21
3.56003937007874
 31
0.0
  0
LINE
  5
4F7
330
1E
100
AcDbEntity
  8
0
100
AcDbLine
 10
3.113188976377952
 20
3.56003937007874
 30
0.0
 11
3.105314960629921
 21
3.567913385826771
 31
0.0
  0
LWPOLYLINE
  5
4F8
330
1E
100
AcDbEntity
  8
0
100
AcDbPolyline
 90
        3
 70
     0
 43
0.0
 10
3.123031496062992
 20
3.569881889763779
 10
3.116141732283464
 20
3.566929133858267
 10
3.113188976377952
 20
3.56003937007874
  0
LINE
  5
4FD
330
1E
100
AcDbEntity
  8
0
100
AcDbLine
 10
3.11515748031496
 20
3.578740157480314
 30
0.0
 11
3.123031496062992
 21
3.569881889763779
 31
0.0
  0
LINE
  5
4FE
330
1E
100
AcDbEntity
  8
0
100
AcDbLine
 10
3.173228346456693
 20
3.569881889763779
 30
0.0
 11
3.123031496062992
 21
3.569881889763779
 31
0.0
  0
LINE
  5
4FF
330
1E
100
AcDbEntity
  8
0
100
AcDbLine
 10
3.173228346456693
 20
3.569881889763779
 30
0.0
 11
3.165354330708661
 21
3.578740157480314
 31
0.0
  0
LWPOLYLINE
  5
500
330
1E
100
AcDbEntity
  8
0
100
AcDbPolyline
 90
        3
 70
     0
 43
0.0
 10
3.184055118110236
 20
3.579724409448818
 10
3.181102362204724
 20
3.572834645669291
 10
3.173228346456693
 20
3.569881889763779
  0
LINE
  5
505
330
1E
100
AcDbEntity
  8
0
100
AcDbLine
 10
3.1751968503937
 20
3.588582677165354
 30
0.0
 11
3.184055118110236
 21
3.579724409448818
 31
0.0
  0
LINE
  5
506
330
1E
100
AcDbEntity
  8
0
100
AcDbLine
 10
3.184055118110236
 20
3.632874015748031
 30
0.0
 11
3.184055118110236
 21
3.579724409448818
 31
0.0
  0
LINE
  5
507
330
1E
100
AcDbEntity
  8
0
100
AcDbLine
 10
3.184055118110236
 20
3.632874015748031
 30
0.0
 11
3.1751968503937
 21
3.634842519685039
 31
0.0
  0
LWPOLYLINE
  5
508
330
1E
100
AcDbEntity
  8
0
100
AcDbPolyline
 90
        3
 70
     0
 43
0.0
 10
3.193897637795275
 20
3.64271653543307
 10
3.187007874015748
 20
3.640748031496062
 10
3.184055118110236
 20
3.632874015748031
  0
LINE
  5
50D
330
1E
100
AcDbEntity
  8
0
100
AcDbLine
 10
3.184055118110236
 20
3.644685039370078
 30
0.0
 11
3.193897637795275
 21
3.64271653543307
 31
0.0
  0
LWPOLYLINE
  5
50E
330
1E
100
AcDbEntity
  8
0
100
AcDbPolyline
 90
        6
 70
     0
 43
0.0
 10
3.229330708661417
 20
3.428149606299212
 10
3.232283464566929
 20
3.428149606299212
 10
3.236220472440944
 20
3.43011811023622
 10
3.238188976377952
 20
3.431102362204724
 10
3.241141732283464
 20
3.434055118110236
 10
3.242125984251968
 20
3.436023622047243
  0
LWPOLYLINE
  5
516
330
1E
100
AcDbEntity
  8
0
100
AcDbPolyline
 90
        6
 70
     0
 43
0.0
 10
3.242125984251968
 20
3.436023622047243
 10
3.265748031496062
 20
3.471456692913385
 10
3.296259842519685
 20
3.500984251968503
 10
3.33267716535433
 20
3.523622047244094
 10
3.374015748031495
 20
3.537401574803149
 10
3.416338582677165
 20
3.542322834645669
  0
LINE
  5
51E
330
1E
100
AcDbEntity
  8
0
100
AcDbLine
 10
3.546259842519685
 20
3.542322834645669
 30
0.0
 11
3.416338582677165
 21
3.542322834645669
 31
0.0
  0
LWPOLYLINE
  5
51F
330
1E
100
AcDbEntity
  8
0
100
AcDbPolyline
 90
        6
 70
     0
 43
0.0
 10
3.729330708661417
 20
3.417322834645669
 10
3.706692913385826
 20
3.458661417322834
 10
3.6751968503937
 20
3.493110236220472
 10
3.636811023622047
 20
3.519685039370078
 10
3.593503937007874
 20
3.536417322834645
 10
3.546259842519685
 20
3.542322834645669
  0
LWPOLYLINE
  5
527
330
1E
100
AcDbEntity
  8
0
100
AcDbPolyline
 90
        6
 70
     0
 43
0.0
 10
3.729330708661417
 20
3.417322834645669
 10
3.730314960629921
 20
3.416338582677165
 10
3.733267716535432
 20
3.412401574803149
 10
3.73523622047244
 20
3.410433070866141
 10
3.739173228346456
 20
3.408464566929133
 10
3.742125984251968
 20
3.408464566929133
  0
LINE
  5
52F
330
1E
100
AcDbEntity
  8
0
100
AcDbLine
 10
3.06003937007874
 20
3.409448818897637
 30
0.0
 11
3.036417322834645
 21
3.417322834645669
 31
0.0
  0
LINE
  5
530
330
1E
100
AcDbEntity
  8
0
100
AcDbLine
 10
3.044291338582677
 20
3.409448818897637
 30
0.0
 11
3.036417322834645
 21
3.417322834645669
 31
0.0
  0
LWPOLYLINE
  5
531
330
1E
100
AcDbEntity
  8
0
100
AcDbPolyline
 90
        3
 70
     0
 43
0.0
 10
3.054133858267716
 20
3.409448818897637
 10
3.047244094488188
 20
3.409448818897637
 10
3.044291338582677
 20
3.409448818897637
  0
LINE
  5
536
330
1E
100
AcDbEntity
  8
0
100
AcDbLine
 10
3.054133858267716
 20
3.409448818897637
 30
0.0
 11
3.06003937007874
 21
3.409448818897637
 31
0.0
  0
LINE
  5
537
330
1E
100
AcDbEntity
  8
0
100
AcDbLine
 10
3.117125984251968
 20
3.428149606299212
 30
0.0
 11
3.229330708661417
 21
3.428149606299212
 31
0.0
  0
LWPOLYLINE
  5
538
330
1E
100
AcDbEntity
  8
0
100
AcDbPolyline
 90
        3
 70
     0
 43
0.0
 10
4.018700787401574
 20
3.459645669291338
 10
4.026574803149606
 20
3.456692913385826
 10
4.029527559055117
 20
3.449803149606299
  0
LINE
  5
53D
330
1E
100
AcDbEntity
  8
0
100
AcDbLine
 10
4.033464566929134
 20
3.453740157480314
 30
0.0
 11
4.029527559055117
 21
3.449803149606299
 31
0.0
  0
LWPOLYLINE
  5
53E
330
1E
100
AcDbEntity
  8
0
100
AcDbPolyline
 90
        4
 70
     0
 43
0.0
 10
4.02263779527559
 20
3.463582677165354
 10
4.028543307086613
 20
3.46259842519685
 10
4.031496062992125
 20
3.458661417322834
 10
4.033464566929134
 20
3.453740157480314
  0
LWPOLYLINE
  5
544
330
1E
100
AcDbEntity
  8
0
100
AcDbPolyline
 90
        3
 70
     0
 43
0.0
 10
3.844488188976377
 20
3.632874015748031
 10
3.841535433070866
 20
3.639763779527558
 10
3.833661417322834
 20
3.64271653543307
  0
LINE
  5
549
330
1E
100
AcDbEntity
  8
0
100
AcDbLine
 10
3.845472440944881
 20
3.634842519685039
 30
0.0
 11
3.844488188976377
 21
3.632874015748031
 31
0.0
  0
LINE
  5
54A
330
1E
100
AcDbEntity
  8
0
100
AcDbLine
 10
3.845472440944881
 20
3.634842519685039
 30
0.0
 11
3.845472440944881
 21
3.634842519685039
 31
0.0
  0
LWPOLYLINE
  5
54B
330
1E
100
AcDbEntity
  8
0
100
AcDbPolyline
 90
        3
 70
     0
 43
0.0
 10
3.835629921259842
 20
3.644685039370078
 10
3.84251968503937
 20
3.641732283464566
 10
3.845472440944881
 20
3.634842519685039
  0
LINE
  5
550
330
1E
100
AcDbEntity
  8
0
100
AcDbLine
 10
3.833661417322834
 20
3.64271653543307
 30
0.0
 11
3.835629921259842
 21
3.644685039370078
 31
0.0
  0
LINE
  5
551
330
1E
100
AcDbEntity
  8
0
100
AcDbLine
 10
3.835629921259842
 20
3.644685039370078
 30
0.0
 11
4.018700787401574
 21
3.644685039370078
 31
0.0
  0
LINE
  5
552
330
1E
100
AcDbEntity
  8
0
100
AcDbLine
 10
4.018700787401574
 20
3.634842519685039
 30
0.0
 11
3.845472440944881
 21
3.634842519685039
 31
0.0
  0
LINE
  5
553
330
1E
100
AcDbEntity
  8
0
100
AcDbLine
 10
4.029527559055117
 20
3.634842519685039
 30
0.0
 11
4.029527559055117
 21
3.519685039370078
 31
0.0
  0
LINE
  5
554
330
1E
100
AcDbEntity
  8
0
100
AcDbLine
 10
4.018700787401574
 20
3.519685039370078
 30
0.0
 11
4.018700787401574
 21
3.634842519685039
 31
0.0
  0
LINE
  5
555
330
1E
100
AcDbEntity
  8
0
100
AcDbLine
 10
3.883858267716535
 20
3.519685039370078
 30
0.0
 11
4.018700787401574
 21
3.519685039370078
 31
0.0
  0
LINE
  5
556
330
1E
100
AcDbEntity
  8
0
100
AcDbLine
 10
3.89271653543307
 20
3.510826771653543
 30
0.0
 11
3.883858267716535
 21
3.519685039370078
 31
0.0
  0
LINE
  5
557
330
1E
100
AcDbEntity
  8
0
100
AcDbLine
 10
3.895669291338582
 20
3.508858267716535
 30
0.0
 11
3.89271653543307
 21
3.510826771653543
 31
0.0
  0
LINE
  5
558
330
1E
100
AcDbEntity
  8
0
100
AcDbLine
 10
3.883858267716535
 20
3.449803149606299
 30
0.0
 11
3.883858267716535
 21
3.519685039370078
 31
0.0
  0
LINE
  5
559
330
1E
100
AcDbEntity
  8
0
100
AcDbLine
 10
3.89271653543307
 20
3.458661417322834
 30
0.0
 11
3.883858267716535
 21
3.449803149606299
 31
0.0
  0
LINE
  5
55A
330
1E
100
AcDbEntity
  8
0
100
AcDbLine
 10
3.89271653543307
 20
3.510826771653543
 30
0.0
 11
3.89271653543307
 21
3.458661417322834
 31
0.0
  0
LWPOLYLINE
  5
55B
330
1E
100
AcDbEntity
  8
0
100
AcDbPolyline
 90
        3
 70
     0
 43
0.0
 10
4.018700787401574
 20
3.459645669291338
 10
4.018700787401574
 20
3.456692913385826
 10
4.018700787401574
 20
3.449803149606299
  0
LINE
  5
560
330
1E
100
AcDbEntity
  8
0
100
AcDbLine
 10
3.89271653543307
 20
3.458661417322834
 30
0.0
 11
3.895669291338582
 21
3.459645669291338
 31
0.0
  0
LINE
  5
561
330
1E
100
AcDbEntity
  8
0
100
AcDbLine
 10
4.018700787401574
 20
3.449803149606299
 30
0.0
 11
3.883858267716535
 21
3.449803149606299
 31
0.0
  0
LWPOLYLINE
  5
562
330
1E
100
AcDbEntity
  8
0
100
AcDbPolyline
 90
        3
 70
     0
 43
0.0
 10
4.029527559055117
 20
3.449803149606299
 10
4.026574803149606
 20
3.449803149606299
 10
4.018700787401574
 20
3.449803149606299
  0
LINE
  5
567
330
1E
100
AcDbEntity
  8
0
100
AcDbLine
 10
4.033464566929134
 20
3.514763779527558
 30
0.0
 11
4.033464566929134
 21
3.453740157480314
 31
0.0
  0
LINE
  5
568
330
1E
100
AcDbEntity
  8
0
100
AcDbLine
 10
4.033464566929134
 20
3.638779527559055
 30
0.0
 11
4.029527559055117
 21
3.634842519685039
 31
0.0
  0
LINE
  5
569
330
1E
100
AcDbEntity
  8
0
100
AcDbLine
 10
4.033464566929134
 20
3.638779527559055
 30
0.0
 11
4.033464566929134
 21
3.514763779527558
 31
0.0
  0
LINE
  5
56A
330
1E
100
AcDbEntity
  8
0
100
AcDbLine
 10
4.018700787401574
 20
3.644685039370078
 30
0.0
 11
4.023622047244094
 21
3.649606299212598
 31
0.0
  0
LWPOLYLINE
  5
56B
330
1E
100
AcDbEntity
  8
0
100
AcDbPolyline
 90
        3
 70
     0
 43
0.0
 10
4.023622047244094
 20
3.649606299212598
 10
4.030511811023622
 20
3.646653543307086
 10
4.033464566929134
 20
3.638779527559055
  0
LINE
  5
570
330
1E
100
AcDbEntity
  8
0
100
AcDbLine
 10
2.996062992125984
 20
3.649606299212598
 30
0.0
 11
4.023622047244094
 21
3.649606299212598
 31
0.0
  0
LINE
  5
571
330
1E
100
AcDbEntity
  8
0
100
AcDbLine
 10
2.996062992125984
 20
3.649606299212598
 30
0.0
 11
3.000984251968503
 21
3.644685039370078
 31
0.0
  0
LINE
  5
572
330
1E
100
AcDbEntity
  8
0
100
AcDbLine
 10
3.833661417322834
 20
3.64271653543307
 30
0.0
 11
3.193897637795275
 21
3.64271653543307
 31
0.0
  0
LINE
  5
573
330
1E
100
AcDbEntity
  8
0
100
AcDbLine
 10
2.99015748031496
 20
3.634842519685039
 30
0.0
 11
2.986220472440944
 21
3.638779527559055
 31
0.0
  0
LWPOLYLINE
  5
574
330
1E
100
AcDbEntity
  8
0
100
AcDbPolyline
 90
        3
 70
     0
 43
0.0
 10
2.986220472440944
 20
3.638779527559055
 10
2.989173228346456
 20
3.646653543307086
 10
2.996062992125984
 20
3.649606299212598
  0
LINE
  5
579
330
1E
100
AcDbEntity
  8
0
100
AcDbLine
 10
2.986220472440944
 20
3.528543307086614
 30
0.0
 11
2.99015748031496
 21
3.530511811023622
 31
0.0
  0
LINE
  5
57A
330
1E
100
AcDbEntity
  8
0
100
AcDbLine
 10
2.986220472440944
 20
3.638779527559055
 30
0.0
 11
2.986220472440944
 21
3.528543307086614
 31
0.0
  0
LINE
  5
57B
330
1E
100
AcDbEntity
  8
0
100
AcDbLine
 10
3.000984251968503
 20
3.520669291338582
 30
0.0
 11
2.996062992125984
 21
3.518700787401574
 31
0.0
  0
LWPOLYLINE
  5
57C
330
1E
100
AcDbEntity
  8
0
100
AcDbPolyline
 90
        3
 70
     0
 43
0.0
 10
2.996062992125984
 20
3.518700787401574
 10
2.989173228346456
 20
3.521653543307086
 10
2.986220472440944
 20
3.528543307086614
  0
LINE
  5
581
330
1E
100
AcDbEntity
  8
0
100
AcDbLine
 10
3.065944881889763
 20
3.518700787401574
 30
0.0
 11
2.996062992125984
 21
3.518700787401574
 31
0.0
  0
LWPOLYLINE
  5
582
330
1E
100
AcDbEntity
  8
0
100
AcDbPolyline
 90
        5
 70
     0
 43
0.0
 10
3.116141732283464
 20
3.518700787401574
 10
3.112204724409448
 20
3.518700787401574
 10
3.101377952755905
 20
3.518700787401574
 10
3.085629921259842
 20
3.518700787401574
 10
3.065944881889763
 20
3.518700787401574
  0
LINE
  5
589
330
1E
100
AcDbEntity
  8
0
100
AcDbLine
 10
3.119094488188976
 20
3.521653543307086
 30
0.0
 11
3.113188976377952
 21
3.521653543307086
 31
0.0
  0
LINE
  5
58A
330
1E
100
AcDbEntity
  8
0
100
AcDbLine
 10
3.065944881889763
 20
3.518700787401574
 30
0.0
 11
3.065944881889763
 21
3.48523622047244
 31
0.0
  0
LWPOLYLINE
  5
58B
330
1E
100
AcDbEntity
  8
0
100
AcDbPolyline
 90
        5
 70
     0
 43
0.0
 10
3.065944881889763
 20
3.48523622047244
 10
3.085629921259842
 20
3.48523622047244
 10
3.101377952755905
 20
3.48523622047244
 10
3.112204724409448
 20
3.48523622047244
 10
3.116141732283464
 20
3.48523622047244
  0
LWPOLYLINE
  5
592
330
1E
100
AcDbEntity
  8
0
100
AcDbPolyline
 90
        4
 70
     0
 43
0.0
 10
2.986220472440944
 20
3.694881889763779
 10
2.963582677165354
 20
3.688976377952756
 10
2.945866141732283
 20
3.672244094488188
 10
2.939960629921259
 20
3.649606299212598
  0
LINE
  5
598
330
1E
100
AcDbEntity
  8
0
100
AcDbLine
 10
2.986220472440944
 20
3.724409448818897
 30
0.0
 11
2.986220472440944
 21
3.694881889763779
 31
0.0
  0
LWPOLYLINE
  5
599
330
1E
100
AcDbEntity
  8
0
100
AcDbPolyline
 90
        5
 70
     0
 43
0.0
 10
2.911417322834645
 20
3.649606299212598
 10
2.917322834645669
 20
3.678149606299212
 10
2.933070866141732
 20
3.701771653543306
 10
2.95767716535433
 20
3.718503937007874
 10
2.986220472440944
 20
3.724409448818897
  0
LINE
  5
5A0
330
1E
100
AcDbEntity
  8
0
100
AcDbLine
 10
2.939960629921259
 20
3.649606299212598
 30
0.0
 11
2.911417322834645
 21
3.649606299212598
 31
0.0
  0
LINE
  5
5A1
330
1E
100
AcDbEntity
  8
0
100
AcDbLine
 10
2.986220472440944
 20
3.724409448818897
 30
0.0
 11
4.033464566929134
 21
3.724409448818897
 31
0.0
  0
LINE
  5
5A2
330
1E
100
AcDbEntity
  8
0
100
AcDbLine
 10
2.986220472440944
 20
3.694881889763779
 30
0.0
 11
4.033464566929134
 21
3.694881889763779
 31
0.0
  0
LINE
  5
5A3
330
1E
100
AcDbEntity
  8
0
100
AcDbLine
 10
4.033464566929134
 20
3.694881889763779
 30
0.0
 11
4.033464566929134
 21
3.724409448818897
 31
0.0
  0
LWPOLYLINE
  5
5A4
330
1E
100
AcDbEntity
  8
0
100
AcDbPolyline
 90
        4
 70
     0
 43
0.0
 10
4.079724409448818
 20
3.649606299212598
 10
4.072834645669291
 20
3.672244094488188
 10
4.056102362204724
 20
3.688976377952756
 10
4.033464566929134
 20
3.694881889763779
  0
LINE
  5
5AA
330
1E
100
AcDbEntity
  8
0
100
AcDbLine
 10
4.108267716535433
 20
3.649606299212598
 30
0.0
 11
4.079724409448818
 21
3.649606299212598
 31
0.0
  0
LWPOLYLINE
  5
5AB
330
1E
100
AcDbEntity
  8
0
100
AcDbPolyline
 90
        5
 70
     0
 43
0.0
 10
4.033464566929134
 20
3.724409448818897
 10
4.062007874015748
 20
3.718503937007874
 10
4.086614173228346
 20
3.701771653543306
 10
4.102362204724409
 20
3.678149606299212
 10
4.108267716535433
 20
3.649606299212598
  0
LINE
  5
5B2
330
1E
100
AcDbEntity
  8
0
100
AcDbLine
 10
2.986220472440944
 20
3.48523622047244
 30
0.0
 11
3.065944881889763
 21
3.48523622047244
 31
0.0
  0
LINE
  5
5B3
330
1E
100
AcDbEntity
  8
0
100
AcDbLine
 10
2.986220472440944
 20
3.48523622047244
 30
0.0
 11
2.99015748031496
 21
3.483267716535432
 31
0.0
  0
LWPOLYLINE
  5
5B4
330
1E
100
AcDbEntity
  8
0
100
AcDbPolyline
 90
        3
 70
     0
 43
0.0
 10
3.000984251968503
 20
3.483267716535432
 10
2.993110236220472
 20
3.483267716535432
 10
2.99015748031496
 20
3.483267716535432
  0
LINE
  5
5B9
330
1E
100
AcDbEntity
  8
0
100
AcDbLine
 10
3.000984251968503
 20
3.483267716535432
 30
0.0
 11
3.105314960629921
 21
3.483267716535432
 31
0.0
  0
LINE
  5
5BA
330
1E
100
AcDbEntity
  8
0
100
AcDbLine
 10
3.105314960629921
 20
3.483267716535432
 30
0.0
 11
3.113188976377952
 21
3.482283464566929
 31
0.0
  0
LINE
  5
5BB
330
1E
100
AcDbEntity
  8
0
100
AcDbLine
 10
3.119094488188976
 20
3.482283464566929
 30
0.0
 11
3.113188976377952
 21
3.482283464566929
 31
0.0
  0
LINE
  5
5BC
330
1E
100
AcDbEntity
  8
0
100
AcDbLine
 10
3.113188976377952
 20
3.428149606299212
 30
0.0
 11
3.105314960629921
 21
3.427165354330708
 31
0.0
  0
LINE
  5
5BD
330
1E
100
AcDbEntity
  8
0
100
AcDbLine
 10
3.113188976377952
 20
3.482283464566929
 30
0.0
 11
3.113188976377952
 21
3.428149606299212
 31
0.0
  0
LINE
  5
5BE
330
1E
100
AcDbEntity
  8
0
100
AcDbLine
 10
3.105314960629921
 20
3.483267716535432
 30
0.0
 11
3.105314960629921
 21
3.427165354330708
 31
0.0
  0
LINE
  5
5BF
330
1E
100
AcDbEntity
  8
0
100
AcDbLine
 10
3.006889763779527
 20
3.427165354330708
 30
0.0
 11
3.105314960629921
 21
3.427165354330708
 31
0.0
  0
LWPOLYLINE
  5
5C0
330
1E
100
AcDbEntity
  8
0
100
AcDbPolyline
 90
        4
 70
     0
 43
0.0
 10
3.036417322834645
 20
3.426181102362204
 10
3.031496062992125
 20
3.426181102362204
 10
3.020669291338582
 20
3.427165354330708
 10
3.006889763779527
 20
3.427165354330708
  0
LINE
  5
5C6
330
1E
100
AcDbEntity
  8
0
100
AcDbLine
 10
3.068897637795275
 20
3.415354330708661
 30
0.0
 11
3.036417322834645
 21
3.426181102362204
 31
0.0
  0
LWPOLYLINE
  5
5C7
330
1E
100
AcDbEntity
  8
0
100
AcDbPolyline
 90
        3
 70
     0
 43
0.0
 10
3.068897637795275
 20
3.415354330708661
 10
3.073818897637795
 20
3.415354330708661
 10
3.084645669291338
 20
3.415354330708661
  0
LINE
  5
5CC
330
1E
100
AcDbEntity
  8
0
100
AcDbLine
 10
3.084645669291338
 20
3.415354330708661
 30
0.0
 11
3.126968503937007
 21
3.415354330708661
 31
0.0
  0
LWPOLYLINE
  5
5CD
330
1E
100
AcDbEntity
  8
0
100
AcDbPolyline
 90
        3
 70
     0
 43
0.0
 10
3.126968503937007
 20
3.415354330708661
 10
3.136811023622047
 20
3.415354330708661
 10
3.141732283464566
 20
3.415354330708661
  0
LINE
  5
5D2
330
1E
100
AcDbEntity
  8
0
100
AcDbLine
 10
3.146653543307086
 20
3.416338582677165
 30
0.0
 11
3.141732283464566
 21
3.415354330708661
 31
0.0
  0
LWPOLYLINE
  5
5D3
330
1E
100
AcDbEntity
  8
0
100
AcDbPolyline
 90
        3
 70
     0
 43
0.0
 10
3.159448818897637
 20
3.417322834645669
 10
3.150590551181102
 20
3.417322834645669
 10
3.146653543307086
 20
3.416338582677165
  0
LINE
  5
5D8
330
1E
100
AcDbEntity
  8
0
100
AcDbLine
 10
3.159448818897637
 20
3.417322834645669
 30
0.0
 11
3.21259842519685
 21
3.418307086614173
 31
0.0
  0
LINE
  5
5D9
330
1E
100
AcDbEntity
  8
0
100
AcDbLine
 10
3.21259842519685
 20
3.418307086614173
 30
0.0
 11
3.215551181102362
 21
3.419291338582677
 31
0.0
  0
LINE
  5
5DA
330
1E
100
AcDbEntity
  8
0
100
AcDbLine
 10
3.205708661417322
 20
3.419291338582677
 30
0.0
 11
3.215551181102362
 21
3.419291338582677
 31
0.0
  0
LINE
  5
5DB
330
1E
100
AcDbEntity
  8
0
100
AcDbLine
 10
3.205708661417322
 20
3.419291338582677
 30
0.0
 11
3.202755905511811
 21
3.419291338582677
 31
0.0
  0
LWPOLYLINE
  5
5DC
330
1E
100
AcDbEntity
  8
0
100
AcDbPolyline
 90
        3
 70
     0
 43
0.0
 10
3.171259842519685
 20
3.419291338582677
 10
3.187992125984251
 20
3.419291338582677
 10
3.202755905511811
 20
3.419291338582677
  0
LINE
  5
5E1
330
1E
100
AcDbEntity
  8
0
100
AcDbLine
 10
3.154527559055118
 20
3.419291338582677
 30
0.0
 11
3.171259842519685
 21
3.419291338582677
 31
0.0
  0
LWPOLYLINE
  5
5E2
330
1E
100
AcDbEntity
  8
0
100
AcDbPolyline
 90
        3
 70
     0
 43
0.0
 10
3.154527559055118
 20
3.419291338582677
 10
3.14763779527559
 20
3.419291338582677
 10
3.143700787401574
 20
3.419291338582677
  0
LINE
  5
5E7
330
1E
100
AcDbEntity
  8
0
100
AcDbLine
 10
3.143700787401574
 20
3.419291338582677
 30
0.0
 11
3.117125984251968
 21
3.428149606299212
 31
0.0
  0
LINE
  5
5E8
330
1E
100
AcDbEntity
  8
0
100
AcDbLine
 10
3.117125984251968
 20
3.428149606299212
 30
0.0
 11
3.113188976377952
 21
3.428149606299212
 31
0.0
  0
LWPOLYLINE
  5
5E9
330
1E
100
AcDbEntity
  8
0
100
AcDbPolyline
 90
        7
 70
     0
 43
0.0
 10
4.418307086614173
 20
3.041338582677165
 10
4.442913385826771
 20
3.134842519685039
 10
4.456692913385826
 20
3.229330708661417
 10
4.461614173228346
 20
3.324803149606299
 10
4.456692913385826
 20
3.420275590551181
 10
4.442913385826771
 20
3.515748031496062
 10
4.418307086614173
 20
3.608267716535432
  0
LWPOLYLINE
  5
5F2
330
1E
100
AcDbEntity
  8
0
100
AcDbPolyline
 90
        6
 70
     0
 43
0.0
 10
4.418307086614173
 20
3.041338582677165
 10
4.429133858267716
 20
3.044291338582677
 10
4.441929133858267
 20
3.046259842519685
 10
4.450787401574802
 20
3.045275590551181
 10
4.455708661417323
 20
3.044291338582677
 10
4.458661417322834
 20
3.043307086614173
  0
LWPOLYLINE
  5
5FA
330
1E
100
AcDbEntity
  8
0
100
AcDbPolyline
 90
        7
 70
     0
 43
0.0
 10
4.458661417322834
 20
3.606299212598425
 10
4.481299212598425
 20
3.514763779527558
 10
4.49507874015748
 20
3.420275590551181
 10
4.499015748031496
 20
3.324803149606299
 10
4.49507874015748
 20
3.230314960629921
 10
4.481299212598425
 20
3.135826771653543
 10
4.458661417322834
 20
3.043307086614173
  0
LWPOLYLINE
  5
603
330
1E
100
AcDbEntity
  8
0
100
AcDbPolyline
 90
        3
 70
     0
 43
0.0
 10
4.458661417322834
 20
3.043307086614173
 10
4.463582677165354
 20
3.034448818897637
 10
4.474409448818897
 20
3.007874015748031
  0
LWPOLYLINE
  5
608
330
1E
100
AcDbEntity
  8
0
100
AcDbPolyline
 90
        8
 70
     0
 43
0.0
 10
4.474409448818897
 20
3.007874015748031
 10
4.499015748031496
 20
3.096456692913385
 10
4.515748031496062
 20
3.187007874015748
 10
4.523622047244094
 20
3.278543307086614
 10
4.523622047244094
 20
3.371062992125984
 10
4.515748031496062
 20
3.46259842519685
 10
4.499015748031496
 20
3.553149606299212
 10
4.474409448818897
 20
3.641732283464566
  0
LWPOLYLINE
  5
612
330
1E
100
AcDbEntity
  8
0
100
AcDbPolyline
 90
        8
 70
     0
 43
0.0
 10
2.52755905511811
 20
3.678149606299212
 10
2.498031496062992
 20
3.579724409448818
 10
2.477362204724409
 20
3.478346456692913
 10
2.467519685039369
 20
3.375984251968503
 10
2.467519685039369
 20
3.273622047244094
 10
2.477362204724409
 20
3.171259842519685
 10
2.498031496062992
 20
3.069881889763779
 10
2.52755905511811
 20
2.971456692913385
  0
LWPOLYLINE
  5
61C
330
1E
100
AcDbEntity
  8
0
100
AcDbPolyline
 90
        3
 70
     0
 43
0.0
 10
2.52755905511811
 20
2.971456692913385
 10
2.530511811023622
 20
2.953740157480314
 10
2.540354330708661
 20
2.938976377952755
  0
LWPOLYLINE
  5
621
330
1E
100
AcDbEntity
  8
0
100
AcDbPolyline
 90
        7
 70
     0
 43
0.0
 10
2.540354330708661
 20
2.938976377952755
 10
2.58267716535433
 20
2.845472440944881
 10
2.633858267716535
 20
2.756889763779527
 10
2.693897637795275
 20
2.674212598425196
 10
2.761811023622047
 20
2.597440944881889
 10
2.836614173228346
 20
2.528543307086614
 10
2.917322834645669
 20
2.465551181102362
  0
LWPOLYLINE
  5
62A
330
1E
100
AcDbEntity
  8
0
100
AcDbPolyline
 90
        3
 70
     0
 43
0.0
 10
2.917322834645669
 20
2.465551181102362
 10
2.93011811023622
 20
2.452755905511811
 10
2.946850393700787
 20
2.445866141732283
  0
LWPOLYLINE
  5
62F
330
1E
100
AcDbEntity
  8
0
100
AcDbPolyline
 90
       14
 70
     0
 43
0.0
 10
2.946850393700787
 20
2.445866141732283
 10
3.025590551181102
 20
2.400590551181102
 10
3.109251968503937
 20
2.361220472440944
 10
3.194881889763779
 20
2.329724409448818
 10
3.283464566929133
 20
2.306102362204724
 10
3.373031496062992
 20
2.290354330708661
 10
3.464566929133858
 20
2.28248031496063
 10
3.55511811023622
 20
2.28248031496063
 10
3.646653543307086
 20
2.290354330708661
 10
3.736220472440944
 20
2.306102362204724
 10
3.824803149606299
 20
2.329724409448818
 10
3.910433070866141
 20
2.361220472440944
 10
3.994094488188976
 20
2.400590551181102
 10
4.072834645669291
 20
2.445866141732283
  0
LWPOLYLINE
  5
63F
330
1E
100
AcDbEntity
  8
0
100
AcDbPolyline
 90
        3
 70
     0
 43
0.0
 10
4.072834645669291
 20
2.445866141732283
 10
4.089566929133858
 20
2.452755905511811
 10
4.102362204724409
 20
2.465551181102362
  0
LWPOLYLINE
  5
644
330
1E
100
AcDbEntity
  8
0
100
AcDbPolyline
 90
        7
 70
     0
 43
0.0
 10
4.102362204724409
 20
2.465551181102362
 10
4.183070866141732
 20
2.528543307086614
 10
4.257874015748031
 20
2.597440944881889
 10
4.325787401574802
 20
2.674212598425196
 10
4.385826771653543
 20
2.756889763779527
 10
4.437007874015748
 20
2.845472440944881
 10
4.479330708661417
 20
2.938976377952755
  0
LWPOLYLINE
  5
64D
330
1E
100
AcDbEntity
  8
0
100
AcDbPolyline
 90
        3
 70
     0
 43
0.0
 10
4.479330708661417
 20
2.938976377952755
 10
4.489173228346456
 20
2.953740157480314
 10
4.492125984251968
 20
2.971456692913385
  0
LWPOLYLINE
  5
652
330
1E
100
AcDbEntity
  8
0
100
AcDbPolyline
 90
        8
 70
     0
 43
0.0
 10
4.492125984251968
 20
2.971456692913385
 10
4.521653543307086
 20
3.069881889763779
 10
4.542322834645669
 20
3.171259842519685
 10
4.552165354330708
 20
3.273622047244094
 10
4.552165354330708
 20
3.375984251968503
 10
4.542322834645669
 20
3.478346456692913
 10
4.521653543307086
 20
3.579724409448818
 10
4.492125984251968
 20
3.678149606299212
  0
LWPOLYLINE
  5
65C
330
1E
100
AcDbEntity
  8
0
100
AcDbPolyline
 90
        7
 70
     0
 43
0.0
 10
4.479330708661417
 20
3.711614173228346
 10
4.437007874015748
 20
3.804133858267716
 10
4.385826771653543
 20
3.89271653543307
 10
4.325787401574802
 20
3.975393700787401
 10
4.257874015748031
 20
4.052165354330708
 10
4.183070866141732
 20
4.122047244094487
 10
4.102362204724409
 20
4.184055118110236
  0
LWPOLYLINE
  5
665
330
1E
100
AcDbEntity
  8
0
100
AcDbPolyline
 90
       14
 70
     0
 43
0.0
 10
4.072834645669291
 20
4.203740157480314
 10
3.994094488188976
 20
4.25
 10
3.910433070866141
 20
4.288385826771653
 10
3.824803149606299
 20
4.319881889763779
 10
3.736220472440944
 20
4.343503937007874
 10
3.646653543307086
 20
4.359251968503937
 10
3.55511811023622
 20
4.367125984251968
 10
3.464566929133858
 20
4.367125984251968
 10
3.373031496062992
 20
4.359251968503937
 10
3.283464566929133
 20
4.343503937007874
 10
3.194881889763779
 20
4.319881889763779
 10
3.109251968503937
 20
4.288385826771653
 10
3.025590551181102
 20
4.25
 10
2.946850393700787
 20
4.203740157480314
  0
LWPOLYLINE
  5
675
330
1E
100
AcDbEntity
  8
0
100
AcDbPolyline
 90
        7
 70
     0
 43
0.0
 10
2.917322834645669
 20
4.184055118110236
 10
2.836614173228346
 20
4.122047244094487
 10
2.761811023622047
 20
4.052165354330708
 10
2.693897637795275
 20
3.975393700787401
 10
2.633858267716535
 20
3.89271653543307
 10
2.58267716535433
 20
3.804133858267716
 10
2.540354330708661
 20
3.711614173228346
  0
LWPOLYLINE
  5
67E
330
1E
100
AcDbEntity
  8
0
100
AcDbPolyline
 90
        8
 70
     0
 43
0.0
 10
4.488188976377952
 20
3.662401574803149
 10
4.515748031496062
 20
3.567913385826771
 10
4.534448818897637
 20
3.471456692913385
 10
4.544291338582676
 20
3.374015748031495
 10
4.544291338582676
 20
3.275590551181102
 10
4.534448818897637
 20
3.178149606299212
 10
4.515748031496062
 20
3.081692913385826
 10
4.488188976377952
 20
2.987204724409448
  0
LWPOLYLINE
  5
688
330
1E
100
AcDbEntity
  8
0
100
AcDbPolyline
 90
       12
 70
     0
 43
0.0
 10
4.488188976377952
 20
2.987204724409448
 10
4.477362204724409
 20
3.004921259842519
 10
4.459645669291338
 20
3.014763779527558
 10
4.43996062992126
 20
3.016732283464566
 10
4.420275590551181
 20
3.010826771653543
 10
4.405511811023622
 20
2.996062992125984
 10
4.398622047244094
 20
2.977362204724409
 10
4.399606299212598
 20
2.956692913385826
 10
4.410433070866141
 20
2.938976377952755
 10
4.426181102362204
 20
2.927165354330708
 10
4.446850393700787
 20
2.924212598425196
 10
4.466535433070865
 20
2.929133858267716
  0
LWPOLYLINE
  5
696
330
1E
100
AcDbEntity
  8
0
100
AcDbPolyline
 90
        7
 70
     0
 43
0.0
 10
4.466535433070865
 20
2.929133858267716
 10
4.4251968503937
 20
2.841535433070866
 10
4.375984251968503
 20
2.757874015748031
 10
4.318897637795275
 20
2.679133858267716
 10
4.255905511811023
 20
2.606299212598425
 10
4.185039370078739
 20
2.540354330708661
 10
4.109251968503937
 20
2.480314960629921
  0
LWPOLYLINE
  5
69F
330
1E
100
AcDbEntity
  8
0
100
AcDbPolyline
 90
       12
 70
     0
 43
0.0
 10
4.109251968503937
 20
2.480314960629921
 10
4.109251968503937
 20
2.500984251968503
 10
4.101377952755905
 20
2.519685039370078
 10
4.086614173228346
 20
2.533464566929133
 10
4.066929133858267
 20
2.539370078740157
 10
4.046259842519685
 20
2.536417322834645
 10
4.029527559055117
 20
2.524606299212598
 10
4.018700787401574
 20
2.506889763779527
 10
4.016732283464566
 20
2.487204724409448
 10
4.023622047244094
 20
2.467519685039369
 10
4.037401574803149
 20
2.452755905511811
 10
4.057086614173228
 20
2.445866141732283
  0
LWPOLYLINE
  5
6AD
330
1E
100
AcDbEntity
  8
0
100
AcDbPolyline
 90
       13
 70
     0
 43
0.0
 10
4.057086614173228
 20
2.445866141732283
 10
3.972440944881889
 20
2.398622047244094
 10
3.884842519685039
 20
2.36023622047244
 10
3.794291338582677
 20
2.329724409448818
 10
3.700787401574803
 20
2.307086614173228
 10
3.605314960629921
 20
2.294291338582677
 10
3.509842519685039
 20
2.289370078740157
 10
3.414370078740157
 20
2.294291338582677
 10
3.318897637795275
 20
2.307086614173228
 10
3.225393700787401
 20
2.329724409448818
 10
3.134842519685039
 20
2.36023622047244
 10
3.046259842519685
 20
2.398622047244094
 10
2.96259842519685
 20
2.445866141732283
  0
LWPOLYLINE
  5
6BC
330
1E
100
AcDbEntity
  8
0
100
AcDbPolyline
 90
       12
 70
     0
 43
0.0
 10
2.96259842519685
 20
2.445866141732283
 10
2.982283464566929
 20
2.452755905511811
 10
2.996062992125984
 20
2.467519685039369
 10
3.002952755905511
 20
2.487204724409448
 10
3.000984251968503
 20
2.506889763779527
 10
2.99015748031496
 20
2.524606299212598
 10
2.973425196850393
 20
2.536417322834645
 10
2.952755905511811
 20
2.539370078740157
 10
2.933070866141732
 20
2.533464566929133
 10
2.918307086614173
 20
2.519685039370078
 10
2.910433070866141
 20
2.500984251968503
 10
2.910433070866141
 20
2.480314960629921
  0
LWPOLYLINE
  5
6CA
330
1E
100
AcDbEntity
  8
0
100
AcDbPolyline
 90
        7
 70
     0
 43
0.0
 10
2.910433070866141
 20
2.480314960629921
 10
2.834645669291338
 20
2.540354330708661
 10
2.763779527559055
 20
2.606299212598425
 10
2.700787401574803
 20
2.679133858267716
 10
2.643700787401574
 20
2.757874015748031
 10
2.594488188976377
 20
2.841535433070866
 10
2.553149606299212
 20
2.929133858267716
  0
LWPOLYLINE
  5
6D3
330
1E
100
AcDbEntity
  8
0
100
AcDbPolyline
 90
       12
 70
     0
 43
0.0
 10
2.553149606299212
 20
2.929133858267716
 10
2.572834645669291
 20
2.924212598425196
 10
2.592519685039369
 20
2.927165354330708
 10
2.609251968503937
 20
2.938976377952755
 10
2.619094488188976
 20
2.956692913385826
 10
2.621062992125984
 20
2.977362204724409
 10
2.614173228346456
 20
2.996062992125984
 10
2.599409448818897
 20
3.010826771653543
 10
2.579724409448818
 20
3.016732283464566
 10
2.56003937007874
 20
3.014763779527558
 10
2.542322834645669
 20
3.004921259842519
 10
2.531496062992125
 20
2.987204724409448
  0
LWPOLYLINE
  5
6E1
330
1E
100
AcDbEntity
  8
0
100
AcDbPolyline
 90
        8
 70
     0
 43
0.0
 10
2.531496062992125
 20
2.987204724409448
 10
2.503937007874015
 20
3.081692913385826
 10
2.48523622047244
 20
3.178149606299212
 10
2.475393700787401
 20
3.275590551181102
 10
2.475393700787401
 20
3.374015748031495
 10
2.48523622047244
 20
3.471456692913385
 10
2.503937007874015
 20
3.567913385826771
 10
2.531496062992125
 20
3.662401574803149
  0
LWPOLYLINE
  5
6EB
330
1E
100
AcDbEntity
  8
0
100
AcDbPolyline
 90
        6
 70
     0
 43
0.0
 10
4.488188976377952
 20
2.987204724409448
 10
4.487204724409449
 20
2.991141732283464
 10
4.483267716535433
 20
2.998031496062992
 10
4.479330708661417
 20
3.002952755905511
 10
4.476377952755905
 20
3.005905511811023
 10
4.474409448818897
 20
3.007874015748031
  0
LWPOLYLINE
  5
6F3
330
1E
100
AcDbEntity
  8
0
100
AcDbPolyline
 90
        7
 70
     0
 43
0.0
 10
2.561023622047243
 20
3.043307086614173
 10
2.538385826771653
 20
3.135826771653543
 10
2.524606299212598
 20
3.230314960629921
 10
2.520669291338582
 20
3.324803149606299
 10
2.524606299212598
 20
3.420275590551181
 10
2.538385826771653
 20
3.514763779527558
 10
2.561023622047243
 20
3.606299212598425
  0
LWPOLYLINE
  5
6FC
330
1E
100
AcDbEntity
  8
0
100
AcDbPolyline
 90
        6
 70
     0
 43
0.0
 10
2.561023622047243
 20
3.043307086614173
 10
2.563976377952756
 20
3.044291338582677
 10
2.569881889763779
 20
3.045275590551181
 10
2.579724409448818
 20
3.046259842519685
 10
2.590551181102362
 20
3.044291338582677
 10
2.601377952755905
 20
3.041338582677165
  0
LWPOLYLINE
  5
704
330
1E
100
AcDbEntity
  8
0
100
AcDbPolyline
 90
        7
 70
     0
 43
0.0
 10
2.601377952755905
 20
3.608267716535432
 10
2.576771653543306
 20
3.515748031496062
 10
2.562992125984251
 20
3.420275590551181
 10
2.558070866141732
 20
3.324803149606299
 10
2.562992125984251
 20
3.229330708661417
 10
2.576771653543306
 20
3.134842519685039
 10
2.601377952755905
 20
3.041338582677165
  0
LWPOLYLINE
  5
70D
330
1E
100
AcDbEntity
  8
0
100
AcDbPolyline
 90
        8
 70
     0
 43
0.0
 10
2.545275590551181
 20
3.641732283464566
 10
2.520669291338582
 20
3.553149606299212
 10
2.503937007874015
 20
3.46259842519685
 10
2.49507874015748
 20
3.371062992125984
 10
2.49507874015748
 20
3.278543307086614
 10
2.503937007874015
 20
3.187007874015748
 10
2.520669291338582
 20
3.096456692913385
 10
2.545275590551181
 20
3.007874015748031
  0
LWPOLYLINE
  5
717
330
1E
100
AcDbEntity
  8
0
100
AcDbPolyline
 90
        4
 70
     0
 43
0.0
 10
2.545275590551181
 20
3.007874015748031
 10
2.547244094488188
 20
3.015748031496062
 10
2.56003937007874
 20
3.040354330708661
 10
2.561023622047243
 20
3.043307086614173
  0
LWPOLYLINE
  5
71D
330
1E
100
AcDbEntity
  8
0
100
AcDbPolyline
 90
        6
 70
     0
 43
0.0
 10
2.545275590551181
 20
3.007874015748031
 10
2.544291338582677
 20
3.006889763779527
 10
2.541338582677165
 20
3.004921259842519
 10
2.538385826771653
 20
3.000984251968503
 10
2.534448818897637
 20
2.99507874015748
 10
2.531496062992125
 20
2.987204724409448
  0
CIRCLE
  5
725
330
1E
100
AcDbEntity
  8
0
100
AcDbCircle
 10
3.509350393700787
 20
3.32529527559055
 30
0.0
 40
1.063484365833834
  0
LWPOLYLINE
  5
726
330
1E
100
AcDbEntity
  8
0
100
AcDbPolyline
 90
        4
 70
     0
 43
0.0
 10
4.479330708661417
 20
2.938976377952755
 10
4.487204724409449
 20
2.949803149606299
 10
4.491141732283464
 20
2.964566929133858
 10
4.492125984251968
 20
2.971456692913385
  0
LWPOLYLINE
  5
72C
330
1E
100
AcDbEntity
  8
0
100
AcDbPolyline
 90
        4
 70
     0
 43
0.0
 10
4.072834645669291
 20
2.445866141732283
 10
4.085629921259842
 20
2.450787401574803
 10
4.097440944881889
 20
2.460629921259842
 10
4.102362204724409
 20
2.465551181102362
  0
LWPOLYLINE
  5
732
330
1E
100
AcDbEntity
  8
0
100
AcDbPolyline
 90
        4
 70
     0
 43
0.0
 10
2.917322834645669
 20
2.465551181102362
 10
2.926181102362204
 20
2.455708661417322
 10
2.939960629921259
 20
2.447834645669291
 10
2.946850393700787
 20
2.445866141732283
  0
LWPOLYLINE
  5
738
330
1E
100
AcDbEntity
  8
0
100
AcDbPolyline
 90
        4
 70
     0
 43
0.0
 10
2.52755905511811
 20
2.971456692913385
 10
2.529527559055118
 20
2.958661417322834
 10
2.536417322834645
 20
2.943897637795275
 10
2.540354330708661
 20
2.938976377952755
  0
CIRCLE
  5
73E
330
1E
100
AcDbEntity
  8
0
100
AcDbCircle
 10
3.510334645669291
 20
3.324803149606299
 30
0.0
 40
1.088090551181102
  0
LINE
  5
73F
330
1E
100
AcDbEntity
  8
0
100
AcDbLine
 10
3.117125984251968
 20
3.221456692913385
 30
0.0
 11
3.143700787401574
 21
3.230314960629921
 31
0.0
  0
LINE
  5
740
330
1E
100
AcDbEntity
  8
0
100
AcDbLine
 10
3.146653543307086
 20
3.416338582677165
 30
0.0
 11
3.146653543307086
 21
3.355314960629921
 31
0.0
  0
LWPOLYLINE
  5
741
330
1E
100
AcDbEntity
  8
0
100
AcDbPolyline
 90
        3
 70
     0
 43
0.0
 10
3.159448818897637
 20
3.361220472440944
 10
3.151574803149606
 20
3.36023622047244
 10
3.146653543307086
 20
3.355314960629921
  0
LINE
  5
746
330
1E
100
AcDbEntity
  8
0
100
AcDbLine
 10
3.159448818897637
 20
3.361220472440944
 30
0.0
 11
3.159448818897637
 21
3.417322834645669
 31
0.0
  0
LINE
  5
747
330
1E
100
AcDbEntity
  8
0
100
AcDbLine
 10
3.141732283464566
 20
3.415354330708661
 30
0.0
 11
3.141732283464566
 21
3.234251968503937
 31
0.0
  0
LINE
  5
748
330
1E
100
AcDbEntity
  8
0
100
AcDbLine
 10
3.146653543307086
 20
3.233267716535432
 30
0.0
 11
3.141732283464566
 21
3.234251968503937
 31
0.0
  0
LINE
  5
749
330
1E
100
AcDbEntity
  8
0
100
AcDbLine
 10
3.146653543307086
 20
3.233267716535432
 30
0.0
 11
3.146653543307086
 21
3.294291338582677
 31
0.0
  0
LINE
  5
74A
330
1E
100
AcDbEntity
  8
0
100
AcDbLine
 10
3.146653543307086
 20
3.294291338582677
 30
0.0
 11
3.15748031496063
 21
3.30511811023622
 31
0.0
  0
LINE
  5
74B
330
1E
100
AcDbEntity
  8
0
100
AcDbLine
 10
3.15748031496063
 20
3.30511811023622
 30
0.0
 11
3.15748031496063
 21
3.344488188976377
 31
0.0
  0
LINE
  5
74C
330
1E
100
AcDbEntity
  8
0
100
AcDbLine
 10
3.146653543307086
 20
3.355314960629921
 30
0.0
 11
3.15748031496063
 21
3.344488188976377
 31
0.0
  0
LINE
  5
74D
330
1E
100
AcDbEntity
  8
0
100
AcDbLine
 10
3.126968503937007
 20
3.23523622047244
 30
0.0
 11
3.126968503937007
 21
3.415354330708661
 31
0.0
  0
LWPOLYLINE
  5
74E
330
1E
100
AcDbEntity
  8
0
100
AcDbPolyline
 90
        3
 70
     0
 43
0.0
 10
3.126968503937007
 20
3.23523622047244
 10
3.136811023622047
 20
3.234251968503937
 10
3.141732283464566
 20
3.234251968503937
  0
LINE
  5
753
330
1E
100
AcDbEntity
  8
0
100
AcDbLine
 10
3.084645669291338
 20
3.415354330708661
 30
0.0
 11
3.084645669291338
 21
3.23523622047244
 31
0.0
  0
LINE
  5
754
330
1E
100
AcDbEntity
  8
0
100
AcDbLine
 10
3.084645669291338
 20
3.23523622047244
 30
0.0
 11
3.126968503937007
 21
3.23523622047244
 31
0.0
  0
LINE
  5
755
330
1E
100
AcDbEntity
  8
0
100
AcDbLine
 10
3.068897637795275
 20
3.234251968503937
 30
0.0
 11
3.068897637795275
 21
3.415354330708661
 31
0.0
  0
LWPOLYLINE
  5
756
330
1E
100
AcDbEntity
  8
0
100
AcDbPolyline
 90
        3
 70
     0
 43
0.0
 10
3.084645669291338
 20
3.23523622047244
 10
3.073818897637795
 20
3.234251968503937
 10
3.068897637795275
 20
3.234251968503937
  0
LINE
  5
75B
330
1E
100
AcDbEntity
  8
0
100
AcDbLine
 10
3.044291338582677
 20
3.37007874015748
 30
0.0
 11
3.044291338582677
 21
3.409448818897637
 31
0.0
  0
LWPOLYLINE
  5
75C
330
1E
100
AcDbEntity
  8
0
100
AcDbPolyline
 90
        3
 70
     0
 43
0.0
 10
3.044291338582677
 20
3.37007874015748
 10
3.047244094488188
 20
3.37007874015748
 10
3.054133858267716
 20
3.37007874015748
  0
LINE
  5
761
330
1E
100
AcDbEntity
  8
0
100
AcDbLine
 10
3.054133858267716
 20
3.37007874015748
 30
0.0
 11
3.054133858267716
 21
3.409448818897637
 31
0.0
  0
LINE
  5
762
330
1E
100
AcDbEntity
  8
0
100
AcDbLine
 10
3.036417322834645
 20
3.362204724409448
 30
0.0
 11
3.036417322834645
 21
3.417322834645669
 31
0.0
  0
LINE
  5
763
330
1E
100
AcDbEntity
  8
0
100
AcDbLine
 10
3.036417322834645
 20
3.362204724409448
 30
0.0
 11
3.044291338582677
 21
3.37007874015748
 31
0.0
  0
LINE
  5
764
330
1E
100
AcDbEntity
  8
0
100
AcDbLine
 10
3.06003937007874
 20
3.37007874015748
 30
0.0
 11
3.054133858267716
 21
3.37007874015748
 31
0.0
  0
LINE
  5
765
330
1E
100
AcDbEntity
  8
0
100
AcDbLine
 10
3.06003937007874
 20
3.37007874015748
 30
0.0
 11
3.06003937007874
 21
3.409448818897637
 31
0.0
  0
LINE
  5
766
330
1E
100
AcDbEntity
  8
0
100
AcDbLine
 10
3.068897637795275
 20
3.234251968503937
 30
0.0
 11
3.036417322834645
 21
3.223425196850393
 31
0.0
  0
LINE
  5
767
330
1E
100
AcDbEntity
  8
0
100
AcDbLine
 10
3.036417322834645
 20
3.426181102362204
 30
0.0
 11
3.036417322834645
 21
3.223425196850393
 31
0.0
  0
LINE
  5
768
330
1E
100
AcDbEntity
  8
0
100
AcDbLine
 10
3.036417322834645
 20
3.362204724409448
 30
0.0
 11
3.06003937007874
 21
3.37007874015748
 31
0.0
  0
LINE
  5
769
330
1E
100
AcDbEntity
  8
0
100
AcDbLine
 10
3.036417322834645
 20
3.232283464566929
 30
0.0
 11
3.036417322834645
 21
3.287401574803149
 31
0.0
  0
LINE
  5
76A
330
1E
100
AcDbEntity
  8
0
100
AcDbLine
 10
3.036417322834645
 20
3.287401574803149
 30
0.0
 11
3.06003937007874
 21
3.279527559055118
 31
0.0
  0
LINE
  5
76B
330
1E
100
AcDbEntity
  8
0
100
AcDbLine
 10
3.06003937007874
 20
3.279527559055118
 30
0.0
 11
3.06003937007874
 21
3.24015748031496
 31
0.0
  0
LINE
  5
76C
330
1E
100
AcDbEntity
  8
0
100
AcDbLine
 10
3.036417322834645
 20
3.232283464566929
 30
0.0
 11
3.06003937007874
 21
3.24015748031496
 31
0.0
  0
LINE
  5
76D
330
1E
100
AcDbEntity
  8
0
100
AcDbLine
 10
3.000984251968503
 20
3.483267716535432
 30
0.0
 11
3.000984251968503
 21
3.166338582677165
 31
0.0
  0
LINE
  5
76E
330
1E
100
AcDbEntity
  8
0
100
AcDbLine
 10
3.105314960629921
 20
3.166338582677165
 30
0.0
 11
3.000984251968503
 21
3.166338582677165
 31
0.0
  0
LINE
  5
76F
330
1E
100
AcDbEntity
  8
0
100
AcDbLine
 10
3.105314960629921
 20
3.166338582677165
 30
0.0
 11
3.105314960629921
 21
3.223425196850393
 31
0.0
  0
LINE
  5
770
330
1E
100
AcDbEntity
  8
0
100
AcDbLine
 10
3.006889763779527
 20
3.223425196850393
 30
0.0
 11
3.105314960629921
 21
3.223425196850393
 31
0.0
  0
LINE
  5
771
330
1E
100
AcDbEntity
  8
0
100
AcDbLine
 10
3.006889763779527
 20
3.223425196850393
 30
0.0
 11
3.006889763779527
 21
3.427165354330708
 31
0.0
  0
LWPOLYLINE
  5
772
330
1E
100
AcDbEntity
  8
0
100
AcDbPolyline
 90
        4
 70
     0
 43
0.0
 10
3.036417322834645
 20
3.223425196850393
 10
3.031496062992125
 20
3.223425196850393
 10
3.020669291338582
 20
3.223425196850393
 10
3.006889763779527
 20
3.223425196850393
  0
LINE
  5
778
330
1E
100
AcDbEntity
  8
0
100
AcDbLine
 10
4.018700787401574
 20
3.199803149606299
 30
0.0
 11
4.018700787401574
 21
3.449803149606299
 31
0.0
  0
LWPOLYLINE
  5
779
330
1E
100
AcDbEntity
  8
0
100
AcDbPolyline
 90
        3
 70
     0
 43
0.0
 10
4.029527559055117
 20
3.199803149606299
 10
4.026574803149606
 20
3.199803149606299
 10
4.018700787401574
 20
3.199803149606299
  0
LINE
  5
77E
330
1E
100
AcDbEntity
  8
0
100
AcDbLine
 10
4.029527559055117
 20
3.449803149606299
 30
0.0
 11
4.029527559055117
 21
3.199803149606299
 31
0.0
  0
LINE
  5
77F
330
1E
100
AcDbEntity
  8
0
100
AcDbLine
 10
3.874015748031495
 20
3.403543307086614
 30
0.0
 11
3.845472440944881
 21
3.403543307086614
 31
0.0
  0
LINE
  5
780
330
1E
100
AcDbEntity
  8
0
100
AcDbLine
 10
3.874015748031495
 20
3.403543307086614
 30
0.0
 11
3.874015748031495
 21
3.246062992125984
 31
0.0
  0
LINE
  5
781
330
1E
100
AcDbEntity
  8
0
100
AcDbLine
 10
3.874015748031495
 20
3.246062992125984
 30
0.0
 11
3.845472440944881
 21
3.246062992125984
 31
0.0
  0
LINE
  5
782
330
1E
100
AcDbEntity
  8
0
100
AcDbLine
 10
3.845472440944881
 20
3.014763779527558
 30
0.0
 11
3.845472440944881
 21
3.246062992125984
 31
0.0
  0
LINE
  5
783
330
1E
100
AcDbEntity
  8
0
100
AcDbLine
 10
3.845472440944881
 20
3.014763779527558
 30
0.0
 11
3.845472440944881
 21
3.014763779527558
 31
0.0
  0
LINE
  5
784
330
1E
100
AcDbEntity
  8
0
100
AcDbLine
 10
3.845472440944881
 20
3.014763779527558
 30
0.0
 11
4.018700787401574
 21
3.014763779527558
 31
0.0
  0
LINE
  5
785
330
1E
100
AcDbEntity
  8
0
100
AcDbLine
 10
4.018700787401574
 20
3.014763779527558
 30
0.0
 11
4.018700787401574
 21
3.130905511811023
 31
0.0
  0
LINE
  5
786
330
1E
100
AcDbEntity
  8
0
100
AcDbLine
 10
4.018700787401574
 20
3.130905511811023
 30
0.0
 11
3.883858267716535
 21
3.130905511811023
 31
0.0
  0
LINE
  5
787
330
1E
100
AcDbEntity
  8
0
100
AcDbLine
 10
3.883858267716535
 20
3.130905511811023
 30
0.0
 11
3.883858267716535
 21
3.199803149606299
 31
0.0
  0
LINE
  5
788
330
1E
100
AcDbEntity
  8
0
100
AcDbLine
 10
3.883858267716535
 20
3.199803149606299
 30
0.0
 11
4.018700787401574
 21
3.199803149606299
 31
0.0
  0
LINE
  5
789
330
1E
100
AcDbEntity
  8
0
100
AcDbLine
 10
3.845472440944881
 20
3.634842519685039
 30
0.0
 11
3.845472440944881
 21
3.403543307086614
 31
0.0
  0
LINE
  5
78A
330
1E
100
AcDbEntity
  8
0
100
AcDbLine
 10
3.844488188976377
 20
3.408464566929133
 30
0.0
 11
3.844488188976377
 21
3.632874015748031
 31
0.0
  0
LINE
  5
78B
330
1E
100
AcDbEntity
  8
0
100
AcDbLine
 10
3.844488188976377
 20
3.408464566929133
 30
0.0
 11
3.845472440944881
 21
3.403543307086614
 31
0.0
  0
LINE
  5
78C
330
1E
100
AcDbEntity
  8
0
100
AcDbLine
 10
2.939960629921259
 20
3.000984251968503
 30
0.0
 11
2.939960629921259
 21
3.649606299212598
 31
0.0
  0
LWPOLYLINE
  5
78D
330
1E
100
AcDbEntity
  8
0
100
AcDbPolyline
 90
        4
 70
     0
 43
0.0
 10
2.939960629921259
 20
3.000984251968503
 10
2.945866141732283
 20
2.977362204724409
 10
2.963582677165354
 20
2.960629921259842
 10
2.986220472440944
 20
2.954724409448818
  0
LINE
  5
793
330
1E
100
AcDbEntity
  8
0
100
AcDbLine
 10
4.033464566929134
 20
2.954724409448818
 30
0.0
 11
2.986220472440944
 21
2.954724409448818
 31
0.0
  0
LWPOLYLINE
  5
794
330
1E
100
AcDbEntity
  8
0
100
AcDbPolyline
 90
        4
 70
     0
 43
0.0
 10
4.033464566929134
 20
2.954724409448818
 10
4.056102362204724
 20
2.960629921259842
 10
4.072834645669291
 20
2.977362204724409
 10
4.079724409448818
 20
3.000984251968503
  0
LINE
  5
79A
330
1E
100
AcDbEntity
  8
0
100
AcDbLine
 10
4.079724409448818
 20
3.649606299212598
 30
0.0
 11
4.079724409448818
 21
3.000984251968503
 31
0.0
  0
LINE
  5
79B
330
1E
100
AcDbEntity
  8
0
100
AcDbLine
 10
4.033464566929134
 20
3.195866141732283
 30
0.0
 11
4.033464566929134
 21
3.453740157480314
 31
0.0
  0
LINE
  5
79C
330
1E
100
AcDbEntity
  8
0
100
AcDbLine
 10
4.033464566929134
 20
3.134842519685039
 30
0.0
 11
4.033464566929134
 21
3.195866141732283
 31
0.0
  0
LINE
  5
79D
330
1E
100
AcDbEntity
  8
0
100
AcDbLine
 10
4.033464566929134
 20
3.010826771653543
 30
0.0
 11
4.033464566929134
 21
3.134842519685039
 31
0.0
  0
LWPOLYLINE
  5
79E
330
1E
100
AcDbEntity
  8
0
100
AcDbPolyline
 90
        3
 70
     0
 43
0.0
 10
4.033464566929134
 20
3.010826771653543
 10
4.030511811023622
 20
3.003937007874015
 10
4.023622047244094
 20
3.000984251968503
  0
LINE
  5
7A3
330
1E
100
AcDbEntity
  8
0
100
AcDbLine
 10
2.996062992125984
 20
3.000984251968503
 30
0.0
 11
4.023622047244094
 21
3.000984251968503
 31
0.0
  0
LWPOLYLINE
  5
7A4
330
1E
100
AcDbEntity
  8
0
100
AcDbPolyline
 90
        3
 70
     0
 43
0.0
 10
2.996062992125984
 20
3.000984251968503
 10
2.989173228346456
 20
3.003937007874015
 10
2.986220472440944
 20
3.010826771653543
  0
LINE
  5
7A9
330
1E
100
AcDbEntity
  8
0
100
AcDbLine
 10
2.986220472440944
 20
3.010826771653543
 30
0.0
 11
2.986220472440944
 21
3.121062992125984
 31
0.0
  0
LWPOLYLINE
  5
7AA
330
1E
100
AcDbEntity
  8
0
100
AcDbPolyline
 90
        3
 70
     0
 43
0.0
 10
2.986220472440944
 20
3.121062992125984
 10
2.989173228346456
 20
3.127952755905511
 10
2.996062992125984
 20
3.130905511811023
  0
LINE
  5
7AF
330
1E
100
AcDbEntity
  8
0
100
AcDbLine
 10
3.065944881889763
 20
3.130905511811023
 30
0.0
 11
2.996062992125984
 21
3.130905511811023
 31
0.0
  0
LINE
  5
7B0
330
1E
100
AcDbEntity
  8
0
100
AcDbLine
 10
3.065944881889763
 20
3.130905511811023
 30
0.0
 11
3.065944881889763
 21
3.164370078740157
 31
0.0
  0
LINE
  5
7B1
330
1E
100
AcDbEntity
  8
0
100
AcDbLine
 10
2.986220472440944
 20
3.164370078740157
 30
0.0
 11
3.065944881889763
 21
3.164370078740157
 31
0.0
  0
LINE
  5
7B2
330
1E
100
AcDbEntity
  8
0
100
AcDbLine
 10
2.986220472440944
 20
3.164370078740157
 30
0.0
 11
2.986220472440944
 21
3.48523622047244
 31
0.0
  0
LINE
  5
7B3
330
1E
100
AcDbEntity
  8
0
100
AcDbLine
 10
4.029527559055117
 20
3.199803149606299
 30
0.0
 11
4.033464566929134
 21
3.195866141732283
 31
0.0
  0
LINE
  5
7B4
330
1E
100
AcDbEntity
  8
0
100
AcDbLine
 10
2.986220472440944
 20
3.164370078740157
 30
0.0
 11
2.99015748031496
 21
3.166338582677165
 31
0.0
  0
LINE
  5
7B5
330
1E
100
AcDbEntity
  8
0
100
AcDbLine
 10
2.99015748031496
 20
3.166338582677165
 30
0.0
 11
2.99015748031496
 21
3.483267716535432
 31
0.0
  0
LWPOLYLINE
  5
7B6
330
1E
100
AcDbEntity
  8
0
100
AcDbPolyline
 90
        3
 70
     0
 43
0.0
 10
2.99015748031496
 20
3.166338582677165
 10
2.993110236220472
 20
3.166338582677165
 10
3.000984251968503
 20
3.166338582677165
  0
LWPOLYLINE
  5
7BB
330
1E
100
AcDbEntity
  8
0
100
AcDbPolyline
 90
        3
 70
     0
 43
0.0
 10
3.171259842519685
 20
3.230314960629921
 10
3.187992125984251
 20
3.230314960629921
 10
3.202755905511811
 20
3.230314960629921
  0
LINE
  5
7C0
330
1E
100
AcDbEntity
  8
0
100
AcDbLine
 10
3.205708661417322
 20
3.230314960629921
 30
0.0
 11
3.202755905511811
 21
3.230314960629921
 31
0.0
  0
LINE
  5
7C1
330
1E
100
AcDbEntity
  8
0
100
AcDbLine
 10
3.215551181102362
 20
3.230314960629921
 30
0.0
 11
3.215551181102362
 21
3.419291338582677
 31
0.0
  0
LINE
  5
7C2
330
1E
100
AcDbEntity
  8
0
100
AcDbLine
 10
3.205708661417322
 20
3.230314960629921
 30
0.0
 11
3.215551181102362
 21
3.230314960629921
 31
0.0
  0
LINE
  5
7C3
330
1E
100
AcDbEntity
  8
0
100
AcDbLine
 10
3.21259842519685
 20
3.418307086614173
 30
0.0
 11
3.21259842519685
 21
3.344488188976377
 31
0.0
  0
LINE
  5
7C4
330
1E
100
AcDbEntity
  8
0
100
AcDbLine
 10
3.21259842519685
 20
3.344488188976377
 30
0.0
 11
3.21259842519685
 21
3.30511811023622
 31
0.0
  0
LINE
  5
7C5
330
1E
100
AcDbEntity
  8
0
100
AcDbLine
 10
3.21259842519685
 20
3.231299212598425
 30
0.0
 11
3.21259842519685
 21
3.30511811023622
 31
0.0
  0
LINE
  5
7C6
330
1E
100
AcDbEntity
  8
0
100
AcDbLine
 10
3.21259842519685
 20
3.231299212598425
 30
0.0
 11
3.215551181102362
 21
3.230314960629921
 31
0.0
  0
LINE
  5
7C7
330
1E
100
AcDbEntity
  8
0
100
AcDbLine
 10
3.160433070866141
 20
3.361220472440944
 30
0.0
 11
3.159448818897637
 21
3.361220472440944
 31
0.0
  0
LINE
  5
7C8
330
1E
100
AcDbEntity
  8
0
100
AcDbLine
 10
3.160433070866141
 20
3.361220472440944
 30
0.0
 11
3.206692913385826
 21
3.354330708661417
 31
0.0
  0
LWPOLYLINE
  5
7C9
330
1E
100
AcDbEntity
  8
0
100
AcDbPolyline
 90
        3
 70
     0
 43
0.0
 10
3.21259842519685
 20
3.344488188976377
 10
3.210629921259842
 20
3.351377952755905
 10
3.206692913385826
 20
3.354330708661417
  0
LINE
  5
7CE
330
1E
100
AcDbEntity
  8
0
100
AcDbLine
 10
3.154527559055118
 20
3.230314960629921
 30
0.0
 11
3.171259842519685
 21
3.230314960629921
 31
0.0
  0
LWPOLYLINE
  5
7CF
330
1E
100
AcDbEntity
  8
0
100
AcDbPolyline
 90
        3
 70
     0
 43
0.0
 10
3.143700787401574
 20
3.230314960629921
 10
3.14763779527559
 20
3.230314960629921
 10
3.154527559055118
 20
3.230314960629921
  0
LINE
  5
7D4
330
1E
100
AcDbEntity
  8
0
100
AcDbLine
 10
4.079724409448818
 20
3.000984251968503
 30
0.0
 11
4.108267716535433
 21
3.000984251968503
 31
0.0
  0
LINE
  5
7D5
330
1E
100
AcDbEntity
  8
0
100
AcDbLine
 10
4.108267716535433
 20
3.649606299212598
 30
0.0
 11
4.108267716535433
 21
3.000984251968503
 31
0.0
  0
LINE
  5
7D6
330
1E
100
AcDbEntity
  8
0
100
AcDbLine
 10
2.911417322834645
 20
3.000984251968503
 30
0.0
 11
2.911417322834645
 21
3.649606299212598
 31
0.0
  0
LINE
  5
7D7
330
1E
100
AcDbEntity
  8
0
100
AcDbLine
 10
2.911417322834645
 20
3.000984251968503
 30
0.0
 11
2.939960629921259
 21
3.000984251968503
 31
0.0
  0
LINE
  5
7D8
330
1E
100
AcDbEntity
  8
0
100
AcDbLine
 10
3.84251968503937
 20
3.408464566929133
 30
0.0
 11
3.742125984251968
 21
3.408464566929133
 31
0.0
  0
LINE
  5
7D9
330
1E
100
AcDbEntity
  8
0
100
AcDbLine
 10
3.844488188976377
 20
3.408464566929133
 30
0.0
 11
3.84251968503937
 21
3.408464566929133
 31
0.0
  0
LWPOLYLINE
  5
7DA
330
1E
100
AcDbEntity
  8
0
100
AcDbPolyline
 90
        5
 70
     0
 43
0.0
 10
2.986220472440944
 20
2.926181102362204
 10
2.95767716535433
 20
2.931102362204724
 10
2.933070866141732
 20
2.947834645669291
 10
2.917322834645669
 20
2.972440944881889
 10
2.911417322834645
 20
3.000984251968503
  0
LWPOLYLINE
  5
7E1
330
1E
100
AcDbEntity
  8
0
100
AcDbPolyline
 90
        5
 70
     0
 43
0.0
 10
4.108267716535433
 20
3.000984251968503
 10
4.102362204724409
 20
2.972440944881889
 10
4.086614173228346
 20
2.947834645669291
 10
4.062007874015748
 20
2.931102362204724
 10
4.033464566929134
 20
2.926181102362204
  0
LINE
  5
7E8
330
1E
100
AcDbEntity
  8
0
100
AcDbLine
 10
4.033464566929134
 20
2.926181102362204
 30
0.0
 11
2.986220472440944
 21
2.926181102362204
 31
0.0
  0
LWPOLYLINE
  5
7E9
330
1E
100
AcDbEntity
  8
0
100
AcDbPolyline
 90
        6
 70
     0
 43
0.0
 10
2.641732283464566
 20
2.93503937007874
 10
2.649606299212598
 20
2.959645669291338
 10
2.648622047244094
 20
2.98523622047244
 10
2.639763779527558
 20
3.008858267716535
 10
2.623031496062992
 20
3.028543307086614
 10
2.601377952755905
 20
3.041338582677165
  0
LWPOLYLINE
  5
7F1
330
1E
100
AcDbEntity
  8
0
100
AcDbPolyline
 90
        6
 70
     0
 43
0.0
 10
2.641732283464566
 20
2.93503937007874
 10
2.68503937007874
 20
2.849409448818897
 10
2.736220472440944
 20
2.769685039370078
 10
2.796259842519685
 20
2.694881889763779
 10
2.863188976377952
 20
2.626968503937007
 10
2.936023622047244
 20
2.564960629921259
  0
LWPOLYLINE
  5
7F9
330
1E
100
AcDbEntity
  8
0
100
AcDbPolyline
 90
        6
 70
     0
 43
0.0
 10
3.031496062992125
 20
2.501968503937007
 10
3.023622047244094
 20
2.526574803149606
 10
3.007874015748031
 20
2.547244094488188
 10
2.987204724409448
 20
2.561023622047243
 10
2.961614173228346
 20
2.567913385826771
 10
2.936023622047244
 20
2.564960629921259
  0
LWPOLYLINE
  5
801
330
1E
100
AcDbEntity
  8
0
100
AcDbPolyline
 90
       12
 70
     0
 43
0.0
 10
3.031496062992125
 20
2.501968503937007
 10
3.112204724409448
 20
2.460629921259842
 10
3.196850393700787
 20
2.426181102362204
 10
3.284448818897637
 20
2.400590551181102
 10
3.373031496062992
 20
2.382874015748031
 10
3.464566929133858
 20
2.374015748031495
 10
3.55511811023622
 20
2.374015748031495
 10
3.645669291338582
 20
2.382874015748031
 10
3.73523622047244
 20
2.400590551181102
 10
3.822834645669291
 20
2.426181102362204
 10
3.907480314960629
 20
2.460629921259842
 10
3.988188976377952
 20
2.501968503937007
  0
LWPOLYLINE
  5
80F
330
1E
100
AcDbEntity
  8
0
100
AcDbPolyline
 90
        6
 70
     0
 43
0.0
 10
4.083661417322834
 20
2.564960629921259
 10
4.058070866141732
 20
2.567913385826771
 10
4.032480314960629
 20
2.561023622047243
 10
4.011811023622047
 20
2.547244094488188
 10
3.996062992125984
 20
2.526574803149606
 10
3.988188976377952
 20
2.501968503937007
  0
LWPOLYLINE
  5
817
330
1E
100
AcDbEntity
  8
0
100
AcDbPolyline
 90
        6
 70
     0
 43
0.0
 10
4.083661417322834
 20
2.564960629921259
 10
4.156496062992125
 20
2.626968503937007
 10
4.223425196850393
 20
2.694881889763779
 10
4.282480314960629
 20
2.769685039370078
 10
4.334645669291338
 20
2.849409448818897
 10
4.377952755905512
 20
2.93503937007874
  0
LWPOLYLINE
  5
81F
330
1E
100
AcDbEntity
  8
0
100
AcDbPolyline
 90
        6
 70
     0
 43
0.0
 10
4.418307086614173
 20
3.041338582677165
 10
4.396653543307086
 20
3.028543307086614
 10
4.379921259842519
 20
3.008858267716535
 10
4.371062992125984
 20
2.98523622047244
 10
4.37007874015748
 20
2.959645669291338
 10
4.377952755905512
 20
2.93503937007874
  0
LWPOLYLINE
  5
827
330
1E
100
AcDbEntity
  8
0
100
AcDbPolyline
 90
        4
 70
     0
 43
0.0
 10
3.418307086614173
 20
2.651574803149606
 10
3.410433070866141
 20
2.665354330708661
 10
3.39763779527559
 20
2.674212598425196
 10
3.381889763779527
 20
2.677165354330708
  0
LINE
  5
82D
330
1E
100
AcDbEntity
  8
0
100
AcDbLine
 10
3.418307086614173
 20
2.651574803149606
 30
0.0
 11
3.440944881889763
 21
2.651574803149606
 31
0.0
  0
LINE
  5
82E
330
1E
100
AcDbEntity
  8
0
100
AcDbLine
 10
3.440944881889763
 20
2.651574803149606
 30
0.0
 11
3.465551181102362
 21
2.595472440944881
 31
0.0
  0
LINE
  5
82F
330
1E
100
AcDbEntity
  8
0
100
AcDbLine
 10
3.465551181102362
 20
2.651574803149606
 30
0.0
 11
3.494094488188976
 21
2.651574803149606
 31
0.0
  0
LINE
  5
830
330
1E
100
AcDbEntity
  8
0
100
AcDbLine
 10
3.509842519685039
 20
2.62007874015748
 30
0.0
 11
3.494094488188976
 21
2.651574803149606
 31
0.0
  0
LINE
  5
831
330
1E
100
AcDbEntity
  8
0
100
AcDbLine
 10
3.509842519685039
 20
2.651574803149606
 30
0.0
 11
3.531496062992125
 21
2.651574803149606
 31
0.0
  0
LINE
  5
832
330
1E
100
AcDbEntity
  8
0
100
AcDbLine
 10
3.382874015748031
 20
2.565944881889763
 30
0.0
 11
3.398622047244094
 21
2.604330708661417
 31
0.0
  0
LINE
  5
833
330
1E
100
AcDbEntity
  8
0
100
AcDbLine
 10
3.304133858267716
 20
2.677165354330708
 30
0.0
 11
3.381889763779527
 21
2.677165354330708
 31
0.0
  0
LINE
  5
834
330
1E
100
AcDbEntity
  8
0
100
AcDbLine
 10
3.546259842519685
 20
2.651574803149606
 30
0.0
 11
3.594488188976377
 21
2.651574803149606
 31
0.0
  0
LWPOLYLINE
  5
835
330
1E
100
AcDbEntity
  8
0
100
AcDbPolyline
 90
        3
 70
     0
 43
0.0
 10
3.609251968503937
 20
2.635826771653543
 10
3.605314960629921
 20
2.646653543307086
 10
3.594488188976377
 20
2.651574803149606
  0
LINE
  5
83A
330
1E
100
AcDbEntity
  8
0
100
AcDbLine
 10
3.667322834645669
 20
2.651574803149606
 30
0.0
 11
3.68503937007874
 21
2.651574803149606
 31
0.0
  0
LINE
  5
83B
330
1E
100
AcDbEntity
  8
0
100
AcDbLine
 10
3.624015748031495
 20
2.651574803149606
 30
0.0
 11
3.65255905511811
 21
2.651574803149606
 31
0.0
  0
LINE
  5
83C
330
1E
100
AcDbEntity
  8
0
100
AcDbLine
 10
3.65255905511811
 20
2.589566929133858
 30
0.0
 11
3.656496062992125
 21
2.585629921259842
 31
0.0
  0
LINE
  5
83D
330
1E
100
AcDbEntity
  8
0
100
AcDbLine
 10
3.656496062992125
 20
2.585629921259842
 30
0.0
 11
3.663385826771653
 21
2.585629921259842
 31
0.0
  0
LINE
  5
83E
330
1E
100
AcDbEntity
  8
0
100
AcDbLine
 10
3.663385826771653
 20
2.585629921259842
 30
0.0
 11
3.667322834645669
 21
2.589566929133858
 31
0.0
  0
LINE
  5
83F
330
1E
100
AcDbEntity
  8
0
100
AcDbLine
 10
3.699803149606299
 20
2.651574803149606
 30
0.0
 11
3.722440944881889
 21
2.651574803149606
 31
0.0
  0
LINE
  5
840
330
1E
100
AcDbEntity
  8
0
100
AcDbLine
 10
3.738188976377952
 20
2.651574803149606
 30
0.0
 11
3.801181102362204
 21
2.651574803149606
 31
0.0
  0
LINE
  5
841
330
1E
100
AcDbEntity
  8
0
100
AcDbLine
 10
3.815944881889763
 20
3.405511811023622
 30
0.0
 11
3.841535433070866
 21
3.405511811023622
 31
0.0
  0
LINE
  5
842
330
1E
100
AcDbEntity
  8
0
100
AcDbLine
 10
3.815944881889763
 20
3.244094488188976
 30
0.0
 11
3.841535433070866
 21
3.244094488188976
 31
0.0
  0
LWPOLYLINE
  5
843
330
1E
100
AcDbEntity
  8
0
100
AcDbPolyline
 90
        3
 70
     0
 43
0.0
 10
3.855314960629921
 20
3.40255905511811
 10
3.862204724409448
 20
3.403543307086614
 10
3.874015748031495
 20
3.403543307086614
  0
LINE
  5
848
330
1E
100
AcDbEntity
  8
0
100
AcDbLine
 10
3.84251968503937
 20
3.408464566929133
 30
0.0
 11
3.841535433070866
 21
3.405511811023622
 31
0.0
  0
LWPOLYLINE
  5
849
330
1E
100
AcDbEntity
  8
0
100
AcDbPolyline
 90
        3
 70
     0
 43
0.0
 10
3.806102362204724
 20
3.405511811023622
 10
3.809055118110236
 20
3.405511811023622
 10
3.815944881889763
 20
3.405511811023622
  0
LINE
  5
84E
330
1E
100
AcDbEntity
  8
0
100
AcDbLine
 10
3.807086614173228
 20
3.40255905511811
 30
0.0
 11
3.806102362204724
 21
3.405511811023622
 31
0.0
  0
LWPOLYLINE
  5
84F
330
1E
100
AcDbEntity
  8
0
100
AcDbPolyline
 90
        3
 70
     0
 43
0.0
 10
3.816929133858267
 20
3.40255905511811
 10
3.81003937007874
 20
3.40255905511811
 10
3.807086614173228
 20
3.40255905511811
  0
LINE
  5
854
330
1E
100
AcDbEntity
  8
0
100
AcDbLine
 10
3.846456692913385
 20
3.40255905511811
 30
0.0
 11
3.816929133858267
 21
3.40255905511811
 31
0.0
  0
LINE
  5
855
330
1E
100
AcDbEntity
  8
0
100
AcDbLine
 10
3.855314960629921
 20
3.40255905511811
 30
0.0
 11
3.846456692913385
 21
3.40255905511811
 31
0.0
  0
LINE
  5
856
330
1E
100
AcDbEntity
  8
0
100
AcDbLine
 10
3.806102362204724
 20
3.405511811023622
 30
0.0
 11
3.806102362204724
 21
3.24507874015748
 31
0.0
  0
LWPOLYLINE
  5
857
330
1E
100
AcDbEntity
  8
0
100
AcDbPolyline
 90
        3
 70
     0
 43
0.0
 10
3.806102362204724
 20
3.24507874015748
 10
3.809055118110236
 20
3.244094488188976
 10
3.815944881889763
 20
3.244094488188976
  0
LINE
  5
85C
330
1E
100
AcDbEntity
  8
0
100
AcDbLine
 10
3.807086614173228
 20
3.247047244094487
 30
0.0
 11
3.807086614173228
 21
3.40255905511811
 31
0.0
  0
LINE
  5
85D
330
1E
100
AcDbEntity
  8
0
100
AcDbLine
 10
3.807086614173228
 20
3.247047244094487
 30
0.0
 11
3.806102362204724
 21
3.24507874015748
 31
0.0
  0
LINE
  5
85E
330
1E
100
AcDbEntity
  8
0
100
AcDbLine
 10
3.816929133858267
 20
3.40255905511811
 30
0.0
 11
3.816929133858267
 21
3.248031496062992
 31
0.0
  0
LWPOLYLINE
  5
85F
330
1E
100
AcDbEntity
  8
0
100
AcDbPolyline
 90
        3
 70
     0
 43
0.0
 10
3.816929133858267
 20
3.248031496062992
 10
3.81003937007874
 20
3.248031496062992
 10
3.807086614173228
 20
3.247047244094487
  0
LINE
  5
864
330
1E
100
AcDbEntity
  8
0
100
AcDbLine
 10
3.846456692913385
 20
3.248031496062992
 30
0.0
 11
3.846456692913385
 21
3.40255905511811
 31
0.0
  0
LINE
  5
865
330
1E
100
AcDbEntity
  8
0
100
AcDbLine
 10
3.846456692913385
 20
3.248031496062992
 30
0.0
 11
3.816929133858267
 21
3.248031496062992
 31
0.0
  0
LINE
  5
866
330
1E
100
AcDbEntity
  8
0
100
AcDbLine
 10
3.855314960629921
 20
3.247047244094487
 30
0.0
 11
3.855314960629921
 21
3.40255905511811
 31
0.0
  0
LINE
  5
867
330
1E
100
AcDbEntity
  8
0
100
AcDbLine
 10
3.855314960629921
 20
3.247047244094487
 30
0.0
 11
3.846456692913385
 21
3.248031496062992
 31
0.0
  0
LINE
  5
868
330
1E
100
AcDbEntity
  8
0
100
AcDbLine
 10
3.84251968503937
 20
3.241141732283464
 30
0.0
 11
3.841535433070866
 21
3.244094488188976
 31
0.0
  0
LWPOLYLINE
  5
869
330
1E
100
AcDbEntity
  8
0
100
AcDbPolyline
 90
        3
 70
     0
 43
0.0
 10
3.855314960629921
 20
3.247047244094487
 10
3.862204724409448
 20
3.247047244094487
 10
3.874015748031495
 20
3.246062992125984
  0
LINE
  5
86E
330
1E
100
AcDbEntity
  8
0
100
AcDbLine
 10
3.844488188976377
 20
3.241141732283464
 30
0.0
 11
3.84251968503937
 21
3.241141732283464
 31
0.0
  0
LINE
  5
86F
330
1E
100
AcDbEntity
  8
0
100
AcDbLine
 10
3.845472440944881
 20
3.246062992125984
 30
0.0
 11
3.844488188976377
 21
3.241141732283464
 31
0.0
  0
LINE
  5
870
330
1E
100
AcDbEntity
  8
0
100
AcDbLine
 10
3.844488188976377
 20
3.016732283464566
 30
0.0
 11
3.844488188976377
 21
3.241141732283464
 31
0.0
  0
LINE
  5
871
330
1E
100
AcDbEntity
  8
0
100
AcDbLine
 10
3.84251968503937
 20
3.241141732283464
 30
0.0
 11
3.742125984251968
 21
3.241141732283464
 31
0.0
  0
LWPOLYLINE
  5
872
330
1E
100
AcDbEntity
  8
0
100
AcDbPolyline
 90
        6
 70
     0
 43
0.0
 10
3.742125984251968
 20
3.241141732283464
 10
3.74015748031496
 20
3.241141732283464
 10
3.736220472440944
 20
3.24015748031496
 10
3.734251968503937
 20
3.238188976377952
 10
3.730314960629921
 20
3.23523622047244
 10
3.729330708661417
 20
3.232283464566929
  0
LWPOLYLINE
  5
87A
330
1E
100
AcDbEntity
  8
0
100
AcDbPolyline
 90
        6
 70
     0
 43
0.0
 10
3.729330708661417
 20
3.232283464566929
 10
3.706692913385826
 20
3.190944881889763
 10
3.6751968503937
 20
3.156496062992125
 10
3.636811023622047
 20
3.129921259842519
 10
3.593503937007874
 20
3.113188976377952
 10
3.546259842519685
 20
3.108267716535432
  0
LINE
  5
882
330
1E
100
AcDbEntity
  8
0
100
AcDbLine
 10
3.546259842519685
 20
3.108267716535432
 30
0.0
 11
3.416338582677165
 21
3.108267716535432
 31
0.0
  0
LWPOLYLINE
  5
883
330
1E
100
AcDbEntity
  8
0
100
AcDbPolyline
 90
        6
 70
     0
 43
0.0
 10
3.242125984251968
 20
3.214566929133858
 10
3.265748031496062
 20
3.178149606299212
 10
3.296259842519685
 20
3.148622047244094
 10
3.33267716535433
 20
3.126968503937007
 10
3.374015748031495
 20
3.112204724409448
 10
3.416338582677165
 20
3.108267716535432
  0
LWPOLYLINE
  5
88B
330
1E
100
AcDbEntity
  8
0
100
AcDbPolyline
 90
        6
 70
     0
 43
0.0
 10
3.242125984251968
 20
3.214566929133858
 10
3.241141732283464
 20
3.215551181102362
 10
3.237204724409448
 20
3.219488188976377
 10
3.236220472440944
 20
3.220472440944881
 10
3.231299212598425
 20
3.221456692913385
 10
3.229330708661417
 20
3.221456692913385
  0
LINE
  5
893
330
1E
100
AcDbEntity
  8
0
100
AcDbLine
 10
3.117125984251968
 20
3.221456692913385
 30
0.0
 11
3.229330708661417
 21
3.221456692913385
 31
0.0
  0
LINE
  5
894
330
1E
100
AcDbEntity
  8
0
100
AcDbLine
 10
3.117125984251968
 20
3.221456692913385
 30
0.0
 11
3.113188976377952
 21
3.221456692913385
 31
0.0
  0
LINE
  5
895
330
1E
100
AcDbEntity
  8
0
100
AcDbLine
 10
3.113188976377952
 20
3.221456692913385
 30
0.0
 11
3.113188976377952
 21
3.167322834645669
 31
0.0
  0
LINE
  5
896
330
1E
100
AcDbEntity
  8
0
100
AcDbLine
 10
3.119094488188976
 20
3.167322834645669
 30
0.0
 11
3.113188976377952
 21
3.167322834645669
 31
0.0
  0
LINE
  5
897
330
1E
100
AcDbEntity
  8
0
100
AcDbLine
 10
3.119094488188976
 20
3.127952755905511
 30
0.0
 11
3.119094488188976
 21
3.167322834645669
 31
0.0
  0
LINE
  5
898
330
1E
100
AcDbEntity
  8
0
100
AcDbLine
 10
3.119094488188976
 20
3.127952755905511
 30
0.0
 11
3.113188976377952
 21
3.127952755905511
 31
0.0
  0
LINE
  5
899
330
1E
100
AcDbEntity
  8
0
100
AcDbLine
 10
3.113188976377952
 20
3.127952755905511
 30
0.0
 11
3.113188976377952
 21
3.089566929133858
 31
0.0
  0
LWPOLYLINE
  5
89A
330
1E
100
AcDbEntity
  8
0
100
AcDbPolyline
 90
        3
 70
     0
 43
0.0
 10
3.113188976377952
 20
3.089566929133858
 10
3.116141732283464
 20
3.08267716535433
 10
3.123031496062992
 20
3.079724409448818
  0
LINE
  5
89F
330
1E
100
AcDbEntity
  8
0
100
AcDbLine
 10
3.173228346456693
 20
3.079724409448818
 30
0.0
 11
3.123031496062992
 21
3.079724409448818
 31
0.0
  0
LWPOLYLINE
  5
8A0
330
1E
100
AcDbEntity
  8
0
100
AcDbPolyline
 90
        3
 70
     0
 43
0.0
 10
3.173228346456693
 20
3.079724409448818
 10
3.181102362204724
 20
3.076771653543306
 10
3.184055118110236
 20
3.069881889763779
  0
LINE
  5
8A5
330
1E
100
AcDbEntity
  8
0
100
AcDbLine
 10
3.184055118110236
 20
3.016732283464566
 30
0.0
 11
3.184055118110236
 21
3.069881889763779
 31
0.0
  0
LWPOLYLINE
  5
8A6
330
1E
100
AcDbEntity
  8
0
100
AcDbPolyline
 90
        3
 70
     0
 43
0.0
 10
3.184055118110236
 20
3.016732283464566
 10
3.187007874015748
 20
3.009842519685039
 10
3.193897637795275
 20
3.006889763779527
  0
LINE
  5
8AB
330
1E
100
AcDbEntity
  8
0
100
AcDbLine
 10
3.833661417322834
 20
3.006889763779527
 30
0.0
 11
3.193897637795275
 21
3.006889763779527
 31
0.0
  0
LWPOLYLINE
  5
8AC
330
1E
100
AcDbEntity
  8
0
100
AcDbPolyline
 90
        3
 70
     0
 43
0.0
 10
3.833661417322834
 20
3.006889763779527
 10
3.841535433070866
 20
3.009842519685039
 10
3.844488188976377
 20
3.016732283464566
  0
LINE
  5
8B1
330
1E
100
AcDbEntity
  8
0
100
AcDbLine
 10
3.844488188976377
 20
3.016732283464566
 30
0.0
 11
3.845472440944881
 21
3.014763779527558
 31
0.0
  0
LWPOLYLINE
  5
8B2
330
1E
100
AcDbEntity
  8
0
100
AcDbPolyline
 90
        3
 70
     0
 43
0.0
 10
3.21259842519685
 20
3.30511811023622
 10
3.210629921259842
 20
3.298228346456693
 10
3.206692913385826
 20
3.295275590551181
  0
LINE
  5
8B7
330
1E
100
AcDbEntity
  8
0
100
AcDbLine
 10
3.160433070866141
 20
3.288385826771653
 30
0.0
 11
3.206692913385826
 21
3.295275590551181
 31
0.0
  0
LINE
  5
8B8
330
1E
100
AcDbEntity
  8
0
100
AcDbLine
 10
3.160433070866141
 20
3.288385826771653
 30
0.0
 11
3.159448818897637
 21
3.288385826771653
 31
0.0
  0
LINE
  5
8B9
330
1E
100
AcDbEntity
  8
0
100
AcDbLine
 10
3.159448818897637
 20
3.288385826771653
 30
0.0
 11
3.159448818897637
 21
3.233267716535432
 31
0.0
  0
LINE
  5
8BA
330
1E
100
AcDbEntity
  8
0
100
AcDbLine
 10
3.159448818897637
 20
3.233267716535432
 30
0.0
 11
3.21259842519685
 21
3.231299212598425
 31
0.0
  0
LINE
  5
8BB
330
1E
100
AcDbEntity
  8
0
100
AcDbLine
 10
3.044291338582677
 20
3.280511811023622
 30
0.0
 11
3.044291338582677
 21
3.24015748031496
 31
0.0
  0
LINE
  5
8BC
330
1E
100
AcDbEntity
  8
0
100
AcDbLine
 10
3.036417322834645
 20
3.287401574803149
 30
0.0
 11
3.044291338582677
 21
3.280511811023622
 31
0.0
  0
LINE
  5
8BD
330
1E
100
AcDbEntity
  8
0
100
AcDbLine
 10
3.044291338582677
 20
3.24015748031496
 30
0.0
 11
3.036417322834645
 21
3.232283464566929
 31
0.0
  0
LINE
  5
8BE
330
1E
100
AcDbEntity
  8
0
100
AcDbLine
 10
3.06003937007874
 20
3.279527559055118
 30
0.0
 11
3.054133858267716
 21
3.279527559055118
 31
0.0
  0
LINE
  5
8BF
330
1E
100
AcDbEntity
  8
0
100
AcDbLine
 10
3.054133858267716
 20
3.279527559055118
 30
0.0
 11
3.054133858267716
 21
3.24015748031496
 31
0.0
  0
LINE
  5
8C0
330
1E
100
AcDbEntity
  8
0
100
AcDbLine
 10
3.054133858267716
 20
3.24015748031496
 30
0.0
 11
3.06003937007874
 21
3.24015748031496
 31
0.0
  0
LWPOLYLINE
  5
8C1
330
1E
100
AcDbEntity
  8
0
100
AcDbPolyline
 90
        3
 70
     0
 43
0.0
 10
3.044291338582677
 20
3.280511811023622
 10
3.047244094488188
 20
3.280511811023622
 10
3.054133858267716
 20
3.279527559055118
  0
LWPOLYLINE
  5
8C6
330
1E
100
AcDbEntity
  8
0
100
AcDbPolyline
 90
        3
 70
     0
 43
0.0
 10
3.054133858267716
 20
3.24015748031496
 10
3.047244094488188
 20
3.24015748031496
 10
3.044291338582677
 20
3.24015748031496
  0
LWPOLYLINE
  5
8CB
330
1E
100
AcDbEntity
  8
0
100
AcDbPolyline
 90
        3
 70
     0
 43
0.0
 10
3.159448818897637
 20
3.288385826771653
 10
3.151574803149606
 20
3.289370078740157
 10
3.146653543307086
 20
3.294291338582677
  0
LWPOLYLINE
  5
8D0
330
1E
100
AcDbEntity
  8
0
100
AcDbPolyline
 90
        3
 70
     0
 43
0.0
 10
3.159448818897637
 20
3.233267716535432
 10
3.150590551181102
 20
3.233267716535432
 10
3.146653543307086
 20
3.233267716535432
  0
LWPOLYLINE
  5
8D5
330
1E
100
AcDbEntity
  8
0
100
AcDbPolyline
 90
        6
 70
     0
 43
0.0
 10
2.96259842519685
 20
2.445866141732283
 10
2.966535433070866
 20
2.446850393700787
 10
2.974409448818897
 20
2.448818897637795
 10
2.980314960629921
 20
2.451771653543306
 10
2.984251968503937
 20
2.453740157480314
 10
2.986220472440944
 20
2.454724409448818
  0
LWPOLYLINE
  5
8DD
330
1E
100
AcDbEntity
  8
0
100
AcDbPolyline
 90
        6
 70
     0
 43
0.0
 10
4.033464566929134
 20
2.454724409448818
 10
4.034448818897637
 20
2.454724409448818
 10
4.037401574803149
 20
2.452755905511811
 10
4.042322834645669
 20
2.449803149606299
 10
4.048228346456692
 20
2.447834645669291
 10
4.057086614173228
 20
2.445866141732283
  0
LWPOLYLINE
  5
8E5
330
1E
100
AcDbEntity
  8
0
100
AcDbPolyline
 90
       13
 70
     0
 43
0.0
 10
2.986220472440944
 20
2.454724409448818
 10
3.066929133858267
 20
2.411417322834645
 10
3.150590551181102
 20
2.375
 10
3.238188976377952
 20
2.346456692913385
 10
3.327755905511811
 20
2.325787401574803
 10
3.418307086614173
 20
2.313976377952756
 10
3.509842519685039
 20
2.31003937007874
 10
3.601377952755905
 20
2.313976377952756
 10
3.691929133858267
 20
2.325787401574803
 10
3.781496062992125
 20
2.346456692913385
 10
3.869094488188976
 20
2.375
 10
3.952755905511811
 20
2.411417322834645
 10
4.033464566929134
 20
2.454724409448818
  0
LWPOLYLINE
  5
8F4
330
1E
100
AcDbEntity
  8
0
100
AcDbPolyline
 90
        6
 70
     0
 43
0.0
 10
2.910433070866141
 20
2.505905511811023
 10
2.910433070866141
 20
2.503937007874015
 10
2.909448818897637
 20
2.500984251968503
 10
2.909448818897637
 20
2.49507874015748
 10
2.909448818897637
 20
2.489173228346456
 10
2.910433070866141
 20
2.480314960629921
  0
LWPOLYLINE
  5
8FC
330
1E
100
AcDbEntity
  8
0
100
AcDbPolyline
 90
        6
 70
     0
 43
0.0
 10
2.577755905511811
 20
2.923228346456692
 10
2.625
 20
2.825787401574803
 10
2.683070866141732
 20
2.73523622047244
 10
2.750984251968503
 20
2.650590551181102
 10
2.826771653543307
 20
2.573818897637795
 10
2.910433070866141
 20
2.505905511811023
  0
LWPOLYLINE
  5
904
330
1E
100
AcDbEntity
  8
0
100
AcDbPolyline
 90
        6
 70
     0
 43
0.0
 10
2.553149606299212
 20
2.929133858267716
 10
2.556102362204724
 20
2.927165354330708
 10
2.563976377952756
 20
2.9251968503937
 10
2.569881889763779
 20
2.923228346456692
 10
2.574803149606299
 20
2.923228346456692
 10
2.577755905511811
 20
2.923228346456692
  0
LWPOLYLINE
  5
90C
330
1E
100
AcDbEntity
  8
0
100
AcDbPolyline
 90
        3
 70
     0
 43
0.0
 10
2.613188976377952
 20
2.907480314960629
 10
2.603346456692913
 20
2.910433070866141
 10
2.577755905511811
 20
2.923228346456692
  0
LWPOLYLINE
  5
911
330
1E
100
AcDbEntity
  8
0
100
AcDbPolyline
 90
        4
 70
     0
 43
0.0
 10
2.910433070866141
 20
2.505905511811023
 10
2.907480314960629
 20
2.51279527559055
 10
2.903543307086614
 20
2.540354330708661
 10
2.90255905511811
 20
2.543307086614173
  0
LWPOLYLINE
  5
917
330
1E
100
AcDbEntity
  8
0
100
AcDbPolyline
 90
        6
 70
     0
 43
0.0
 10
2.90255905511811
 20
2.543307086614173
 10
2.831692913385826
 20
2.604330708661417
 10
2.766732283464566
 20
2.672244094488188
 10
2.70767716535433
 20
2.746062992125984
 10
2.656496062992125
 20
2.823818897637795
 10
2.613188976377952
 20
2.907480314960629
  0
LWPOLYLINE
  5
91F
330
1E
100
AcDbEntity
  8
0
100
AcDbPolyline
 90
        3
 70
     0
 43
0.0
 10
3.023622047244094
 20
2.463582677165354
 10
3.014763779527558
 20
2.460629921259842
 10
2.986220472440944
 20
2.454724409448818
  0
LWPOLYLINE
  5
924
330
1E
100
AcDbEntity
  8
0
100
AcDbPolyline
 90
        4
 70
     0
 43
0.0
 10
4.033464566929134
 20
2.454724409448818
 10
4.025590551181101
 20
2.455708661417322
 10
3.998031496062992
 20
2.46259842519685
 10
3.996062992125984
 20
2.463582677165354
  0
LWPOLYLINE
  5
92A
330
1E
100
AcDbEntity
  8
0
100
AcDbPolyline
 90
       12
 70
     0
 43
0.0
 10
3.996062992125984
 20
2.463582677165354
 10
3.913385826771653
 20
2.421259842519685
 10
3.827755905511811
 20
2.38779527559055
 10
3.738188976377952
 20
2.362204724409448
 10
3.64763779527559
 20
2.345472440944881
 10
3.556102362204724
 20
2.336614173228346
 10
3.463582677165354
 20
2.336614173228346
 10
3.372047244094487
 20
2.345472440944881
 10
3.281496062992125
 20
2.362204724409448
 10
3.191929133858267
 20
2.38779527559055
 10
3.106299212598425
 20
2.421259842519685
 10
3.023622047244094
 20
2.463582677165354
  0
LWPOLYLINE
  5
938
330
1E
100
AcDbEntity
  8
0
100
AcDbPolyline
 90
        6
 70
     0
 43
0.0
 10
4.441929133858267
 20
2.923228346456692
 10
4.443897637795275
 20
2.923228346456692
 10
4.446850393700787
 20
2.923228346456692
 10
4.452755905511811
 20
2.924212598425196
 10
4.458661417322834
 20
2.926181102362204
 10
4.466535433070865
 20
2.929133858267716
  0
LWPOLYLINE
  5
940
330
1E
100
AcDbEntity
  8
0
100
AcDbPolyline
 90
        6
 70
     0
 43
0.0
 10
4.109251968503937
 20
2.505905511811023
 10
4.192913385826771
 20
2.573818897637795
 10
4.268700787401574
 20
2.650590551181102
 10
4.336614173228346
 20
2.73523622047244
 10
4.393700787401574
 20
2.825787401574803
 10
4.441929133858267
 20
2.923228346456692
  0
LWPOLYLINE
  5
948
330
1E
100
AcDbEntity
  8
0
100
AcDbPolyline
 90
        7
 70
     0
 43
0.0
 10
4.109251968503937
 20
2.480314960629921
 10
4.109251968503937
 20
2.484251968503937
 10
4.11023622047244
 20
2.492125984251968
 10
4.11023622047244
 20
2.498031496062992
 10
4.109251968503937
 20
2.502952755905511
 10
4.109251968503937
 20
2.504921259842519
 10
4.109251968503937
 20
2.505905511811023
  0
LWPOLYLINE
  5
951
330
1E
100
AcDbEntity
  8
0
100
AcDbPolyline
 90
        3
 70
     0
 43
0.0
 10
4.116141732283464
 20
2.543307086614173
 10
4.11515748031496
 20
2.533464566929133
 10
4.109251968503937
 20
2.505905511811023
  0
LWPOLYLINE
  5
956
330
1E
100
AcDbEntity
  8
0
100
AcDbPolyline
 90
        4
 70
     0
 43
0.0
 10
4.441929133858267
 20
2.923228346456692
 10
4.435039370078739
 20
2.919291338582677
 10
4.409448818897637
 20
2.908464566929133
 10
4.406496062992125
 20
2.907480314960629
  0
LWPOLYLINE
  5
95C
330
1E
100
AcDbEntity
  8
0
100
AcDbPolyline
 90
        6
 70
     0
 43
0.0
 10
4.406496062992125
 20
2.907480314960629
 10
4.363188976377952
 20
2.823818897637795
 10
4.312007874015748
 20
2.746062992125984
 10
4.252952755905512
 20
2.672244094488188
 10
4.187992125984251
 20
2.604330708661417
 10
4.116141732283464
 20
2.543307086614173
  0
LWPOLYLINE
  5
964
330
1E
100
AcDbEntity
  8
0
100
AcDbPolyline
 90
        6
 70
     0
 43
0.0
 10
2.90255905511811
 20
2.543307086614173
 10
2.904527559055118
 20
2.546259842519685
 10
2.908464566929133
 20
2.5501968503937
 10
2.916338582677165
 20
2.556102362204724
 10
2.9251968503937
 20
2.561023622047243
 10
2.936023622047244
 20
2.564960629921259
  0
LWPOLYLINE
  5
96C
330
1E
100
AcDbEntity
  8
0
100
AcDbPolyline
 90
        6
 70
     0
 43
0.0
 10
2.641732283464566
 20
2.93503937007874
 10
2.635826771653543
 20
2.9251968503937
 10
2.626968503937007
 20
2.916338582677165
 10
2.62007874015748
 20
2.910433070866141
 10
2.61515748031496
 20
2.908464566929133
 10
2.613188976377952
 20
2.907480314960629
  0
LWPOLYLINE
  5
974
330
1E
100
AcDbEntity
  8
0
100
AcDbPolyline
 90
        6
 70
     0
 43
0.0
 10
3.031496062992125
 20
2.501968503937007
 10
3.031496062992125
 20
2.491141732283464
 10
3.030511811023622
 20
2.478346456692913
 10
3.02755905511811
 20
2.470472440944881
 10
3.025590551181102
 20
2.464566929133858
 10
3.023622047244094
 20
2.463582677165354
  0
LWPOLYLINE
  5
97C
330
1E
100
AcDbEntity
  8
0
100
AcDbPolyline
 90
        6
 70
     0
 43
0.0
 10
3.996062992125984
 20
2.463582677165354
 10
3.994094488188976
 20
2.465551181102362
 10
3.991141732283464
 20
2.471456692913385
 10
3.989173228346456
 20
2.480314960629921
 10
3.988188976377952
 20
2.491141732283464
 10
3.988188976377952
 20
2.501968503937007
  0
LWPOLYLINE
  5
984
330
1E
100
AcDbEntity
  8
0
100
AcDbPolyline
 90
        6
 70
     0
 43
0.0
 10
4.406496062992125
 20
2.907480314960629
 10
4.404527559055117
 20
2.908464566929133
 10
4.398622047244094
 20
2.911417322834645
 10
4.391732283464566
 20
2.917322834645669
 10
4.383858267716535
 20
2.9251968503937
 10
4.377952755905512
 20
2.93503937007874
  0
LWPOLYLINE
  5
98C
330
1E
100
AcDbEntity
  8
0
100
AcDbPolyline
 90
        6
 70
     0
 43
0.0
 10
4.083661417322834
 20
2.564960629921259
 10
4.093503937007874
 20
2.562007874015748
 10
4.105314960629921
 20
2.55511811023622
 10
4.111220472440944
 20
2.549212598425196
 10
4.11515748031496
 20
2.545275590551181
 10
4.116141732283464
 20
2.543307086614173
  0
LINE
  5
994
330
1E
100
AcDbEntity
  8
0
100
AcDbLine
 10
3.584645669291338
 20
2.628937007874015
 30
0.0
 11
3.584645669291338
 21
2.589566929133858
 31
0.0
  0
LINE
  5
995
330
1E
100
AcDbEntity
  8
0
100
AcDbLine
 10
3.579724409448818
 20
2.585629921259842
 30
0.0
 11
3.584645669291338
 21
2.589566929133858
 31
0.0
  0
LINE
  5
996
330
1E
100
AcDbEntity
  8
0
100
AcDbLine
 10
3.579724409448818
 20
2.585629921259842
 30
0.0
 11
3.579724409448818
 21
2.585629921259842
 31
0.0
  0
LWPOLYLINE
  5
997
330
1E
100
AcDbEntity
  8
0
100
AcDbPolyline
 90
        3
 70
     0
 43
0.0
 10
3.579724409448818
 20
2.585629921259842
 10
3.583661417322834
 20
2.586614173228346
 10
3.584645669291338
 20
2.589566929133858
  0
LINE
  5
99C
330
1E
100
AcDbEntity
  8
0
100
AcDbLine
 10
3.571850393700787
 20
2.585629921259842
 30
0.0
 11
3.579724409448818
 21
2.585629921259842
 31
0.0
  0
LINE
  5
99D
330
1E
100
AcDbEntity
  8
0
100
AcDbLine
 10
3.571850393700787
 20
2.585629921259842
 30
0.0
 11
3.579724409448818
 21
2.585629921259842
 31
0.0
  0
LINE
  5
99E
330
1E
100
AcDbEntity
  8
0
100
AcDbLine
 10
3.571850393700787
 20
2.585629921259842
 30
0.0
 11
3.571850393700787
 21
2.633858267716535
 31
0.0
  0
LINE
  5
99F
330
1E
100
AcDbEntity
  8
0
100
AcDbLine
 10
3.571850393700787
 20
2.633858267716535
 30
0.0
 11
3.579724409448818
 21
2.633858267716535
 31
0.0
  0
LWPOLYLINE
  5
9A0
330
1E
100
AcDbEntity
  8
0
100
AcDbPolyline
 90
        3
 70
     0
 43
0.0
 10
3.584645669291338
 20
2.628937007874015
 10
3.583661417322834
 20
2.631889763779527
 10
3.579724409448818
 20
2.633858267716535
  0
LINE
  5
9A5
330
1E
100
AcDbEntity
  8
0
100
AcDbLine
 10
3.546259842519685
 20
2.651574803149606
 30
0.0
 11
3.546259842519685
 21
2.651574803149606
 31
0.0
  0
LINE
  5
9A6
330
1E
100
AcDbEntity
  8
0
100
AcDbLine
 10
3.546259842519685
 20
2.651574803149606
 30
0.0
 11
3.594488188976377
 21
2.651574803149606
 31
0.0
  0
LINE
  5
9A7
330
1E
100
AcDbEntity
  8
0
100
AcDbLine
 10
3.594488188976377
 20
2.651574803149606
 30
0.0
 11
3.594488188976377
 21
2.651574803149606
 31
0.0
  0
LINE
  5
9A8
330
1E
100
AcDbEntity
  8
0
100
AcDbLine
 10
3.546259842519685
 20
2.565944881889763
 30
0.0
 11
3.546259842519685
 21
2.651574803149606
 31
0.0
  0
LINE
  5
9A9
330
1E
100
AcDbEntity
  8
0
100
AcDbLine
 10
3.594488188976377
 20
2.565944881889763
 30
0.0
 11
3.546259842519685
 21
2.565944881889763
 31
0.0
  0
LWPOLYLINE
  5
9AA
330
1E
100
AcDbEntity
  8
0
100
AcDbPolyline
 90
        3
 70
     0
 43
0.0
 10
3.594488188976377
 20
2.565944881889763
 10
3.605314960629921
 20
2.569881889763779
 10
3.609251968503937
 20
2.580708661417322
  0
LINE
  5
9AF
330
1E
100
AcDbEntity
  8
0
100
AcDbLine
 10
3.609251968503937
 20
2.635826771653543
 30
0.0
 11
3.609251968503937
 21
2.580708661417322
 31
0.0
  0
LWPOLYLINE
  5
9B0
330
1E
100
AcDbEntity
  8
0
100
AcDbPolyline
 90
        3
 70
     0
 43
0.0
 10
3.609251968503937
 20
2.635826771653543
 10
3.605314960629921
 20
2.646653543307086
 10
3.594488188976377
 20
2.651574803149606
  0
LINE
  5
9B5
330
1E
100
AcDbEntity
  8
0
100
AcDbLine
 10
3.68503937007874
 20
2.651574803149606
 30
0.0
 11
3.68503937007874
 21
2.651574803149606
 31
0.0
  0
LINE
  5
9B6
330
1E
100
AcDbEntity
  8
0
100
AcDbLine
 10
3.68503937007874
 20
2.651574803149606
 30
0.0
 11
3.68503937007874
 21
2.580708661417322
 31
0.0
  0
LINE
  5
9B7
330
1E
100
AcDbEntity
  8
0
100
AcDbLine
 10
3.667322834645669
 20
2.651574803149606
 30
0.0
 11
3.667322834645669
 21
2.651574803149606
 31
0.0
  0
LINE
  5
9B8
330
1E
100
AcDbEntity
  8
0
100
AcDbLine
 10
3.667322834645669
 20
2.651574803149606
 30
0.0
 11
3.68503937007874
 21
2.651574803149606
 31
0.0
  0
LINE
  5
9B9
330
1E
100
AcDbEntity
  8
0
100
AcDbLine
 10
3.667322834645669
 20
2.589566929133858
 30
0.0
 11
3.667322834645669
 21
2.651574803149606
 31
0.0
  0
LINE
  5
9BA
330
1E
100
AcDbEntity
  8
0
100
AcDbLine
 10
3.663385826771653
 20
2.585629921259842
 30
0.0
 11
3.663385826771653
 21
2.585629921259842
 31
0.0
  0
LWPOLYLINE
  5
9BB
330
1E
100
AcDbEntity
  8
0
100
AcDbPolyline
 90
        3
 70
     0
 43
0.0
 10
3.663385826771653
 20
2.585629921259842
 10
3.666338582677165
 20
2.586614173228346
 10
3.667322834645669
 20
2.589566929133858
  0
LINE
  5
9C0
330
1E
100
AcDbEntity
  8
0
100
AcDbLine
 10
3.656496062992125
 20
2.585629921259842
 30
0.0
 11
3.656496062992125
 21
2.585629921259842
 31
0.0
  0
LINE
  5
9C1
330
1E
100
AcDbEntity
  8
0
100
AcDbLine
 10
3.656496062992125
 20
2.585629921259842
 30
0.0
 11
3.663385826771653
 21
2.585629921259842
 31
0.0
  0
LWPOLYLINE
  5
9C2
330
1E
100
AcDbEntity
  8
0
100
AcDbPolyline
 90
        3
 70
     0
 43
0.0
 10
3.65255905511811
 20
2.589566929133858
 10
3.653543307086613
 20
2.586614173228346
 10
3.656496062992125
 20
2.585629921259842
  0
LINE
  5
9C7
330
1E
100
AcDbEntity
  8
0
100
AcDbLine
 10
3.65255905511811
 20
2.651574803149606
 30
0.0
 11
3.65255905511811
 21
2.651574803149606
 31
0.0
  0
LINE
  5
9C8
330
1E
100
AcDbEntity
  8
0
100
AcDbLine
 10
3.65255905511811
 20
2.651574803149606
 30
0.0
 11
3.65255905511811
 21
2.589566929133858
 31
0.0
  0
LINE
  5
9C9
330
1E
100
AcDbEntity
  8
0
100
AcDbLine
 10
3.624015748031495
 20
2.651574803149606
 30
0.0
 11
3.624015748031495
 21
2.651574803149606
 31
0.0
  0
LINE
  5
9CA
330
1E
100
AcDbEntity
  8
0
100
AcDbLine
 10
3.624015748031495
 20
2.651574803149606
 30
0.0
 11
3.65255905511811
 21
2.651574803149606
 31
0.0
  0
LINE
  5
9CB
330
1E
100
AcDbEntity
  8
0
100
AcDbLine
 10
3.624015748031495
 20
2.580708661417322
 30
0.0
 11
3.624015748031495
 21
2.651574803149606
 31
0.0
  0
LWPOLYLINE
  5
9CC
330
1E
100
AcDbEntity
  8
0
100
AcDbPolyline
 90
        3
 70
     0
 43
0.0
 10
3.624015748031495
 20
2.580708661417322
 10
3.628937007874015
 20
2.569881889763779
 10
3.639763779527558
 20
2.565944881889763
  0
LINE
  5
9D1
330
1E
100
AcDbEntity
  8
0
100
AcDbLine
 10
3.639763779527558
 20
2.565944881889763
 30
0.0
 11
3.670275590551181
 21
2.565944881889763
 31
0.0
  0
LWPOLYLINE
  5
9D2
330
1E
100
AcDbEntity
  8
0
100
AcDbPolyline
 90
        3
 70
     0
 43
0.0
 10
3.670275590551181
 20
2.565944881889763
 10
3.681102362204724
 20
2.569881889763779
 10
3.68503937007874
 20
2.580708661417322
  0
LINE
  5
9D7
330
1E
100
AcDbEntity
  8
0
100
AcDbLine
 10
3.699803149606299
 20
2.651574803149606
 30
0.0
 11
3.699803149606299
 21
2.651574803149606
 31
0.0
  0
LINE
  5
9D8
330
1E
100
AcDbEntity
  8
0
100
AcDbLine
 10
3.699803149606299
 20
2.651574803149606
 30
0.0
 11
3.722440944881889
 21
2.651574803149606
 31
0.0
  0
LINE
  5
9D9
330
1E
100
AcDbEntity
  8
0
100
AcDbLine
 10
3.722440944881889
 20
2.651574803149606
 30
0.0
 11
3.722440944881889
 21
2.651574803149606
 31
0.0
  0
LINE
  5
9DA
330
1E
100
AcDbEntity
  8
0
100
AcDbLine
 10
3.722440944881889
 20
2.565944881889763
 30
0.0
 11
3.722440944881889
 21
2.651574803149606
 31
0.0
  0
LINE
  5
9DB
330
1E
100
AcDbEntity
  8
0
100
AcDbLine
 10
3.722440944881889
 20
2.565944881889763
 30
0.0
 11
3.699803149606299
 21
2.565944881889763
 31
0.0
  0
LINE
  5
9DC
330
1E
100
AcDbEntity
  8
0
100
AcDbLine
 10
3.699803149606299
 20
2.565944881889763
 30
0.0
 11
3.699803149606299
 21
2.651574803149606
 31
0.0
  0
LINE
  5
9DD
330
1E
100
AcDbEntity
  8
0
100
AcDbLine
 10
3.801181102362204
 20
2.651574803149606
 30
0.0
 11
3.801181102362204
 21
2.651574803149606
 31
0.0
  0
LINE
  5
9DE
330
1E
100
AcDbEntity
  8
0
100
AcDbLine
 10
3.801181102362204
 20
2.633858267716535
 30
0.0
 11
3.801181102362204
 21
2.651574803149606
 31
0.0
  0
LINE
  5
9DF
330
1E
100
AcDbEntity
  8
0
100
AcDbLine
 10
3.801181102362204
 20
2.633858267716535
 30
0.0
 11
3.781496062992125
 21
2.633858267716535
 31
0.0
  0
LINE
  5
9E0
330
1E
100
AcDbEntity
  8
0
100
AcDbLine
 10
3.781496062992125
 20
2.565944881889763
 30
0.0
 11
3.781496062992125
 21
2.633858267716535
 31
0.0
  0
LINE
  5
9E1
330
1E
100
AcDbEntity
  8
0
100
AcDbLine
 10
3.781496062992125
 20
2.565944881889763
 30
0.0
 11
3.754921259842519
 21
2.565944881889763
 31
0.0
  0
LINE
  5
9E2
330
1E
100
AcDbEntity
  8
0
100
AcDbLine
 10
3.754921259842519
 20
2.565944881889763
 30
0.0
 11
3.754921259842519
 21
2.633858267716535
 31
0.0
  0
LINE
  5
9E3
330
1E
100
AcDbEntity
  8
0
100
AcDbLine
 10
3.738188976377952
 20
2.633858267716535
 30
0.0
 11
3.754921259842519
 21
2.633858267716535
 31
0.0
  0
LINE
  5
9E4
330
1E
100
AcDbEntity
  8
0
100
AcDbLine
 10
3.738188976377952
 20
2.651574803149606
 30
0.0
 11
3.738188976377952
 21
2.651574803149606
 31
0.0
  0
LINE
  5
9E5
330
1E
100
AcDbEntity
  8
0
100
AcDbLine
 10
3.738188976377952
 20
2.651574803149606
 30
0.0
 11
3.738188976377952
 21
2.633858267716535
 31
0.0
  0
LINE
  5
9E6
330
1E
100
AcDbEntity
  8
0
100
AcDbLine
 10
3.738188976377952
 20
2.651574803149606
 30
0.0
 11
3.801181102362204
 21
2.651574803149606
 31
0.0
  0
LINE
  5
9E7
330
1E
100
AcDbEntity
  8
0
100
AcDbLine
 10
3.429133858267716
 20
2.621062992125984
 30
0.0
 11
3.439960629921259
 21
2.596456692913385
 31
0.0
  0
LINE
  5
9E8
330
1E
100
AcDbEntity
  8
0
100
AcDbLine
 10
3.418307086614173
 20
2.596456692913385
 30
0.0
 11
3.429133858267716
 21
2.621062992125984
 31
0.0
  0
LINE
  5
9E9
330
1E
100
AcDbEntity
  8
0
100
AcDbLine
 10
3.418307086614173
 20
2.596456692913385
 30
0.0
 11
3.439960629921259
 21
2.596456692913385
 31
0.0
  0
LINE
  5
9EA
330
1E
100
AcDbEntity
  8
0
100
AcDbLine
 10
3.439960629921259
 20
2.596456692913385
 30
0.0
 11
3.418307086614173
 21
2.596456692913385
 31
0.0
  0
LINE
  5
9EB
330
1E
100
AcDbEntity
  8
0
100
AcDbLine
 10
3.36515748031496
 20
2.619094488188976
 30
0.0
 11
3.371062992125984
 21
2.624015748031495
 31
0.0
  0
LINE
  5
9EC
330
1E
100
AcDbEntity
  8
0
100
AcDbLine
 10
3.36515748031496
 20
2.619094488188976
 30
0.0
 11
3.36515748031496
 21
2.619094488188976
 31
0.0
  0
LWPOLYLINE
  5
9ED
330
1E
100
AcDbEntity
  8
0
100
AcDbPolyline
 90
        3
 70
     0
 43
0.0
 10
3.36515748031496
 20
2.619094488188976
 10
3.369094488188976
 20
2.62007874015748
 10
3.371062992125984
 20
2.624015748031495
  0
LINE
  5
9F2
330
1E
100
AcDbEntity
  8
0
100
AcDbLine
 10
3.371062992125984
 20
2.624015748031495
 30
0.0
 11
3.371062992125984
 21
2.65255905511811
 31
0.0
  0
LWPOLYLINE
  5
9F3
330
1E
100
AcDbEntity
  8
0
100
AcDbPolyline
 90
        3
 70
     0
 43
0.0
 10
3.371062992125984
 20
2.65255905511811
 10
3.369094488188976
 20
2.656496062992125
 10
3.36515748031496
 20
2.65748031496063
  0
LINE
  5
9F8
330
1E
100
AcDbEntity
  8
0
100
AcDbLine
 10
3.354330708661417
 20
2.65748031496063
 30
0.0
 11
3.36515748031496
 21
2.65748031496063
 31
0.0
  0
LINE
  5
9F9
330
1E
100
AcDbEntity
  8
0
100
AcDbLine
 10
3.354330708661417
 20
2.619094488188976
 30
0.0
 11
3.354330708661417
 21
2.65748031496063
 31
0.0
  0
LINE
  5
9FA
330
1E
100
AcDbEntity
  8
0
100
AcDbLine
 10
3.354330708661417
 20
2.619094488188976
 30
0.0
 11
3.36515748031496
 21
2.619094488188976
 31
0.0
  0
LINE
  5
9FB
330
1E
100
AcDbEntity
  8
0
100
AcDbLine
 10
3.36515748031496
 20
2.619094488188976
 30
0.0
 11
3.354330708661417
 21
2.619094488188976
 31
0.0
  0
LINE
  5
9FC
330
1E
100
AcDbEntity
  8
0
100
AcDbLine
 10
3.494094488188976
 20
2.651574803149606
 30
0.0
 11
3.494094488188976
 21
2.651574803149606
 31
0.0
  0
LINE
  5
9FD
330
1E
100
AcDbEntity
  8
0
100
AcDbLine
 10
3.509842519685039
 20
2.62007874015748
 30
0.0
 11
3.494094488188976
 21
2.651574803149606
 31
0.0
  0
LINE
  5
9FE
330
1E
100
AcDbEntity
  8
0
100
AcDbLine
 10
3.465551181102362
 20
2.651574803149606
 30
0.0
 11
3.465551181102362
 21
2.651574803149606
 31
0.0
  0
LINE
  5
9FF
330
1E
100
AcDbEntity
  8
0
100
AcDbLine
 10
3.465551181102362
 20
2.651574803149606
 30
0.0
 11
3.494094488188976
 21
2.651574803149606
 31
0.0
  0
LINE
  5
A00
330
1E
100
AcDbEntity
  8
0
100
AcDbLine
 10
3.465551181102362
 20
2.595472440944881
 30
0.0
 11
3.465551181102362
 21
2.651574803149606
 31
0.0
  0
LINE
  5
A01
330
1E
100
AcDbEntity
  8
0
100
AcDbLine
 10
3.440944881889763
 20
2.651574803149606
 30
0.0
 11
3.440944881889763
 21
2.651574803149606
 31
0.0
  0
LINE
  5
A02
330
1E
100
AcDbEntity
  8
0
100
AcDbLine
 10
3.440944881889763
 20
2.651574803149606
 30
0.0
 11
3.465551181102362
 21
2.595472440944881
 31
0.0
  0
LINE
  5
A03
330
1E
100
AcDbEntity
  8
0
100
AcDbLine
 10
3.418307086614173
 20
2.651574803149606
 30
0.0
 11
3.418307086614173
 21
2.651574803149606
 31
0.0
  0
LINE
  5
A04
330
1E
100
AcDbEntity
  8
0
100
AcDbLine
 10
3.418307086614173
 20
2.651574803149606
 30
0.0
 11
3.440944881889763
 21
2.651574803149606
 31
0.0
  0
LINE
  5
A05
330
1E
100
AcDbEntity
  8
0
100
AcDbLine
 10
3.381889763779527
 20
2.677165354330708
 30
0.0
 11
3.381889763779527
 21
2.677165354330708
 31
0.0
  0
LWPOLYLINE
  5
A06
330
1E
100
AcDbEntity
  8
0
100
AcDbPolyline
 90
        3
 70
     0
 43
0.0
 10
3.418307086614173
 20
2.651574803149606
 10
3.404527559055118
 20
2.670275590551181
 10
3.381889763779527
 20
2.677165354330708
  0
LINE
  5
A0B
330
1E
100
AcDbEntity
  8
0
100
AcDbLine
 10
3.304133858267716
 20
2.565944881889763
 30
0.0
 11
3.304133858267716
 21
2.677165354330708
 31
0.0
  0
LINE
  5
A0C
330
1E
100
AcDbEntity
  8
0
100
AcDbLine
 10
3.304133858267716
 20
2.677165354330708
 30
0.0
 11
3.304133858267716
 21
2.677165354330708
 31
0.0
  0
LINE
  5
A0D
330
1E
100
AcDbEntity
  8
0
100
AcDbLine
 10
3.354330708661417
 20
2.565944881889763
 30
0.0
 11
3.304133858267716
 21
2.565944881889763
 31
0.0
  0
LINE
  5
A0E
330
1E
100
AcDbEntity
  8
0
100
AcDbLine
 10
3.354330708661417
 20
2.600393700787401
 30
0.0
 11
3.354330708661417
 21
2.565944881889763
 31
0.0
  0
LINE
  5
A0F
330
1E
100
AcDbEntity
  8
0
100
AcDbLine
 10
3.354330708661417
 20
2.600393700787401
 30
0.0
 11
3.381889763779527
 21
2.600393700787401
 31
0.0
  0
LWPOLYLINE
  5
A10
330
1E
100
AcDbEntity
  8
0
100
AcDbPolyline
 90
        3
 70
     0
 43
0.0
 10
3.381889763779527
 20
2.600393700787401
 10
3.390748031496062
 20
2.601377952755905
 10
3.398622047244094
 20
2.604330708661417
  0
LINE
  5
A15
330
1E
100
AcDbEntity
  8
0
100
AcDbLine
 10
3.382874015748031
 20
2.565944881889763
 30
0.0
 11
3.382874015748031
 21
2.565944881889763
 31
0.0
  0
LINE
  5
A16
330
1E
100
AcDbEntity
  8
0
100
AcDbLine
 10
3.382874015748031
 20
2.565944881889763
 30
0.0
 11
3.398622047244094
 21
2.604330708661417
 31
0.0
  0
LINE
  5
A17
330
1E
100
AcDbEntity
  8
0
100
AcDbLine
 10
3.40748031496063
 20
2.565944881889763
 30
0.0
 11
3.382874015748031
 21
2.565944881889763
 31
0.0
  0
LINE
  5
A18
330
1E
100
AcDbEntity
  8
0
100
AcDbLine
 10
3.40748031496063
 20
2.565944881889763
 30
0.0
 11
3.413385826771653
 21
2.577755905511811
 31
0.0
  0
LINE
  5
A19
330
1E
100
AcDbEntity
  8
0
100
AcDbLine
 10
3.413385826771653
 20
2.577755905511811
 30
0.0
 11
3.445866141732283
 21
2.577755905511811
 31
0.0
  0
LINE
  5
A1A
330
1E
100
AcDbEntity
  8
0
100
AcDbLine
 10
3.445866141732283
 20
2.577755905511811
 30
0.0
 11
3.451771653543306
 21
2.565944881889763
 31
0.0
  0
LINE
  5
A1B
330
1E
100
AcDbEntity
  8
0
100
AcDbLine
 10
3.49015748031496
 20
2.565944881889763
 30
0.0
 11
3.451771653543306
 21
2.565944881889763
 31
0.0
  0
LINE
  5
A1C
330
1E
100
AcDbEntity
  8
0
100
AcDbLine
 10
3.49015748031496
 20
2.565944881889763
 30
0.0
 11
3.49015748031496
 21
2.602362204724409
 31
0.0
  0
LINE
  5
A1D
330
1E
100
AcDbEntity
  8
0
100
AcDbLine
 10
3.49015748031496
 20
2.602362204724409
 30
0.0
 11
3.505905511811023
 21
2.565944881889763
 31
0.0
  0
LINE
  5
A1E
330
1E
100
AcDbEntity
  8
0
100
AcDbLine
 10
3.531496062992125
 20
2.565944881889763
 30
0.0
 11
3.505905511811023
 21
2.565944881889763
 31
0.0
  0
LINE
  5
A1F
330
1E
100
AcDbEntity
  8
0
100
AcDbLine
 10
3.531496062992125
 20
2.651574803149606
 30
0.0
 11
3.531496062992125
 21
2.651574803149606
 31
0.0
  0
LINE
  5
A20
330
1E
100
AcDbEntity
  8
0
100
AcDbLine
 10
3.531496062992125
 20
2.651574803149606
 30
0.0
 11
3.531496062992125
 21
2.565944881889763
 31
0.0
  0
LINE
  5
A21
330
1E
100
AcDbEntity
  8
0
100
AcDbLine
 10
3.509842519685039
 20
2.651574803149606
 30
0.0
 11
3.509842519685039
 21
2.651574803149606
 31
0.0
  0
LINE
  5
A22
330
1E
100
AcDbEntity
  8
0
100
AcDbLine
 10
3.509842519685039
 20
2.651574803149606
 30
0.0
 11
3.531496062992125
 21
2.651574803149606
 31
0.0
  0
LINE
  5
A23
330
1E
100
AcDbEntity
  8
0
100
AcDbLine
 10
3.509842519685039
 20
2.62007874015748
 30
0.0
 11
3.509842519685039
 21
2.651574803149606
 31
0.0
  0
LINE
  5
A24
330
1E
100
AcDbEntity
  8
0
100
AcDbLine
 10
3.304133858267716
 20
2.677165354330708
 30
0.0
 11
3.381889763779527
 21
2.677165354330708
 31
0.0
  0
LINE
  5
A25
330
1E
100
AcDbEntity
  8
0
100
AcDbLine
 10
2.986220472440944
 20
2.954724409448818
 30
0.0
 11
2.986220472440944
 21
2.926181102362204
 31
0.0
  0
LINE
  5
A26
330
1E
100
AcDbEntity
  8
0
100
AcDbLine
 10
4.033464566929134
 20
2.926181102362204
 30
0.0
 11
4.033464566929134
 21
2.954724409448818
 31
0.0
  0
LINE
  5
A27
330
1E
100
AcDbEntity
  8
0
100
AcDbLine
 10
3.113188976377952
 20
3.221456692913385
 30
0.0
 11
3.105314960629921
 21
3.223425196850393
 31
0.0
  0
LINE
  5
A28
330
1E
100
AcDbEntity
  8
0
100
AcDbLine
 10
3.105314960629921
 20
3.166338582677165
 30
0.0
 11
3.113188976377952
 21
3.167322834645669
 31
0.0
  0
LINE
  5
A29
330
1E
100
AcDbEntity
  8
0
100
AcDbLine
 10
3.000984251968503
 20
3.004921259842519
 30
0.0
 11
2.996062992125984
 21
3.000984251968503
 31
0.0
  0
LWPOLYLINE
  5
A2A
330
1E
100
AcDbEntity
  8
0
100
AcDbPolyline
 90
        3
 70
     0
 43
0.0
 10
3.000984251968503
 20
3.004921259842519
 10
2.993110236220472
 20
3.007874015748031
 10
2.99015748031496
 20
3.014763779527558
  0
LINE
  5
A2F
330
1E
100
AcDbEntity
  8
0
100
AcDbLine
 10
2.986220472440944
 20
3.010826771653543
 30
0.0
 11
2.99015748031496
 21
3.014763779527558
 31
0.0
  0
LINE
  5
A30
330
1E
100
AcDbEntity
  8
0
100
AcDbLine
 10
2.99015748031496
 20
3.014763779527558
 30
0.0
 11
2.99015748031496
 21
3.119094488188976
 31
0.0
  0
LINE
  5
A31
330
1E
100
AcDbEntity
  8
0
100
AcDbLine
 10
2.99015748031496
 20
3.119094488188976
 30
0.0
 11
2.986220472440944
 21
3.121062992125984
 31
0.0
  0
LWPOLYLINE
  5
A32
330
1E
100
AcDbEntity
  8
0
100
AcDbPolyline
 90
        3
 70
     0
 43
0.0
 10
2.99015748031496
 20
3.119094488188976
 10
2.993110236220472
 20
3.125984251968503
 10
3.000984251968503
 20
3.128937007874015
  0
LINE
  5
A37
330
1E
100
AcDbEntity
  8
0
100
AcDbLine
 10
2.996062992125984
 20
3.130905511811023
 30
0.0
 11
3.000984251968503
 21
3.128937007874015
 31
0.0
  0
LINE
  5
A38
330
1E
100
AcDbEntity
  8
0
100
AcDbLine
 10
3.000984251968503
 20
3.128937007874015
 30
0.0
 11
3.104330708661417
 21
3.128937007874015
 31
0.0
  0
LINE
  5
A39
330
1E
100
AcDbEntity
  8
0
100
AcDbLine
 10
3.113188976377952
 20
3.127952755905511
 30
0.0
 11
3.104330708661417
 21
3.128937007874015
 31
0.0
  0
LINE
  5
A3A
330
1E
100
AcDbEntity
  8
0
100
AcDbLine
 10
3.119094488188976
 20
3.127952755905511
 30
0.0
 11
3.116141732283464
 21
3.130905511811023
 31
0.0
  0
LWPOLYLINE
  5
A3B
330
1E
100
AcDbEntity
  8
0
100
AcDbPolyline
 90
        5
 70
     0
 43
0.0
 10
3.116141732283464
 20
3.130905511811023
 10
3.112204724409448
 20
3.130905511811023
 10
3.101377952755905
 20
3.130905511811023
 10
3.085629921259842
 20
3.130905511811023
 10
3.065944881889763
 20
3.130905511811023
  0
LINE
  5
A42
330
1E
100
AcDbEntity
  8
0
100
AcDbLine
 10
3.116141732283464
 20
3.165354330708661
 30
0.0
 11
3.116141732283464
 21
3.130905511811023
 31
0.0
  0
LWPOLYLINE
  5
A43
330
1E
100
AcDbEntity
  8
0
100
AcDbPolyline
 90
        5
 70
     0
 43
0.0
 10
3.065944881889763
 20
3.164370078740157
 10
3.085629921259842
 20
3.164370078740157
 10
3.101377952755905
 20
3.164370078740157
 10
3.112204724409448
 20
3.165354330708661
 10
3.116141732283464
 20
3.165354330708661
  0
LINE
  5
A4A
330
1E
100
AcDbEntity
  8
0
100
AcDbLine
 10
3.116141732283464
 20
3.165354330708661
 30
0.0
 11
3.119094488188976
 21
3.167322834645669
 31
0.0
  0
LINE
  5
A4B
330
1E
100
AcDbEntity
  8
0
100
AcDbLine
 10
3.105314960629921
 20
3.081692913385826
 30
0.0
 11
3.105314960629921
 21
3.119094488188976
 31
0.0
  0
LINE
  5
A4C
330
1E
100
AcDbEntity
  8
0
100
AcDbLine
 10
3.105314960629921
 20
3.081692913385826
 30
0.0
 11
3.113188976377952
 21
3.089566929133858
 31
0.0
  0
LWPOLYLINE
  5
A4D
330
1E
100
AcDbEntity
  8
0
100
AcDbPolyline
 90
        3
 70
     0
 43
0.0
 10
3.104330708661417
 20
3.128937007874015
 10
3.104330708661417
 20
3.125984251968503
 10
3.105314960629921
 20
3.119094488188976
  0
LWPOLYLINE
  5
A52
330
1E
100
AcDbEntity
  8
0
100
AcDbPolyline
 90
        3
 70
     0
 43
0.0
 10
3.11515748031496
 20
3.071850393700787
 10
3.107283464566929
 20
3.074803149606299
 10
3.105314960629921
 20
3.081692913385826
  0
LINE
  5
A57
330
1E
100
AcDbEntity
  8
0
100
AcDbLine
 10
3.123031496062992
 20
3.079724409448818
 30
0.0
 11
3.11515748031496
 21
3.071850393700787
 31
0.0
  0
LINE
  5
A58
330
1E
100
AcDbEntity
  8
0
100
AcDbLine
 10
3.165354330708661
 20
3.071850393700787
 30
0.0
 11
3.11515748031496
 21
3.071850393700787
 31
0.0
  0
LINE
  5
A59
330
1E
100
AcDbEntity
  8
0
100
AcDbLine
 10
3.165354330708661
 20
3.071850393700787
 30
0.0
 11
3.173228346456693
 21
3.079724409448818
 31
0.0
  0
LWPOLYLINE
  5
A5A
330
1E
100
AcDbEntity
  8
0
100
AcDbPolyline
 90
        3
 70
     0
 43
0.0
 10
3.1751968503937
 20
3.062007874015748
 10
3.172244094488188
 20
3.068897637795275
 10
3.165354330708661
 20
3.071850393700787
  0
LINE
  5
A5F
330
1E
100
AcDbEntity
  8
0
100
AcDbLine
 10
3.184055118110236
 20
3.069881889763779
 30
0.0
 11
3.1751968503937
 21
3.062007874015748
 31
0.0
  0
LINE
  5
A60
330
1E
100
AcDbEntity
  8
0
100
AcDbLine
 10
3.1751968503937
 20
3.014763779527558
 30
0.0
 11
3.1751968503937
 21
3.062007874015748
 31
0.0
  0
LINE
  5
A61
330
1E
100
AcDbEntity
  8
0
100
AcDbLine
 10
3.1751968503937
 20
3.014763779527558
 30
0.0
 11
3.184055118110236
 21
3.016732283464566
 31
0.0
  0
LWPOLYLINE
  5
A62
330
1E
100
AcDbEntity
  8
0
100
AcDbPolyline
 90
        3
 70
     0
 43
0.0
 10
3.000984251968503
 20
3.004921259842519
 10
3.000984251968503
 20
3.007874015748031
 10
3.000984251968503
 20
3.014763779527558
  0
LWPOLYLINE
  5
A67
330
1E
100
AcDbEntity
  8
0
100
AcDbPolyline
 90
        3
 70
     0
 43
0.0
 10
2.99015748031496
 20
3.014763779527558
 10
2.993110236220472
 20
3.014763779527558
 10
3.000984251968503
 20
3.014763779527558
  0
LWPOLYLINE
  5
A6C
330
1E
100
AcDbEntity
  8
0
100
AcDbPolyline
 90
        3
 70
     0
 43
0.0
 10
2.99015748031496
 20
3.119094488188976
 10
2.993110236220472
 20
3.119094488188976
 10
3.000984251968503
 20
3.119094488188976
  0
LINE
  5
A71
330
1E
100
AcDbEntity
  8
0
100
AcDbLine
 10
3.000984251968503
 20
3.119094488188976
 30
0.0
 11
3.000984251968503
 21
3.014763779527558
 31
0.0
  0
LWPOLYLINE
  5
A72
330
1E
100
AcDbEntity
  8
0
100
AcDbPolyline
 90
        3
 70
     0
 43
0.0
 10
3.000984251968503
 20
3.128937007874015
 10
3.000984251968503
 20
3.125984251968503
 10
3.000984251968503
 20
3.119094488188976
  0
LINE
  5
A77
330
1E
100
AcDbEntity
  8
0
100
AcDbLine
 10
3.105314960629921
 20
3.119094488188976
 30
0.0
 11
3.000984251968503
 21
3.119094488188976
 31
0.0
  0
LINE
  5
A78
330
1E
100
AcDbEntity
  8
0
100
AcDbLine
 10
3.000984251968503
 20
3.014763779527558
 30
0.0
 11
3.1751968503937
 21
3.014763779527558
 31
0.0
  0
LINE
  5
A79
330
1E
100
AcDbEntity
  8
0
100
AcDbLine
 10
3.1751968503937
 20
3.014763779527558
 30
0.0
 11
3.1751968503937
 21
3.014763779527558
 31
0.0
  0
LWPOLYLINE
  5
A7A
330
1E
100
AcDbEntity
  8
0
100
AcDbPolyline
 90
        3
 70
     0
 43
0.0
 10
3.184055118110236
 20
3.004921259842519
 10
3.178149606299212
 20
3.007874015748031
 10
3.1751968503937
 20
3.014763779527558
  0
LINE
  5
A7F
330
1E
100
AcDbEntity
  8
0
100
AcDbLine
 10
3.193897637795275
 20
3.006889763779527
 30
0.0
 11
3.184055118110236
 21
3.004921259842519
 31
0.0
  0
LINE
  5
A80
330
1E
100
AcDbEntity
  8
0
100
AcDbLine
 10
3.184055118110236
 20
3.004921259842519
 30
0.0
 11
3.000984251968503
 21
3.004921259842519
 31
0.0
  0
LINE
  5
A81
330
1E
100
AcDbEntity
  8
0
100
AcDbLine
 10
4.023622047244094
 20
3.000984251968503
 30
0.0
 11
4.018700787401574
 21
3.004921259842519
 31
0.0
  0
LINE
  5
A82
330
1E
100
AcDbEntity
  8
0
100
AcDbLine
 10
4.018700787401574
 20
3.004921259842519
 30
0.0
 11
3.835629921259842
 21
3.004921259842519
 31
0.0
  0
LINE
  5
A83
330
1E
100
AcDbEntity
  8
0
100
AcDbLine
 10
3.835629921259842
 20
3.004921259842519
 30
0.0
 11
3.833661417322834
 21
3.006889763779527
 31
0.0
  0
LWPOLYLINE
  5
A84
330
1E
100
AcDbEntity
  8
0
100
AcDbPolyline
 90
        3
 70
     0
 43
0.0
 10
3.845472440944881
 20
3.014763779527558
 10
3.84251968503937
 20
3.007874015748031
 10
3.835629921259842
 20
3.004921259842519
  0
LINE
  5
A89
330
1E
100
AcDbEntity
  8
0
100
AcDbLine
 10
3.895669291338582
 20
3.189960629921259
 30
0.0
 11
4.02263779527559
 21
3.186023622047243
 31
0.0
  0
LINE
  5
A8A
330
1E
100
AcDbEntity
  8
0
100
AcDbLine
 10
3.895669291338582
 20
3.189960629921259
 30
0.0
 11
3.89271653543307
 21
3.191929133858267
 31
0.0
  0
LINE
  5
A8B
330
1E
100
AcDbEntity
  8
0
100
AcDbLine
 10
3.89271653543307
 20
3.191929133858267
 30
0.0
 11
3.89271653543307
 21
3.139763779527558
 31
0.0
  0
LINE
  5
A8C
330
1E
100
AcDbEntity
  8
0
100
AcDbLine
 10
3.89271653543307
 20
3.139763779527558
 30
0.0
 11
3.895669291338582
 21
3.140748031496062
 31
0.0
  0
LINE
  5
A8D
330
1E
100
AcDbEntity
  8
0
100
AcDbLine
 10
4.02263779527559
 20
3.144685039370078
 30
0.0
 11
3.895669291338582
 21
3.140748031496062
 31
0.0
  0
LWPOLYLINE
  5
A8E
330
1E
100
AcDbEntity
  8
0
100
AcDbPolyline
 90
        4
 70
     0
 43
0.0
 10
4.02263779527559
 20
3.144685039370078
 10
4.028543307086613
 20
3.143700787401574
 10
4.031496062992125
 20
3.139763779527558
 10
4.033464566929134
 20
3.134842519685039
  0
LWPOLYLINE
  5
A94
330
1E
100
AcDbEntity
  8
0
100
AcDbPolyline
 90
        4
 70
     0
 43
0.0
 10
4.033464566929134
 20
3.195866141732283
 10
4.031496062992125
 20
3.190944881889763
 10
4.028543307086613
 20
3.187992125984251
 10
4.02263779527559
 20
3.186023622047243
  0
LINE
  5
A9A
330
1E
100
AcDbEntity
  8
0
100
AcDbLine
 10
4.033464566929134
 20
3.134842519685039
 30
0.0
 11
4.029527559055117
 21
3.130905511811023
 31
0.0
  0
LINE
  5
A9B
330
1E
100
AcDbEntity
  8
0
100
AcDbLine
 10
4.029527559055117
 20
3.130905511811023
 30
0.0
 11
4.029527559055117
 21
3.014763779527558
 31
0.0
  0
LINE
  5
A9C
330
1E
100
AcDbEntity
  8
0
100
AcDbLine
 10
4.029527559055117
 20
3.014763779527558
 30
0.0
 11
4.033464566929134
 21
3.010826771653543
 31
0.0
  0
LWPOLYLINE
  5
A9D
330
1E
100
AcDbEntity
  8
0
100
AcDbPolyline
 90
        3
 70
     0
 43
0.0
 10
4.029527559055117
 20
3.014763779527558
 10
4.026574803149606
 20
3.007874015748031
 10
4.018700787401574
 20
3.004921259842519
  0
LWPOLYLINE
  5
AA2
330
1E
100
AcDbEntity
  8
0
100
AcDbPolyline
 90
        3
 70
     0
 43
0.0
 10
4.029527559055117
 20
3.199803149606299
 10
4.026574803149606
 20
3.192913385826771
 10
4.018700787401574
 20
3.189960629921259
  0
LWPOLYLINE
  5
AA7
330
1E
100
AcDbEntity
  8
0
100
AcDbPolyline
 90
        3
 70
     0
 43
0.0
 10
4.018700787401574
 20
3.189960629921259
 10
4.018700787401574
 20
3.192913385826771
 10
4.018700787401574
 20
3.199803149606299
  0
LWPOLYLINE
  5
AAC
330
1E
100
AcDbEntity
  8
0
100
AcDbPolyline
 90
        3
 70
     0
 43
0.0
 10
4.018700787401574
 20
3.004921259842519
 10
4.018700787401574
 20
3.007874015748031
 10
4.018700787401574
 20
3.014763779527558
  0
LWPOLYLINE
  5
AB1
330
1E
100
AcDbEntity
  8
0
100
AcDbPolyline
 90
        3
 70
     0
 43
0.0
 10
4.029527559055117
 20
3.014763779527558
 10
4.026574803149606
 20
3.014763779527558
 10
4.018700787401574
 20
3.014763779527558
  0
LWPOLYLINE
  5
AB6
330
1E
100
AcDbEntity
  8
0
100
AcDbPolyline
 90
        3
 70
     0
 43
0.0
 10
4.029527559055117
 20
3.130905511811023
 10
4.026574803149606
 20
3.130905511811023
 10
4.018700787401574
 20
3.130905511811023
  0
LWPOLYLINE
  5
ABB
330
1E
100
AcDbEntity
  8
0
100
AcDbPolyline
 90
        3
 70
     0
 43
0.0
 10
4.018700787401574
 20
3.140748031496062
 10
4.018700787401574
 20
3.13779527559055
 10
4.018700787401574
 20
3.130905511811023
  0
LINE
  5
AC0
330
1E
100
AcDbEntity
  8
0
100
AcDbLine
 10
3.895669291338582
 20
3.140748031496062
 30
0.0
 11
4.018700787401574
 21
3.140748031496062
 31
0.0
  0
LINE
  5
AC1
330
1E
100
AcDbEntity
  8
0
100
AcDbLine
 10
3.89271653543307
 20
3.139763779527558
 30
0.0
 11
3.883858267716535
 21
3.130905511811023
 31
0.0
  0
LINE
  5
AC2
330
1E
100
AcDbEntity
  8
0
100
AcDbLine
 10
3.89271653543307
 20
3.191929133858267
 30
0.0
 11
3.883858267716535
 21
3.199803149606299
 31
0.0
  0
LINE
  5
AC3
330
1E
100
AcDbEntity
  8
0
100
AcDbLine
 10
4.018700787401574
 20
3.189960629921259
 30
0.0
 11
3.895669291338582
 21
3.189960629921259
 31
0.0
  0
LINE
  5
AC4
330
1E
100
AcDbEntity
  8
0
100
AcDbLine
 10
4.02263779527559
 20
3.186023622047243
 30
0.0
 11
4.018700787401574
 21
3.189960629921259
 31
0.0
  0
LINE
  5
AC5
330
1E
100
AcDbEntity
  8
0
100
AcDbLine
 10
4.018700787401574
 20
3.140748031496062
 30
0.0
 11
4.02263779527559
 21
3.144685039370078
 31
0.0
  0
LWPOLYLINE
  5
AC6
330
1E
100
AcDbEntity
  8
0
100
AcDbPolyline
 90
        3
 70
     0
 43
0.0
 10
4.018700787401574
 20
3.140748031496062
 10
4.026574803149606
 20
3.13779527559055
 10
4.029527559055117
 20
3.130905511811023
  0
LINE
  5
ACB
330
1E
100
AcDbEntity
  8
0
100
AcDbLine
 10
3.167322834645669
 20
3.344488188976377
 30
0.0
 11
3.21259842519685
 21
3.344488188976377
 31
0.0
  0
LINE
  5
ACC
330
1E
100
AcDbEntity
  8
0
100
AcDbLine
 10
3.206692913385826
 20
3.354330708661417
 30
0.0
 11
3.167322834645669
 21
3.354330708661417
 31
0.0
  0
LWPOLYLINE
  5
ACD
330
1E
100
AcDbEntity
  8
0
100
AcDbPolyline
 90
        3
 70
     0
 43
0.0
 10
3.167322834645669
 20
3.354330708661417
 10
3.167322834645669
 20
3.351377952755905
 10
3.167322834645669
 20
3.344488188976377
  0
LINE
  5
AD2
330
1E
100
AcDbEntity
  8
0
100
AcDbLine
 10
3.167322834645669
 20
3.354330708661417
 30
0.0
 11
3.160433070866141
 21
3.361220472440944
 31
0.0
  0
LWPOLYLINE
  5
AD3
330
1E
100
AcDbEntity
  8
0
100
AcDbPolyline
 90
        3
 70
     0
 43
0.0
 10
3.167322834645669
 20
3.354330708661417
 10
3.160433070866141
 20
3.351377952755905
 10
3.15748031496063
 20
3.344488188976377
  0
LWPOLYLINE
  5
AD8
330
1E
100
AcDbEntity
  8
0
100
AcDbPolyline
 90
        3
 70
     0
 43
0.0
 10
3.15748031496063
 20
3.344488188976377
 10
3.160433070866141
 20
3.344488188976377
 10
3.167322834645669
 20
3.344488188976377
  0
LWPOLYLINE
  5
ADD
330
1E
100
AcDbEntity
  8
0
100
AcDbPolyline
 90
        3
 70
     0
 43
0.0
 10
3.167322834645669
 20
3.295275590551181
 10
3.167322834645669
 20
3.298228346456693
 10
3.167322834645669
 20
3.30511811023622
  0
LWPOLYLINE
  5
AE2
330
1E
100
AcDbEntity
  8
0
100
AcDbPolyline
 90
        3
 70
     0
 43
0.0
 10
3.15748031496063
 20
3.30511811023622
 10
3.160433070866141
 20
3.30511811023622
 10
3.167322834645669
 20
3.30511811023622
  0
LWPOLYLINE
  5
AE7
330
1E
100
AcDbEntity
  8
0
100
AcDbPolyline
 90
        3
 70
     0
 43
0.0
 10
3.167322834645669
 20
3.295275590551181
 10
3.160433070866141
 20
3.298228346456693
 10
3.15748031496063
 20
3.30511811023622
  0
LINE
  5
AEC
330
1E
100
AcDbEntity
  8
0
100
AcDbLine
 10
3.167322834645669
 20
3.30511811023622
 30
0.0
 11
3.21259842519685
 21
3.30511811023622
 31
0.0
  0
LINE
  5
AED
330
1E
100
AcDbEntity
  8
0
100
AcDbLine
 10
3.167322834645669
 20
3.344488188976377
 30
0.0
 11
3.167322834645669
 21
3.30511811023622
 31
0.0
  0
LINE
  5
AEE
330
1E
100
AcDbEntity
  8
0
100
AcDbLine
 10
3.206692913385826
 20
3.295275590551181
 30
0.0
 11
3.167322834645669
 21
3.295275590551181
 31
0.0
  0
LINE
  5
AEF
330
1E
100
AcDbEntity
  8
0
100
AcDbLine
 10
3.167322834645669
 20
3.295275590551181
 30
0.0
 11
3.160433070866141
 21
3.288385826771653
 31
0.0
  0
LINE
  5
AF3
330
1E
100
AcDbEntity
  8
0
100
AcDbLine
 10
2.533464566929133
 20
0.2677165354330708
 30
0.0
 11
4.486220472440944
 21
0.2677165354330708
 31
0.0
  0
ENDSEC
  0
SECTION
  2
OBJECTS
  0
DICTIONARY
  5
C
330
0
100
AcDbDictionary
281
     1
  3
ACAD_GROUP
350
D
  3
ACAD_PLOTSTYLENAME
350
E
  3
ACAD_MLINESTYLE
350
16
  3
ACAD_PLOTSETTINGS
350
18
  3
ACAD_LAYOUT
350
19
  0
DICTIONARY
  5
D
102
{ACAD_REACTORS
330
C
102
}
330
C
100
AcDbDictionary
281
     1
  0
ACDBDICTIONARYWDFLT
  5
E
102
{ACAD_REACTORS
330
C
102
}
330
C
100
AcDbDictionary
281
     1
  3
Normal
350
F
100
AcDbDictionaryWithDefault
340
F
  0
DICTIONARY
  5
16
102
{ACAD_REACTORS
330
C
102
}
330
C
100
AcDbDictionary
281
     1
  3
Standard
350
17
  0
DICTIONARY
  5
18
102
{ACAD_REACTORS
330
C
102
}
330
C
100
AcDbDictionary
281
     1
  0
DICTIONARY
  5
19
102
{ACAD_REACTORS
330
C
102
}
330
C
100
AcDbDictionary
281
     1
  3
Layout1
350
1D
  3
Model
350
21
  0
ACDBPLACEHOLDER
  5
F
102
{ACAD_REACTORS
330
E
102
}
330
E
  0
MLINESTYLE
  5
17
102
{ACAD_REACTORS
330
16
102
}
330
16
100
AcDbMlineStyle
  2
STANDARD
 70
     0
  3

 62
   256
 51
90.0
 52
90.0
 71
     2
 49
0.5
 62
   256
  6
BYLAYER
 49
-0.5
 62
   256
  6
BYLAYER
  0
LAYOUT
  5
1D
102
{ACAD_REACTORS
330
19
102
}
330
19
100
AcDbPlotSettings
  1

  2
\\NSENG\OPLaser1
  4

  6

 40
0.0
 41
0.0
 42
0.0
 43
0.0
 44
0.0
 45
0.0
 46
0.0
 47
0.0
 48
0.0
 49
0.0
140
0.0
141
0.0
142
1.0
143
1.0
 70
   688
 72
     0
 73
     0
 74
     5
  7

 75
    16
147
1.0
148
0.0
149
0.0
100
AcDbLayout
  1
Layout1
 70
     1
 71
     1
 10
0.0
 20
0.0
 11
12.0
 21
9.0
 12
0.0
 22
0.0
 32
0.0
 14
1.000000000000000E+20
 24
1.000000000000000E+20
 34
1.000000000000000E+20
 15
-1.000000000000000E+20
 25
-1.000000000000000E+20
 35
-1.000000000000000E+20
146
0.0
 13
0.0
 23
0.0
 33
0.0
 16
1.0
 26
0.0
 36
0.0
 17
0.0
 27
1.0
 37
0.0
 76
     0
330
1A
  0
LAYOUT
  5
21
102
{ACAD_REACTORS
330
19
102
}
330
19
100
AcDbPlotSettings
  1

  2
\\NSENG\OPLaser1
  4

  6

 40
0.0
 41
0.0
 42
0.0
 43
0.0
 44
0.0
 45
0.0
 46
0.0
 47
0.0
 48
0.0
 49
0.0
140
0.0
141
0.0
142
1.0
143
1.0
 70
  1712
 72
     0
 73
     0
 74
     0
  7

 75
     0
147
1.0
148
0.0
149
0.0
100
AcDbLayout
  1
Model
 70
     1
 71
     0
 10
0.0
 20
0.0
 11
12.0
 21
9.0
 12
0.0
 22
0.0
 32
0.0
 14
0.0
 24
0.0
 34
0.0
 15
0.0
 25
0.0
 35
0.0
146
0.0
 13
0.0
 23
0.0
 33
0.0
 16
1.0
 26
0.0
 36
0.0
 17
0.0
 27
1.0
 37
0.0
 76
     0
330
1E
  0
ENDSEC
  0
EOF
