  0
SECTION
  2
HEADER
  9
$ACADVER
  1
AC1012
  9
$DWGCODEPAGE
  3
ANSI_1252
  9
$INSBASE
 10
0.0
 20
0.0
 30
0.0
  9
$EXTMIN
 10
3.329406770096866
 20
5.603439358532707
 30
-0.0015258207003583
  9
$EXTMAX
 10
5.26025392634358
 20
6.243392962081582
 30
0.0000000349246037
  9
$LIMMIN
 10
0.0
 20
0.0
  9
$LIMMAX
 10
12.0
 20
9.0
  9
$ORTHOMODE
 70
     0
  9
$REGENMODE
 70
     1
  9
$FILLMODE
 70
     1
  9
$QTEXTMODE
 70
     0
  9
$MIRRTEXT
 70
     1
  9
$DRAGMODE
 70
     2
  9
$LTSCALE
 40
1.0
  9
$OSMODE
 70
    33
  9
$ATTMODE
 70
     1
  9
$TEXTSIZE
 40
0.2
  9
$TRACEWID
 40
0.05
  9
$TEXTSTYLE
  7
STANDARD
  9
$CLAYER
  8
0
  9
$CELTYPE
  6
BYLAYER
  9
$CECOLOR
 62
   256
  9
$CELTSCALE
 40
1.0
  9
$DELOBJ
 70
     1
  9
$DISPSILH
 70
     0
  9
$DIMSCALE
 40
1.0
  9
$DIMASZ
 40
0.18
  9
$DIMEXO
 40
0.0625
  9
$DIMDLI
 40
0.38
  9
$DIMRND
 40
0.0
  9
$DIMDLE
 40
0.0
  9
$DIMEXE
 40
0.18
  9
$DIMTP
 40
0.0
  9
$DIMTM
 40
0.0
  9
$DIMTXT
 40
0.18
  9
$DIMCEN
 40
0.09
  9
$DIMTSZ
 40
0.0
  9
$DIMTOL
 70
     0
  9
$DIMLIM
 70
     0
  9
$DIMTIH
 70
     1
  9
$DIMTOH
 70
     1
  9
$DIMSE1
 70
     0
  9
$DIMSE2
 70
     0
  9
$DIMTAD
 70
     0
  9
$DIMZIN
 70
     0
  9
$DIMBLK
  1

  9
$DIMASO
 70
     1
  9
$DIMSHO
 70
     1
  9
$DIMPOST
  1

  9
$DIMAPOST
  1

  9
$DIMALT
 70
     0
  9
$DIMALTD
 70
     2
  9
$DIMALTF
 40
25.4
  9
$DIMLFAC
 40
1.0
  9
$DIMTOFL
 70
     0
  9
$DIMTVP
 40
0.0
  9
$DIMTIX
 70
     0
  9
$DIMSOXD
 70
     0
  9
$DIMSAH
 70
     0
  9
$DIMBLK1
  1

  9
$DIMBLK2
  1

  9
$DIMSTYLE
  2
STANDARD
  9
$DIMCLRD
 70
     0
  9
$DIMCLRE
 70
     0
  9
$DIMCLRT
 70
     0
  9
$DIMTFAC
 40
1.0
  9
$DIMGAP
 40
0.09
  9
$DIMJUST
 70
     0
  9
$DIMSD1
 70
     0
  9
$DIMSD2
 70
     0
  9
$DIMTOLJ
 70
     1
  9
$DIMTZIN
 70
     0
  9
$DIMALTZ
 70
     0
  9
$DIMALTTZ
 70
     0
  9
$DIMFIT
 70
     5
  9
$DIMUPT
 70
     0
  9
$DIMUNIT
 70
     2
  9
$DIMDEC
 70
     4
  9
$DIMTDEC
 70
     4
  9
$DIMALTU
 70
     2
  9
$DIMALTTD
 70
     2
  9
$DIMTXSTY
  7
STANDARD
  9
$DIMAUNIT
 70
     0
  9
$LUNITS
 70
     2
  9
$LUPREC
 70
     4
  9
$SKETCHINC
 40
0.1
  9
$FILLETRAD
 40
0.0
  9
$AUNITS
 70
     0
  9
$AUPREC
 70
     0
  9
$MENU
  1
acad
  9
$ELEVATION
 40
0.0
  9
$PELEVATION
 40
0.0
  9
$THICKNESS
 40
0.0
  9
$LIMCHECK
 70
     0
  9
$BLIPMODE
 70
     0
  9
$CHAMFERA
 40
0.0
  9
$CHAMFERB
 40
0.0
  9
$CHAMFERC
 40
0.0
  9
$CHAMFERD
 40
0.0
  9
$SKPOLY
 70
     0
  9
$TDCREATE
 40
2452605.459837962
  9
$TDUPDATE
 40
2452605.465294224
  9
$TDINDWG
 40
0.0011147338
  9
$TDUSRTIMER
 40
0.0011147338
  9
$USRTIMER
 70
     1
  9
$ANGBASE
 50
0.0
  9
$ANGDIR
 70
     0
  9
$PDMODE
 70
     0
  9
$PDSIZE
 40
0.0
  9
$PLINEWID
 40
0.0
  9
$COORDS
 70
     2
  9
$SPLFRAME
 70
     0
  9
$SPLINETYPE
 70
     6
  9
$SPLINESEGS
 70
     8
  9
$ATTDIA
 70
     0
  9
$ATTREQ
 70
     1
  9
$HANDLING
 70
  4097
  9
$HANDSEED
  5
3A8E
  9
$SURFTAB1
 70
     6
  9
$SURFTAB2
 70
     6
  9
$SURFTYPE
 70
     6
  9
$SURFU
 70
     6
  9
$SURFV
 70
     6
  9
$UCSNAME
  2

  9
$UCSORG
 10
0.0
 20
0.0
 30
0.0
  9
$UCSXDIR
 10
1.0
 20
0.0
 30
0.0
  9
$UCSYDIR
 10
0.0
 20
1.0
 30
0.0
  9
$PUCSNAME
  2

  9
$PUCSORG
 10
0.0
 20
0.0
 30
0.0
  9
$PUCSXDIR
 10
1.0
 20
0.0
 30
0.0
  9
$PUCSYDIR
 10
0.0
 20
1.0
 30
0.0
  9
$USERI1
 70
     0
  9
$USERI2
 70
     0
  9
$USERI3
 70
     0
  9
$USERI4
 70
     0
  9
$USERI5
 70
     0
  9
$USERR1
 40
0.0
  9
$USERR2
 40
0.0
  9
$USERR3
 40
0.0
  9
$USERR4
 40
0.0
  9
$USERR5
 40
0.0
  9
$WORLDVIEW
 70
     1
  9
$SHADEDGE
 70
     3
  9
$SHADEDIF
 70
    70
  9
$TILEMODE
 70
     1
  9
$MAXACTVP
 70
    16
  9
$PINSBASE
 10
0.0
 20
0.0
 30
0.0
  9
$PLIMCHECK
 70
     0
  9
$PEXTMIN
 10
1.000000000000000E+20
 20
1.000000000000000E+20
 30
1.000000000000000E+20
  9
$PEXTMAX
 10
-1.000000000000000E+20
 20
-1.000000000000000E+20
 30
-1.000000000000000E+20
  9
$PLIMMIN
 10
0.0
 20
0.0
  9
$PLIMMAX
 10
12.0
 20
9.0
  9
$UNITMODE
 70
     0
  9
$VISRETAIN
 70
     0
  9
$PLINEGEN
 70
     0
  9
$PSLTSCALE
 70
     1
  9
$TREEDEPTH
 70
  3020
  9
$PICKSTYLE
 70
     1
  9
$CMLSTYLE
  2
STANDARD
  9
$CMLJUST
 70
     0
  9
$CMLSCALE
 40
1.0
  9
$SAVEIMAGES
 70
     1
  0
ENDSEC
  0
SECTION
  2
CLASSES
  0
CLASS
  1
ACDBDICTIONARYWDFLT
  2
AcDbDictionaryWithDefault
  3
AutoCAD 2000
 90
    32768
280
     0
281
     0
  0
CLASS
  1
ACDBPLACEHOLDER
  2
AcDbPlaceHolder
  3
AutoCAD 2000
 90
    32768
280
     0
281
     0
  0
CLASS
  1
LAYOUT
  2
AcDbLayout
  3
AutoCAD 2000
 90
    32768
280
     0
281
     0
  0
CLASS
  1
LONG_TRANSACTION
  2
AcDbLongTransaction
  3
AutoCAD 2000
 90
    32768
280
     0
281
     0
  0
CLASS
  1
LWPOLYLINE
  2
AcDbPolyline
  3
AutoCAD 2000
 90
    32768
280
     0
281
     1
  0
CLASS
  1
HATCH
  2
AcDbHatch
  3
AutoCAD 2000
 90
    32768
280
     0
281
     1
  0
CLASS
  1
XRECORD
  2
AcDbXrecord
  3
AutoCAD 2000
 90
    32768
280
     0
281
     0
  0
ENDSEC
  0
SECTION
  2
TABLES
  0
TABLE
  2
VPORT
  5
8
330
0
100
AcDbSymbolTable
 70
     3
  0
VPORT
  5
3A89
330
8
100
AcDbSymbolTableRecord
100
AcDbViewportTableRecord
  2
*ACTIVE
 70
     0
 10
0.0
 20
0.0
 11
1.0
 21
1.0
 12
4.294830348220223
 22
5.923416160307144
 13
0.0
 23
0.0
 14
1.0
 24
1.0
 15
0.0
 25
0.0
 16
0.0
 26
0.0
 36
1.0
 17
0.0
 27
0.0
 37
0.0
 40
1.190836677489892
 41
1.62928759894459
 42
50.0
 43
0.0
 44
0.0
 50
0.0
 51
0.0
 71
     0
 72
   100
 73
     1
 74
     1
 75
     0
 76
     0
 77
     0
 78
     0
  0
ENDTAB
  0
TABLE
  2
LTYPE
  5
5
330
0
100
AcDbSymbolTable
 70
    25
  0
LTYPE
  5
13
330
5
100
AcDbSymbolTableRecord
100
AcDbLinetypeTableRecord
  2
BYBLOCK
 70
     0
  3

 72
    65
 73
     0
 40
0.0
  0
LTYPE
  5
14
330
5
100
AcDbSymbolTableRecord
100
AcDbLinetypeTableRecord
  2
BYLAYER
 70
     0
  3

 72
    65
 73
     0
 40
0.0
  0
LTYPE
  5
15
330
5
100
AcDbSymbolTableRecord
100
AcDbLinetypeTableRecord
  2
CONTINUOUS
 70
     0
  3
Solid line
 72
    65
 73
     0
 40
0.0
  0
LTYPE
  5
22
330
5
100
AcDbSymbolTableRecord
100
AcDbLinetypeTableRecord
  2
BORDER
 70
     0
  3
__ __ . __ __ . __ __ . __ __ . __ __ . __ __ .
 72
    65
 73
     6
 40
1.75
 49
0.5
 74
     0
 49
-0.25
 74
     0
 49
0.5
 74
     0
 49
-0.25
 74
     0
 49
0.5
 74
     0
 49
-0.25
 74
     0
  0
LTYPE
  5
23
330
5
100
AcDbSymbolTableRecord
100
AcDbLinetypeTableRecord
  2
BORDER2
 70
     0
  3
__.__.__.__.__.__.__.__.__.__.__.__.__.__.__.__
 72
    65
 73
     6
 40
0.875
 49
0.25
 74
     0
 49
-0.125
 74
     0
 49
0.25
 74
     0
 49
-0.125
 74
     0
 49
0.25
 74
     0
 49
-0.125
 74
     0
  0
LTYPE
  5
24
330
5
100
AcDbSymbolTableRecord
100
AcDbLinetypeTableRecord
  2
BORDERX2
 70
     0
  3
____  ____  .  ____  ____  .  
 72
    65
 73
     6
 40
3.5
 49
1.0
 74
     0
 49
-0.5
 74
     0
 49
1.0
 74
     0
 49
-0.5
 74
     0
 49
1.0
 74
     0
 49
-0.5
 74
     0
  0
LTYPE
  5
25
330
5
100
AcDbSymbolTableRecord
100
AcDbLinetypeTableRecord
  2
CENTER
 70
     0
  3
____ _ ____ _ ____ _ ____ _ ____ _ ____ _ ____
 72
    65
 73
     4
 40
2.0
 49
1.25
 74
     0
 49
-0.25
 74
     0
 49
0.25
 74
     0
 49
-0.25
 74
     0
  0
LTYPE
  5
26
330
5
100
AcDbSymbolTableRecord
100
AcDbLinetypeTableRecord
  2
CENTER2
 70
     0
  3
____ _ ____ _ ____ _ ____ _ ____ _ ____ _ ____
 72
    65
 73
     4
 40
1.125
 49
0.75
 74
     0
 49
-0.125
 74
     0
 49
0.125
 74
     0
 49
-0.125
 74
     0
  0
LTYPE
  5
27
330
5
100
AcDbSymbolTableRecord
100
AcDbLinetypeTableRecord
  2
CENTERX2
 70
     0
  3
________  __  ________  __  ________  __  
 72
    65
 73
     4
 40
4.0
 49
2.5
 74
     0
 49
-0.5
 74
     0
 49
0.5
 74
     0
 49
-0.5
 74
     0
  0
LTYPE
  5
28
330
5
100
AcDbSymbolTableRecord
100
AcDbLinetypeTableRecord
  2
DASHDOT
 70
     0
  3
__ . __ . __ . __ . __ . __ . __ . 
 72
    65
 73
     4
 40
1.0
 49
0.5
 74
     0
 49
-0.25
 74
     0
 49
0.0
 74
     0
 49
-0.25
 74
     0
  0
LTYPE
  5
29
330
5
100
AcDbSymbolTableRecord
100
AcDbLinetypeTableRecord
  2
DASHDOT2
 70
     0
  3
_._._._._._._._._._._._._._._._.
 72
    65
 73
     4
 40
0.5
 49
0.25
 74
     0
 49
-0.125
 74
     0
 49
0.0
 74
     0
 49
-0.125
 74
     0
  0
LTYPE
  5
2A
330
5
100
AcDbSymbolTableRecord
100
AcDbLinetypeTableRecord
  2
DASHDOTX2
 70
     0
  3
____  .  ____  .  ____  .  ____  .  
 72
    65
 73
     4
 40
2.0
 49
1.0
 74
     0
 49
-0.5
 74
     0
 49
0.0
 74
     0
 49
-0.5
 74
     0
  0
LTYPE
  5
2B
330
5
100
AcDbSymbolTableRecord
100
AcDbLinetypeTableRecord
  2
DASHED
 70
     0
  3
__ __ __ __ __ __ __ __ __ __ __ __ 
 72
    65
 73
     2
 40
0.75
 49
0.5
 74
     0
 49
-0.25
 74
     0
  0
LTYPE
  5
2C
330
5
100
AcDbSymbolTableRecord
100
AcDbLinetypeTableRecord
  2
DASHED2
 70
     0
  3
_ _ _ _ _ _ _ _ _ _ _ _ _ _ _ _ _ _ 
 72
    65
 73
     2
 40
0.375
 49
0.25
 74
     0
 49
-0.125
 74
     0
  0
LTYPE
  5
2D
330
5
100
AcDbSymbolTableRecord
100
AcDbLinetypeTableRecord
  2
DASHEDX2
 70
     0
  3
____  ____  ____  ____  ____  ____  
 72
    65
 73
     2
 40
1.5
 49
1.0
 74
     0
 49
-0.5
 74
     0
  0
LTYPE
  5
2E
330
5
100
AcDbSymbolTableRecord
100
AcDbLinetypeTableRecord
  2
DIVIDE
 70
     0
  3
____ . . ____ . . ____ . . ____ . . 
 72
    65
 73
     6
 40
1.25
 49
0.5
 74
     0
 49
-0.25
 74
     0
 49
0.0
 74
     0
 49
-0.25
 74
     0
 49
0.0
 74
     0
 49
-0.25
 74
     0
  0
LTYPE
  5
2F
330
5
100
AcDbSymbolTableRecord
100
AcDbLinetypeTableRecord
  2
DIVIDE2
 70
     0
  3
__..__..__..__..__..__..__..__..__..
 72
    65
 73
     6
 40
0.625
 49
0.25
 74
     0
 49
-0.125
 74
     0
 49
0.0
 74
     0
 49
-0.125
 74
     0
 49
0.0
 74
     0
 49
-0.125
 74
     0
  0
LTYPE
  5
30
330
5
100
AcDbSymbolTableRecord
100
AcDbLinetypeTableRecord
  2
DIVIDEX2
 70
     0
  3
________  .  .  ________  .  .  ________  .  . 
 72
    65
 73
     6
 40
2.5
 49
1.0
 74
     0
 49
-0.5
 74
     0
 49
0.0
 74
     0
 49
-0.5
 74
     0
 49
0.0
 74
     0
 49
-0.5
 74
     0
  0
LTYPE
  5
31
330
5
100
AcDbSymbolTableRecord
100
AcDbLinetypeTableRecord
  2
DOT
 70
     0
  3
. . . . . . . . . . . . . . . . . . 
 72
    65
 73
     2
 40
0.25
 49
0.0
 74
     0
 49
-0.25
 74
     0
  0
LTYPE
  5
32
330
5
100
AcDbSymbolTableRecord
100
AcDbLinetypeTableRecord
  2
DOT2
 70
     0
  3
....................................
 72
    65
 73
     2
 40
0.125
 49
0.0
 74
     0
 49
-0.125
 74
     0
  0
LTYPE
  5
33
330
5
100
AcDbSymbolTableRecord
100
AcDbLinetypeTableRecord
  2
DOTX2
 70
     0
  3
.  .  .  .  .  .  .  .  .  .  .  .  .  
 72
    65
 73
     2
 40
0.5
 49
0.0
 74
     0
 49
-0.5
 74
     0
  0
LTYPE
  5
34
330
5
100
AcDbSymbolTableRecord
100
AcDbLinetypeTableRecord
  2
HIDDEN
 70
     0
  3
__ __ __ __ __ __ __ __ __ __ __ __ 
 72
    65
 73
     2
 40
0.375
 49
0.25
 74
     0
 49
-0.125
 74
     0
  0
LTYPE
  5
35
330
5
100
AcDbSymbolTableRecord
100
AcDbLinetypeTableRecord
  2
HIDDEN2
 70
     0
  3
_ _ _ _ _ _ _ _ _ _ _ _ _ _ _ _ _ _ 
 72
    65
 73
     2
 40
0.1875
 49
0.125
 74
     0
 49
-0.0625
 74
     0
  0
LTYPE
  5
36
330
5
100
AcDbSymbolTableRecord
100
AcDbLinetypeTableRecord
  2
HIDDENX2
 70
     0
  3
____ ____ ____ ____ ____ ____ ____ 
 72
    65
 73
     2
 40
0.75
 49
0.5
 74
     0
 49
-0.25
 74
     0
  0
LTYPE
  5
37
330
5
100
AcDbSymbolTableRecord
100
AcDbLinetypeTableRecord
  2
PHANTOM
 70
     0
  3
______  __  __  ______  __  __  
 72
    65
 73
     6
 40
2.5
 49
1.25
 74
     0
 49
-0.25
 74
     0
 49
0.25
 74
     0
 49
-0.25
 74
     0
 49
0.25
 74
     0
 49
-0.25
 74
     0
  0
LTYPE
  5
38
330
5
100
AcDbSymbolTableRecord
100
AcDbLinetypeTableRecord
  2
PHANTOM2
 70
     0
  3
___ _ _ ___ _ _ ___ _ _ ___ _ _ 
 72
    65
 73
     6
 40
1.25
 49
0.625
 74
     0
 49
-0.125
 74
     0
 49
0.125
 74
     0
 49
-0.125
 74
     0
 49
0.125
 74
     0
 49
-0.125
 74
     0
  0
LTYPE
  5
39
330
5
100
AcDbSymbolTableRecord
100
AcDbLinetypeTableRecord
  2
PHANTOMX2
 70
     0
  3
___ _ _ ___ _ _ ___ _ _ ___ _ _ 
 72
    65
 73
     6
 40
5.0
 49
2.5
 74
     0
 49
-0.5
 74
     0
 49
0.5
 74
     0
 49
-0.5
 74
     0
 49
0.5
 74
     0
 49
-0.5
 74
     0
  0
ENDTAB
  0
TABLE
  2
LAYER
  5
2
330
0
100
AcDbSymbolTable
 70
   257
  0
LAYER
  5
10
330
2
100
AcDbSymbolTableRecord
100
AcDbLayerTableRecord
  2
0
 70
     0
 62
     7
  6
CONTINUOUS
  0
LAYER
  5
3A
330
2
100
AcDbSymbolTableRecord
100
AcDbLayerTableRecord
  2
1
 70
     0
 62
     1
  6
CONTINUOUS
  0
LAYER
  5
3B
330
2
100
AcDbSymbolTableRecord
100
AcDbLayerTableRecord
  2
2
 70
     0
 62
     2
  6
CONTINUOUS
  0
LAYER
  5
3C
330
2
100
AcDbSymbolTableRecord
100
AcDbLayerTableRecord
  2
3
 70
     0
 62
     3
  6
CONTINUOUS
  0
LAYER
  5
3D
330
2
100
AcDbSymbolTableRecord
100
AcDbLayerTableRecord
  2
4
 70
     0
 62
     4
  6
CONTINUOUS
  0
LAYER
  5
3E
330
2
100
AcDbSymbolTableRecord
100
AcDbLayerTableRecord
  2
5
 70
     0
 62
     5
  6
CONTINUOUS
  0
LAYER
  5
3F
330
2
100
AcDbSymbolTableRecord
100
AcDbLayerTableRecord
  2
6
 70
     0
 62
     6
  6
CONTINUOUS
  0
LAYER
  5
40
330
2
100
AcDbSymbolTableRecord
100
AcDbLayerTableRecord
  2
7
 70
     0
 62
     7
  6
CONTINUOUS
  0
LAYER
  5
41
330
2
100
AcDbSymbolTableRecord
100
AcDbLayerTableRecord
  2
8
 70
     0
 62
     8
  6
CONTINUOUS
  0
LAYER
  5
42
330
2
100
AcDbSymbolTableRecord
100
AcDbLayerTableRecord
  2
9
 70
     0
 62
     9
  6
CONTINUOUS
  0
LAYER
  5
43
330
2
100
AcDbSymbolTableRecord
100
AcDbLayerTableRecord
  2
10
 70
     0
 62
    10
  6
CONTINUOUS
  0
LAYER
  5
44
330
2
100
AcDbSymbolTableRecord
100
AcDbLayerTableRecord
  2
11
 70
     0
 62
    11
  6
CONTINUOUS
  0
LAYER
  5
45
330
2
100
AcDbSymbolTableRecord
100
AcDbLayerTableRecord
  2
12
 70
     0
 62
    12
  6
CONTINUOUS
  0
LAYER
  5
46
330
2
100
AcDbSymbolTableRecord
100
AcDbLayerTableRecord
  2
13
 70
     0
 62
    13
  6
CONTINUOUS
  0
LAYER
  5
47
330
2
100
AcDbSymbolTableRecord
100
AcDbLayerTableRecord
  2
14
 70
     0
 62
    14
  6
CONTINUOUS
  0
LAYER
  5
48
330
2
100
AcDbSymbolTableRecord
100
AcDbLayerTableRecord
  2
15
 70
     0
 62
    15
  6
CONTINUOUS
  0
LAYER
  5
49
330
2
100
AcDbSymbolTableRecord
100
AcDbLayerTableRecord
  2
16
 70
     0
 62
    16
  6
CONTINUOUS
  0
LAYER
  5
4A
330
2
100
AcDbSymbolTableRecord
100
AcDbLayerTableRecord
  2
17
 70
     0
 62
    17
  6
CONTINUOUS
  0
LAYER
  5
4B
330
2
100
AcDbSymbolTableRecord
100
AcDbLayerTableRecord
  2
18
 70
     0
 62
    18
  6
CONTINUOUS
  0
LAYER
  5
4C
330
2
100
AcDbSymbolTableRecord
100
AcDbLayerTableRecord
  2
19
 70
     0
 62
    19
  6
CONTINUOUS
  0
LAYER
  5
4D
330
2
100
AcDbSymbolTableRecord
100
AcDbLayerTableRecord
  2
20
 70
     0
 62
    20
  6
CONTINUOUS
  0
LAYER
  5
4E
330
2
100
AcDbSymbolTableRecord
100
AcDbLayerTableRecord
  2
21
 70
     0
 62
    21
  6
CONTINUOUS
  0
LAYER
  5
4F
330
2
100
AcDbSymbolTableRecord
100
AcDbLayerTableRecord
  2
22
 70
     0
 62
    22
  6
CONTINUOUS
  0
LAYER
  5
50
330
2
100
AcDbSymbolTableRecord
100
AcDbLayerTableRecord
  2
23
 70
     0
 62
    23
  6
CONTINUOUS
  0
LAYER
  5
51
330
2
100
AcDbSymbolTableRecord
100
AcDbLayerTableRecord
  2
24
 70
     0
 62
    24
  6
CONTINUOUS
  0
LAYER
  5
52
330
2
100
AcDbSymbolTableRecord
100
AcDbLayerTableRecord
  2
25
 70
     0
 62
    25
  6
CONTINUOUS
  0
LAYER
  5
53
330
2
100
AcDbSymbolTableRecord
100
AcDbLayerTableRecord
  2
26
 70
     0
 62
    26
  6
CONTINUOUS
  0
LAYER
  5
54
330
2
100
AcDbSymbolTableRecord
100
AcDbLayerTableRecord
  2
27
 70
     0
 62
    27
  6
CONTINUOUS
  0
LAYER
  5
55
330
2
100
AcDbSymbolTableRecord
100
AcDbLayerTableRecord
  2
28
 70
     0
 62
    28
  6
CONTINUOUS
  0
LAYER
  5
56
330
2
100
AcDbSymbolTableRecord
100
AcDbLayerTableRecord
  2
29
 70
     0
 62
    29
  6
CONTINUOUS
  0
LAYER
  5
57
330
2
100
AcDbSymbolTableRecord
100
AcDbLayerTableRecord
  2
30
 70
     0
 62
    30
  6
CONTINUOUS
  0
LAYER
  5
58
330
2
100
AcDbSymbolTableRecord
100
AcDbLayerTableRecord
  2
31
 70
     0
 62
    31
  6
CONTINUOUS
  0
LAYER
  5
59
330
2
100
AcDbSymbolTableRecord
100
AcDbLayerTableRecord
  2
32
 70
     0
 62
    32
  6
CONTINUOUS
  0
LAYER
  5
5A
330
2
100
AcDbSymbolTableRecord
100
AcDbLayerTableRecord
  2
33
 70
     0
 62
    33
  6
CONTINUOUS
  0
LAYER
  5
5B
330
2
100
AcDbSymbolTableRecord
100
AcDbLayerTableRecord
  2
34
 70
     0
 62
    34
  6
CONTINUOUS
  0
LAYER
  5
5C
330
2
100
AcDbSymbolTableRecord
100
AcDbLayerTableRecord
  2
35
 70
     0
 62
    35
  6
CONTINUOUS
  0
LAYER
  5
5D
330
2
100
AcDbSymbolTableRecord
100
AcDbLayerTableRecord
  2
36
 70
     0
 62
    36
  6
CONTINUOUS
  0
LAYER
  5
5E
330
2
100
AcDbSymbolTableRecord
100
AcDbLayerTableRecord
  2
37
 70
     0
 62
    37
  6
CONTINUOUS
  0
LAYER
  5
5F
330
2
100
AcDbSymbolTableRecord
100
AcDbLayerTableRecord
  2
38
 70
     0
 62
    38
  6
CONTINUOUS
  0
LAYER
  5
60
330
2
100
AcDbSymbolTableRecord
100
AcDbLayerTableRecord
  2
39
 70
     0
 62
    39
  6
CONTINUOUS
  0
LAYER
  5
61
330
2
100
AcDbSymbolTableRecord
100
AcDbLayerTableRecord
  2
40
 70
     0
 62
    40
  6
CONTINUOUS
  0
LAYER
  5
62
330
2
100
AcDbSymbolTableRecord
100
AcDbLayerTableRecord
  2
41
 70
     0
 62
    41
  6
CONTINUOUS
  0
LAYER
  5
63
330
2
100
AcDbSymbolTableRecord
100
AcDbLayerTableRecord
  2
42
 70
     0
 62
    42
  6
CONTINUOUS
  0
LAYER
  5
64
330
2
100
AcDbSymbolTableRecord
100
AcDbLayerTableRecord
  2
43
 70
     0
 62
    43
  6
CONTINUOUS
  0
LAYER
  5
65
330
2
100
AcDbSymbolTableRecord
100
AcDbLayerTableRecord
  2
44
 70
     0
 62
    44
  6
CONTINUOUS
  0
LAYER
  5
66
330
2
100
AcDbSymbolTableRecord
100
AcDbLayerTableRecord
  2
45
 70
     0
 62
    45
  6
CONTINUOUS
  0
LAYER
  5
67
330
2
100
AcDbSymbolTableRecord
100
AcDbLayerTableRecord
  2
46
 70
     0
 62
    46
  6
CONTINUOUS
  0
LAYER
  5
68
330
2
100
AcDbSymbolTableRecord
100
AcDbLayerTableRecord
  2
47
 70
     0
 62
    47
  6
CONTINUOUS
  0
LAYER
  5
69
330
2
100
AcDbSymbolTableRecord
100
AcDbLayerTableRecord
  2
48
 70
     0
 62
    48
  6
CONTINUOUS
  0
LAYER
  5
6A
330
2
100
AcDbSymbolTableRecord
100
AcDbLayerTableRecord
  2
49
 70
     0
 62
    49
  6
CONTINUOUS
  0
LAYER
  5
6B
330
2
100
AcDbSymbolTableRecord
100
AcDbLayerTableRecord
  2
50
 70
     0
 62
    50
  6
CONTINUOUS
  0
LAYER
  5
6C
330
2
100
AcDbSymbolTableRecord
100
AcDbLayerTableRecord
  2
51
 70
     0
 62
    51
  6
CONTINUOUS
  0
LAYER
  5
6D
330
2
100
AcDbSymbolTableRecord
100
AcDbLayerTableRecord
  2
52
 70
     0
 62
    52
  6
CONTINUOUS
  0
LAYER
  5
6E
330
2
100
AcDbSymbolTableRecord
100
AcDbLayerTableRecord
  2
53
 70
     0
 62
    53
  6
CONTINUOUS
  0
LAYER
  5
6F
330
2
100
AcDbSymbolTableRecord
100
AcDbLayerTableRecord
  2
54
 70
     0
 62
    54
  6
CONTINUOUS
  0
LAYER
  5
70
330
2
100
AcDbSymbolTableRecord
100
AcDbLayerTableRecord
  2
55
 70
     0
 62
    55
  6
CONTINUOUS
  0
LAYER
  5
71
330
2
100
AcDbSymbolTableRecord
100
AcDbLayerTableRecord
  2
56
 70
     0
 62
    56
  6
CONTINUOUS
  0
LAYER
  5
72
330
2
100
AcDbSymbolTableRecord
100
AcDbLayerTableRecord
  2
57
 70
     0
 62
    57
  6
CONTINUOUS
  0
LAYER
  5
73
330
2
100
AcDbSymbolTableRecord
100
AcDbLayerTableRecord
  2
58
 70
     0
 62
    58
  6
CONTINUOUS
  0
LAYER
  5
74
330
2
100
AcDbSymbolTableRecord
100
AcDbLayerTableRecord
  2
59
 70
     0
 62
    59
  6
CONTINUOUS
  0
LAYER
  5
75
330
2
100
AcDbSymbolTableRecord
100
AcDbLayerTableRecord
  2
60
 70
     0
 62
    60
  6
CONTINUOUS
  0
LAYER
  5
76
330
2
100
AcDbSymbolTableRecord
100
AcDbLayerTableRecord
  2
61
 70
     0
 62
    61
  6
CONTINUOUS
  0
LAYER
  5
77
330
2
100
AcDbSymbolTableRecord
100
AcDbLayerTableRecord
  2
62
 70
     0
 62
    62
  6
CONTINUOUS
  0
LAYER
  5
78
330
2
100
AcDbSymbolTableRecord
100
AcDbLayerTableRecord
  2
63
 70
     0
 62
    63
  6
CONTINUOUS
  0
LAYER
  5
79
330
2
100
AcDbSymbolTableRecord
100
AcDbLayerTableRecord
  2
64
 70
     0
 62
    64
  6
CONTINUOUS
  0
LAYER
  5
7A
330
2
100
AcDbSymbolTableRecord
100
AcDbLayerTableRecord
  2
65
 70
     0
 62
    65
  6
CONTINUOUS
  0
LAYER
  5
7B
330
2
100
AcDbSymbolTableRecord
100
AcDbLayerTableRecord
  2
66
 70
     0
 62
    66
  6
CONTINUOUS
  0
LAYER
  5
7C
330
2
100
AcDbSymbolTableRecord
100
AcDbLayerTableRecord
  2
67
 70
     0
 62
    67
  6
CONTINUOUS
  0
LAYER
  5
7D
330
2
100
AcDbSymbolTableRecord
100
AcDbLayerTableRecord
  2
68
 70
     0
 62
    68
  6
CONTINUOUS
  0
LAYER
  5
7E
330
2
100
AcDbSymbolTableRecord
100
AcDbLayerTableRecord
  2
69
 70
     0
 62
    69
  6
CONTINUOUS
  0
LAYER
  5
7F
330
2
100
AcDbSymbolTableRecord
100
AcDbLayerTableRecord
  2
70
 70
     0
 62
    70
  6
CONTINUOUS
  0
LAYER
  5
80
330
2
100
AcDbSymbolTableRecord
100
AcDbLayerTableRecord
  2
71
 70
     0
 62
    71
  6
CONTINUOUS
  0
LAYER
  5
81
330
2
100
AcDbSymbolTableRecord
100
AcDbLayerTableRecord
  2
72
 70
     0
 62
    72
  6
CONTINUOUS
  0
LAYER
  5
82
330
2
100
AcDbSymbolTableRecord
100
AcDbLayerTableRecord
  2
73
 70
     0
 62
    73
  6
CONTINUOUS
  0
LAYER
  5
83
330
2
100
AcDbSymbolTableRecord
100
AcDbLayerTableRecord
  2
74
 70
     0
 62
    74
  6
CONTINUOUS
  0
LAYER
  5
84
330
2
100
AcDbSymbolTableRecord
100
AcDbLayerTableRecord
  2
75
 70
     0
 62
    75
  6
CONTINUOUS
  0
LAYER
  5
85
330
2
100
AcDbSymbolTableRecord
100
AcDbLayerTableRecord
  2
76
 70
     0
 62
    76
  6
CONTINUOUS
  0
LAYER
  5
86
330
2
100
AcDbSymbolTableRecord
100
AcDbLayerTableRecord
  2
77
 70
     0
 62
    77
  6
CONTINUOUS
  0
LAYER
  5
87
330
2
100
AcDbSymbolTableRecord
100
AcDbLayerTableRecord
  2
78
 70
     0
 62
    78
  6
CONTINUOUS
  0
LAYER
  5
88
330
2
100
AcDbSymbolTableRecord
100
AcDbLayerTableRecord
  2
79
 70
     0
 62
    79
  6
CONTINUOUS
  0
LAYER
  5
89
330
2
100
AcDbSymbolTableRecord
100
AcDbLayerTableRecord
  2
80
 70
     0
 62
    80
  6
CONTINUOUS
  0
LAYER
  5
8A
330
2
100
AcDbSymbolTableRecord
100
AcDbLayerTableRecord
  2
81
 70
     0
 62
    81
  6
CONTINUOUS
  0
LAYER
  5
8B
330
2
100
AcDbSymbolTableRecord
100
AcDbLayerTableRecord
  2
82
 70
     0
 62
    82
  6
CONTINUOUS
  0
LAYER
  5
8C
330
2
100
AcDbSymbolTableRecord
100
AcDbLayerTableRecord
  2
83
 70
     0
 62
    83
  6
CONTINUOUS
  0
LAYER
  5
8D
330
2
100
AcDbSymbolTableRecord
100
AcDbLayerTableRecord
  2
84
 70
     0
 62
    84
  6
CONTINUOUS
  0
LAYER
  5
8E
330
2
100
AcDbSymbolTableRecord
100
AcDbLayerTableRecord
  2
85
 70
     0
 62
    85
  6
CONTINUOUS
  0
LAYER
  5
8F
330
2
100
AcDbSymbolTableRecord
100
AcDbLayerTableRecord
  2
86
 70
     0
 62
    86
  6
CONTINUOUS
  0
LAYER
  5
90
330
2
100
AcDbSymbolTableRecord
100
AcDbLayerTableRecord
  2
87
 70
     0
 62
    87
  6
CONTINUOUS
  0
LAYER
  5
91
330
2
100
AcDbSymbolTableRecord
100
AcDbLayerTableRecord
  2
88
 70
     0
 62
    88
  6
CONTINUOUS
  0
LAYER
  5
92
330
2
100
AcDbSymbolTableRecord
100
AcDbLayerTableRecord
  2
89
 70
     0
 62
    89
  6
CONTINUOUS
  0
LAYER
  5
93
330
2
100
AcDbSymbolTableRecord
100
AcDbLayerTableRecord
  2
90
 70
     0
 62
    90
  6
CONTINUOUS
  0
LAYER
  5
94
330
2
100
AcDbSymbolTableRecord
100
AcDbLayerTableRecord
  2
91
 70
     0
 62
    91
  6
CONTINUOUS
  0
LAYER
  5
95
330
2
100
AcDbSymbolTableRecord
100
AcDbLayerTableRecord
  2
92
 70
     0
 62
    92
  6
CONTINUOUS
  0
LAYER
  5
96
330
2
100
AcDbSymbolTableRecord
100
AcDbLayerTableRecord
  2
93
 70
     0
 62
    93
  6
CONTINUOUS
  0
LAYER
  5
97
330
2
100
AcDbSymbolTableRecord
100
AcDbLayerTableRecord
  2
94
 70
     0
 62
    94
  6
CONTINUOUS
  0
LAYER
  5
98
330
2
100
AcDbSymbolTableRecord
100
AcDbLayerTableRecord
  2
95
 70
     0
 62
    95
  6
CONTINUOUS
  0
LAYER
  5
99
330
2
100
AcDbSymbolTableRecord
100
AcDbLayerTableRecord
  2
96
 70
     0
 62
    96
  6
CONTINUOUS
  0
LAYER
  5
9A
330
2
100
AcDbSymbolTableRecord
100
AcDbLayerTableRecord
  2
97
 70
     0
 62
    97
  6
CONTINUOUS
  0
LAYER
  5
9B
330
2
100
AcDbSymbolTableRecord
100
AcDbLayerTableRecord
  2
98
 70
     0
 62
    98
  6
CONTINUOUS
  0
LAYER
  5
9C
330
2
100
AcDbSymbolTableRecord
100
AcDbLayerTableRecord
  2
99
 70
     0
 62
    99
  6
CONTINUOUS
  0
LAYER
  5
9D
330
2
100
AcDbSymbolTableRecord
100
AcDbLayerTableRecord
  2
100
 70
     0
 62
   100
  6
CONTINUOUS
  0
LAYER
  5
9E
330
2
100
AcDbSymbolTableRecord
100
AcDbLayerTableRecord
  2
101
 70
     0
 62
   101
  6
CONTINUOUS
  0
LAYER
  5
9F
330
2
100
AcDbSymbolTableRecord
100
AcDbLayerTableRecord
  2
102
 70
     0
 62
   102
  6
CONTINUOUS
  0
LAYER
  5
A0
330
2
100
AcDbSymbolTableRecord
100
AcDbLayerTableRecord
  2
103
 70
     0
 62
   103
  6
CONTINUOUS
  0
LAYER
  5
A1
330
2
100
AcDbSymbolTableRecord
100
AcDbLayerTableRecord
  2
104
 70
     0
 62
   104
  6
CONTINUOUS
  0
LAYER
  5
A2
330
2
100
AcDbSymbolTableRecord
100
AcDbLayerTableRecord
  2
105
 70
     0
 62
   105
  6
CONTINUOUS
  0
LAYER
  5
A3
330
2
100
AcDbSymbolTableRecord
100
AcDbLayerTableRecord
  2
106
 70
     0
 62
   106
  6
CONTINUOUS
  0
LAYER
  5
A4
330
2
100
AcDbSymbolTableRecord
100
AcDbLayerTableRecord
  2
107
 70
     0
 62
   107
  6
CONTINUOUS
  0
LAYER
  5
A5
330
2
100
AcDbSymbolTableRecord
100
AcDbLayerTableRecord
  2
108
 70
     0
 62
   108
  6
CONTINUOUS
  0
LAYER
  5
A6
330
2
100
AcDbSymbolTableRecord
100
AcDbLayerTableRecord
  2
109
 70
     0
 62
   109
  6
CONTINUOUS
  0
LAYER
  5
A7
330
2
100
AcDbSymbolTableRecord
100
AcDbLayerTableRecord
  2
110
 70
     0
 62
   110
  6
CONTINUOUS
  0
LAYER
  5
A8
330
2
100
AcDbSymbolTableRecord
100
AcDbLayerTableRecord
  2
111
 70
     0
 62
   111
  6
CONTINUOUS
  0
LAYER
  5
A9
330
2
100
AcDbSymbolTableRecord
100
AcDbLayerTableRecord
  2
112
 70
     0
 62
   112
  6
CONTINUOUS
  0
LAYER
  5
AA
330
2
100
AcDbSymbolTableRecord
100
AcDbLayerTableRecord
  2
113
 70
     0
 62
   113
  6
CONTINUOUS
  0
LAYER
  5
AB
330
2
100
AcDbSymbolTableRecord
100
AcDbLayerTableRecord
  2
114
 70
     0
 62
   114
  6
CONTINUOUS
  0
LAYER
  5
AC
330
2
100
AcDbSymbolTableRecord
100
AcDbLayerTableRecord
  2
115
 70
     0
 62
   115
  6
CONTINUOUS
  0
LAYER
  5
AD
330
2
100
AcDbSymbolTableRecord
100
AcDbLayerTableRecord
  2
116
 70
     0
 62
   116
  6
CONTINUOUS
  0
LAYER
  5
AE
330
2
100
AcDbSymbolTableRecord
100
AcDbLayerTableRecord
  2
117
 70
     0
 62
   117
  6
CONTINUOUS
  0
LAYER
  5
AF
330
2
100
AcDbSymbolTableRecord
100
AcDbLayerTableRecord
  2
118
 70
     0
 62
   118
  6
CONTINUOUS
  0
LAYER
  5
B0
330
2
100
AcDbSymbolTableRecord
100
AcDbLayerTableRecord
  2
119
 70
     0
 62
   119
  6
CONTINUOUS
  0
LAYER
  5
B1
330
2
100
AcDbSymbolTableRecord
100
AcDbLayerTableRecord
  2
120
 70
     0
 62
   120
  6
CONTINUOUS
  0
LAYER
  5
B2
330
2
100
AcDbSymbolTableRecord
100
AcDbLayerTableRecord
  2
121
 70
     0
 62
   121
  6
CONTINUOUS
  0
LAYER
  5
B3
330
2
100
AcDbSymbolTableRecord
100
AcDbLayerTableRecord
  2
122
 70
     0
 62
   122
  6
CONTINUOUS
  0
LAYER
  5
B4
330
2
100
AcDbSymbolTableRecord
100
AcDbLayerTableRecord
  2
123
 70
     0
 62
   123
  6
CONTINUOUS
  0
LAYER
  5
B5
330
2
100
AcDbSymbolTableRecord
100
AcDbLayerTableRecord
  2
124
 70
     0
 62
   124
  6
CONTINUOUS
  0
LAYER
  5
B6
330
2
100
AcDbSymbolTableRecord
100
AcDbLayerTableRecord
  2
125
 70
     0
 62
   125
  6
CONTINUOUS
  0
LAYER
  5
B7
330
2
100
AcDbSymbolTableRecord
100
AcDbLayerTableRecord
  2
126
 70
     0
 62
   126
  6
CONTINUOUS
  0
LAYER
  5
B8
330
2
100
AcDbSymbolTableRecord
100
AcDbLayerTableRecord
  2
127
 70
     0
 62
   127
  6
CONTINUOUS
  0
LAYER
  5
B9
330
2
100
AcDbSymbolTableRecord
100
AcDbLayerTableRecord
  2
128
 70
     0
 62
   128
  6
CONTINUOUS
  0
LAYER
  5
BA
330
2
100
AcDbSymbolTableRecord
100
AcDbLayerTableRecord
  2
129
 70
     0
 62
   129
  6
CONTINUOUS
  0
LAYER
  5
BB
330
2
100
AcDbSymbolTableRecord
100
AcDbLayerTableRecord
  2
130
 70
     0
 62
   130
  6
CONTINUOUS
  0
LAYER
  5
BC
330
2
100
AcDbSymbolTableRecord
100
AcDbLayerTableRecord
  2
131
 70
     0
 62
   131
  6
CONTINUOUS
  0
LAYER
  5
BD
330
2
100
AcDbSymbolTableRecord
100
AcDbLayerTableRecord
  2
132
 70
     0
 62
   132
  6
CONTINUOUS
  0
LAYER
  5
BE
330
2
100
AcDbSymbolTableRecord
100
AcDbLayerTableRecord
  2
133
 70
     0
 62
   133
  6
CONTINUOUS
  0
LAYER
  5
BF
330
2
100
AcDbSymbolTableRecord
100
AcDbLayerTableRecord
  2
134
 70
     0
 62
   134
  6
CONTINUOUS
  0
LAYER
  5
C0
330
2
100
AcDbSymbolTableRecord
100
AcDbLayerTableRecord
  2
135
 70
     0
 62
   135
  6
CONTINUOUS
  0
LAYER
  5
C1
330
2
100
AcDbSymbolTableRecord
100
AcDbLayerTableRecord
  2
136
 70
     0
 62
   136
  6
CONTINUOUS
  0
LAYER
  5
C2
330
2
100
AcDbSymbolTableRecord
100
AcDbLayerTableRecord
  2
137
 70
     0
 62
   137
  6
CONTINUOUS
  0
LAYER
  5
C3
330
2
100
AcDbSymbolTableRecord
100
AcDbLayerTableRecord
  2
138
 70
     0
 62
   138
  6
CONTINUOUS
  0
LAYER
  5
C4
330
2
100
AcDbSymbolTableRecord
100
AcDbLayerTableRecord
  2
139
 70
     0
 62
   139
  6
CONTINUOUS
  0
LAYER
  5
C5
330
2
100
AcDbSymbolTableRecord
100
AcDbLayerTableRecord
  2
140
 70
     0
 62
   140
  6
CONTINUOUS
  0
LAYER
  5
C6
330
2
100
AcDbSymbolTableRecord
100
AcDbLayerTableRecord
  2
141
 70
     0
 62
   141
  6
CONTINUOUS
  0
LAYER
  5
C7
330
2
100
AcDbSymbolTableRecord
100
AcDbLayerTableRecord
  2
142
 70
     0
 62
   142
  6
CONTINUOUS
  0
LAYER
  5
C8
330
2
100
AcDbSymbolTableRecord
100
AcDbLayerTableRecord
  2
143
 70
     0
 62
   143
  6
CONTINUOUS
  0
LAYER
  5
C9
330
2
100
AcDbSymbolTableRecord
100
AcDbLayerTableRecord
  2
144
 70
     0
 62
   144
  6
CONTINUOUS
  0
LAYER
  5
CA
330
2
100
AcDbSymbolTableRecord
100
AcDbLayerTableRecord
  2
145
 70
     0
 62
   145
  6
CONTINUOUS
  0
LAYER
  5
CB
330
2
100
AcDbSymbolTableRecord
100
AcDbLayerTableRecord
  2
146
 70
     0
 62
   146
  6
CONTINUOUS
  0
LAYER
  5
CC
330
2
100
AcDbSymbolTableRecord
100
AcDbLayerTableRecord
  2
147
 70
     0
 62
   147
  6
CONTINUOUS
  0
LAYER
  5
CD
330
2
100
AcDbSymbolTableRecord
100
AcDbLayerTableRecord
  2
148
 70
     0
 62
   148
  6
CONTINUOUS
  0
LAYER
  5
CE
330
2
100
AcDbSymbolTableRecord
100
AcDbLayerTableRecord
  2
149
 70
     0
 62
   149
  6
CONTINUOUS
  0
LAYER
  5
CF
330
2
100
AcDbSymbolTableRecord
100
AcDbLayerTableRecord
  2
150
 70
     0
 62
   150
  6
CONTINUOUS
  0
LAYER
  5
D0
330
2
100
AcDbSymbolTableRecord
100
AcDbLayerTableRecord
  2
151
 70
     0
 62
   151
  6
CONTINUOUS
  0
LAYER
  5
D1
330
2
100
AcDbSymbolTableRecord
100
AcDbLayerTableRecord
  2
152
 70
     0
 62
   152
  6
CONTINUOUS
  0
LAYER
  5
D2
330
2
100
AcDbSymbolTableRecord
100
AcDbLayerTableRecord
  2
153
 70
     0
 62
   153
  6
CONTINUOUS
  0
LAYER
  5
D3
330
2
100
AcDbSymbolTableRecord
100
AcDbLayerTableRecord
  2
154
 70
     0
 62
   154
  6
CONTINUOUS
  0
LAYER
  5
D4
330
2
100
AcDbSymbolTableRecord
100
AcDbLayerTableRecord
  2
155
 70
     0
 62
   155
  6
CONTINUOUS
  0
LAYER
  5
D5
330
2
100
AcDbSymbolTableRecord
100
AcDbLayerTableRecord
  2
156
 70
     0
 62
   156
  6
CONTINUOUS
  0
LAYER
  5
D6
330
2
100
AcDbSymbolTableRecord
100
AcDbLayerTableRecord
  2
157
 70
     0
 62
   157
  6
CONTINUOUS
  0
LAYER
  5
D7
330
2
100
AcDbSymbolTableRecord
100
AcDbLayerTableRecord
  2
158
 70
     0
 62
   158
  6
CONTINUOUS
  0
LAYER
  5
D8
330
2
100
AcDbSymbolTableRecord
100
AcDbLayerTableRecord
  2
159
 70
     0
 62
   159
  6
CONTINUOUS
  0
LAYER
  5
D9
330
2
100
AcDbSymbolTableRecord
100
AcDbLayerTableRecord
  2
160
 70
     0
 62
   160
  6
CONTINUOUS
  0
LAYER
  5
DA
330
2
100
AcDbSymbolTableRecord
100
AcDbLayerTableRecord
  2
161
 70
     0
 62
   161
  6
CONTINUOUS
  0
LAYER
  5
DB
330
2
100
AcDbSymbolTableRecord
100
AcDbLayerTableRecord
  2
162
 70
     0
 62
   162
  6
CONTINUOUS
  0
LAYER
  5
DC
330
2
100
AcDbSymbolTableRecord
100
AcDbLayerTableRecord
  2
163
 70
     0
 62
   163
  6
CONTINUOUS
  0
LAYER
  5
DD
330
2
100
AcDbSymbolTableRecord
100
AcDbLayerTableRecord
  2
164
 70
     0
 62
   164
  6
CONTINUOUS
  0
LAYER
  5
DE
330
2
100
AcDbSymbolTableRecord
100
AcDbLayerTableRecord
  2
165
 70
     0
 62
   165
  6
CONTINUOUS
  0
LAYER
  5
DF
330
2
100
AcDbSymbolTableRecord
100
AcDbLayerTableRecord
  2
166
 70
     0
 62
   166
  6
CONTINUOUS
  0
LAYER
  5
E0
330
2
100
AcDbSymbolTableRecord
100
AcDbLayerTableRecord
  2
167
 70
     0
 62
   167
  6
CONTINUOUS
  0
LAYER
  5
E1
330
2
100
AcDbSymbolTableRecord
100
AcDbLayerTableRecord
  2
168
 70
     0
 62
   168
  6
CONTINUOUS
  0
LAYER
  5
E2
330
2
100
AcDbSymbolTableRecord
100
AcDbLayerTableRecord
  2
169
 70
     0
 62
   169
  6
CONTINUOUS
  0
LAYER
  5
E3
330
2
100
AcDbSymbolTableRecord
100
AcDbLayerTableRecord
  2
170
 70
     0
 62
   170
  6
CONTINUOUS
  0
LAYER
  5
E4
330
2
100
AcDbSymbolTableRecord
100
AcDbLayerTableRecord
  2
171
 70
     0
 62
   171
  6
CONTINUOUS
  0
LAYER
  5
E5
330
2
100
AcDbSymbolTableRecord
100
AcDbLayerTableRecord
  2
172
 70
     0
 62
   172
  6
CONTINUOUS
  0
LAYER
  5
E6
330
2
100
AcDbSymbolTableRecord
100
AcDbLayerTableRecord
  2
173
 70
     0
 62
   173
  6
CONTINUOUS
  0
LAYER
  5
E7
330
2
100
AcDbSymbolTableRecord
100
AcDbLayerTableRecord
  2
174
 70
     0
 62
   174
  6
CONTINUOUS
  0
LAYER
  5
E8
330
2
100
AcDbSymbolTableRecord
100
AcDbLayerTableRecord
  2
175
 70
     0
 62
   175
  6
CONTINUOUS
  0
LAYER
  5
E9
330
2
100
AcDbSymbolTableRecord
100
AcDbLayerTableRecord
  2
176
 70
     0
 62
   176
  6
CONTINUOUS
  0
LAYER
  5
EA
330
2
100
AcDbSymbolTableRecord
100
AcDbLayerTableRecord
  2
177
 70
     0
 62
   177
  6
CONTINUOUS
  0
LAYER
  5
EB
330
2
100
AcDbSymbolTableRecord
100
AcDbLayerTableRecord
  2
178
 70
     0
 62
   178
  6
CONTINUOUS
  0
LAYER
  5
EC
330
2
100
AcDbSymbolTableRecord
100
AcDbLayerTableRecord
  2
179
 70
     0
 62
   179
  6
CONTINUOUS
  0
LAYER
  5
ED
330
2
100
AcDbSymbolTableRecord
100
AcDbLayerTableRecord
  2
180
 70
     0
 62
   180
  6
CONTINUOUS
  0
LAYER
  5
EE
330
2
100
AcDbSymbolTableRecord
100
AcDbLayerTableRecord
  2
181
 70
     0
 62
   181
  6
CONTINUOUS
  0
LAYER
  5
EF
330
2
100
AcDbSymbolTableRecord
100
AcDbLayerTableRecord
  2
182
 70
     0
 62
   182
  6
CONTINUOUS
  0
LAYER
  5
F0
330
2
100
AcDbSymbolTableRecord
100
AcDbLayerTableRecord
  2
183
 70
     0
 62
   183
  6
CONTINUOUS
  0
LAYER
  5
F1
330
2
100
AcDbSymbolTableRecord
100
AcDbLayerTableRecord
  2
184
 70
     0
 62
   184
  6
CONTINUOUS
  0
LAYER
  5
F2
330
2
100
AcDbSymbolTableRecord
100
AcDbLayerTableRecord
  2
185
 70
     0
 62
   185
  6
CONTINUOUS
  0
LAYER
  5
F3
330
2
100
AcDbSymbolTableRecord
100
AcDbLayerTableRecord
  2
186
 70
     0
 62
   186
  6
CONTINUOUS
  0
LAYER
  5
F4
330
2
100
AcDbSymbolTableRecord
100
AcDbLayerTableRecord
  2
187
 70
     0
 62
   187
  6
CONTINUOUS
  0
LAYER
  5
F5
330
2
100
AcDbSymbolTableRecord
100
AcDbLayerTableRecord
  2
188
 70
     0
 62
   188
  6
CONTINUOUS
  0
LAYER
  5
F6
330
2
100
AcDbSymbolTableRecord
100
AcDbLayerTableRecord
  2
189
 70
     0
 62
   189
  6
CONTINUOUS
  0
LAYER
  5
F7
330
2
100
AcDbSymbolTableRecord
100
AcDbLayerTableRecord
  2
190
 70
     0
 62
   190
  6
CONTINUOUS
  0
LAYER
  5
F8
330
2
100
AcDbSymbolTableRecord
100
AcDbLayerTableRecord
  2
191
 70
     0
 62
   191
  6
CONTINUOUS
  0
LAYER
  5
F9
330
2
100
AcDbSymbolTableRecord
100
AcDbLayerTableRecord
  2
192
 70
     0
 62
   192
  6
CONTINUOUS
  0
LAYER
  5
FA
330
2
100
AcDbSymbolTableRecord
100
AcDbLayerTableRecord
  2
193
 70
     0
 62
   193
  6
CONTINUOUS
  0
LAYER
  5
FB
330
2
100
AcDbSymbolTableRecord
100
AcDbLayerTableRecord
  2
194
 70
     0
 62
   194
  6
CONTINUOUS
  0
LAYER
  5
FC
330
2
100
AcDbSymbolTableRecord
100
AcDbLayerTableRecord
  2
195
 70
     0
 62
   195
  6
CONTINUOUS
  0
LAYER
  5
FD
330
2
100
AcDbSymbolTableRecord
100
AcDbLayerTableRecord
  2
196
 70
     0
 62
   196
  6
CONTINUOUS
  0
LAYER
  5
FE
330
2
100
AcDbSymbolTableRecord
100
AcDbLayerTableRecord
  2
197
 70
     0
 62
   197
  6
CONTINUOUS
  0
LAYER
  5
FF
330
2
100
AcDbSymbolTableRecord
100
AcDbLayerTableRecord
  2
198
 70
     0
 62
   198
  6
CONTINUOUS
  0
LAYER
  5
100
330
2
100
AcDbSymbolTableRecord
100
AcDbLayerTableRecord
  2
199
 70
     0
 62
   199
  6
CONTINUOUS
  0
LAYER
  5
101
330
2
100
AcDbSymbolTableRecord
100
AcDbLayerTableRecord
  2
200
 70
     0
 62
   200
  6
CONTINUOUS
  0
LAYER
  5
102
330
2
100
AcDbSymbolTableRecord
100
AcDbLayerTableRecord
  2
201
 70
     0
 62
   201
  6
CONTINUOUS
  0
LAYER
  5
103
330
2
100
AcDbSymbolTableRecord
100
AcDbLayerTableRecord
  2
202
 70
     0
 62
   202
  6
CONTINUOUS
  0
LAYER
  5
104
330
2
100
AcDbSymbolTableRecord
100
AcDbLayerTableRecord
  2
203
 70
     0
 62
   203
  6
CONTINUOUS
  0
LAYER
  5
105
330
2
100
AcDbSymbolTableRecord
100
AcDbLayerTableRecord
  2
204
 70
     0
 62
   204
  6
CONTINUOUS
  0
LAYER
  5
106
330
2
100
AcDbSymbolTableRecord
100
AcDbLayerTableRecord
  2
205
 70
     0
 62
   205
  6
CONTINUOUS
  0
LAYER
  5
107
330
2
100
AcDbSymbolTableRecord
100
AcDbLayerTableRecord
  2
206
 70
     0
 62
   206
  6
CONTINUOUS
  0
LAYER
  5
108
330
2
100
AcDbSymbolTableRecord
100
AcDbLayerTableRecord
  2
207
 70
     0
 62
   207
  6
CONTINUOUS
  0
LAYER
  5
109
330
2
100
AcDbSymbolTableRecord
100
AcDbLayerTableRecord
  2
208
 70
     0
 62
   208
  6
CONTINUOUS
  0
LAYER
  5
10A
330
2
100
AcDbSymbolTableRecord
100
AcDbLayerTableRecord
  2
209
 70
     0
 62
   209
  6
CONTINUOUS
  0
LAYER
  5
10B
330
2
100
AcDbSymbolTableRecord
100
AcDbLayerTableRecord
  2
210
 70
     0
 62
   210
  6
CONTINUOUS
  0
LAYER
  5
10C
330
2
100
AcDbSymbolTableRecord
100
AcDbLayerTableRecord
  2
211
 70
     0
 62
   211
  6
CONTINUOUS
  0
LAYER
  5
10D
330
2
100
AcDbSymbolTableRecord
100
AcDbLayerTableRecord
  2
212
 70
     0
 62
   212
  6
CONTINUOUS
  0
LAYER
  5
10E
330
2
100
AcDbSymbolTableRecord
100
AcDbLayerTableRecord
  2
213
 70
     0
 62
   213
  6
CONTINUOUS
  0
LAYER
  5
10F
330
2
100
AcDbSymbolTableRecord
100
AcDbLayerTableRecord
  2
214
 70
     0
 62
   214
  6
CONTINUOUS
  0
LAYER
  5
110
330
2
100
AcDbSymbolTableRecord
100
AcDbLayerTableRecord
  2
215
 70
     0
 62
   215
  6
CONTINUOUS
  0
LAYER
  5
111
330
2
100
AcDbSymbolTableRecord
100
AcDbLayerTableRecord
  2
216
 70
     0
 62
   216
  6
CONTINUOUS
  0
LAYER
  5
112
330
2
100
AcDbSymbolTableRecord
100
AcDbLayerTableRecord
  2
217
 70
     0
 62
   217
  6
CONTINUOUS
  0
LAYER
  5
113
330
2
100
AcDbSymbolTableRecord
100
AcDbLayerTableRecord
  2
218
 70
     0
 62
   218
  6
CONTINUOUS
  0
LAYER
  5
114
330
2
100
AcDbSymbolTableRecord
100
AcDbLayerTableRecord
  2
219
 70
     0
 62
   219
  6
CONTINUOUS
  0
LAYER
  5
115
330
2
100
AcDbSymbolTableRecord
100
AcDbLayerTableRecord
  2
220
 70
     0
 62
   220
  6
CONTINUOUS
  0
LAYER
  5
116
330
2
100
AcDbSymbolTableRecord
100
AcDbLayerTableRecord
  2
221
 70
     0
 62
   221
  6
CONTINUOUS
  0
LAYER
  5
117
330
2
100
AcDbSymbolTableRecord
100
AcDbLayerTableRecord
  2
222
 70
     0
 62
   222
  6
CONTINUOUS
  0
LAYER
  5
118
330
2
100
AcDbSymbolTableRecord
100
AcDbLayerTableRecord
  2
223
 70
     0
 62
   223
  6
CONTINUOUS
  0
LAYER
  5
119
330
2
100
AcDbSymbolTableRecord
100
AcDbLayerTableRecord
  2
224
 70
     0
 62
   224
  6
CONTINUOUS
  0
LAYER
  5
11A
330
2
100
AcDbSymbolTableRecord
100
AcDbLayerTableRecord
  2
225
 70
     0
 62
   225
  6
CONTINUOUS
  0
LAYER
  5
11B
330
2
100
AcDbSymbolTableRecord
100
AcDbLayerTableRecord
  2
226
 70
     0
 62
   226
  6
CONTINUOUS
  0
LAYER
  5
11C
330
2
100
AcDbSymbolTableRecord
100
AcDbLayerTableRecord
  2
227
 70
     0
 62
   227
  6
CONTINUOUS
  0
LAYER
  5
11D
330
2
100
AcDbSymbolTableRecord
100
AcDbLayerTableRecord
  2
228
 70
     0
 62
   228
  6
CONTINUOUS
  0
LAYER
  5
11E
330
2
100
AcDbSymbolTableRecord
100
AcDbLayerTableRecord
  2
229
 70
     0
 62
   229
  6
CONTINUOUS
  0
LAYER
  5
11F
330
2
100
AcDbSymbolTableRecord
100
AcDbLayerTableRecord
  2
230
 70
     0
 62
   230
  6
CONTINUOUS
  0
LAYER
  5
120
330
2
100
AcDbSymbolTableRecord
100
AcDbLayerTableRecord
  2
231
 70
     0
 62
   231
  6
CONTINUOUS
  0
LAYER
  5
121
330
2
100
AcDbSymbolTableRecord
100
AcDbLayerTableRecord
  2
232
 70
     0
 62
   232
  6
CONTINUOUS
  0
LAYER
  5
122
330
2
100
AcDbSymbolTableRecord
100
AcDbLayerTableRecord
  2
233
 70
     0
 62
   233
  6
CONTINUOUS
  0
LAYER
  5
123
330
2
100
AcDbSymbolTableRecord
100
AcDbLayerTableRecord
  2
234
 70
     0
 62
   234
  6
CONTINUOUS
  0
LAYER
  5
124
330
2
100
AcDbSymbolTableRecord
100
AcDbLayerTableRecord
  2
235
 70
     0
 62
   235
  6
CONTINUOUS
  0
LAYER
  5
125
330
2
100
AcDbSymbolTableRecord
100
AcDbLayerTableRecord
  2
236
 70
     0
 62
   236
  6
CONTINUOUS
  0
LAYER
  5
126
330
2
100
AcDbSymbolTableRecord
100
AcDbLayerTableRecord
  2
237
 70
     0
 62
   237
  6
CONTINUOUS
  0
LAYER
  5
127
330
2
100
AcDbSymbolTableRecord
100
AcDbLayerTableRecord
  2
238
 70
     0
 62
   238
  6
CONTINUOUS
  0
LAYER
  5
128
330
2
100
AcDbSymbolTableRecord
100
AcDbLayerTableRecord
  2
239
 70
     0
 62
   239
  6
CONTINUOUS
  0
LAYER
  5
129
330
2
100
AcDbSymbolTableRecord
100
AcDbLayerTableRecord
  2
240
 70
     0
 62
   240
  6
CONTINUOUS
  0
LAYER
  5
12A
330
2
100
AcDbSymbolTableRecord
100
AcDbLayerTableRecord
  2
241
 70
     0
 62
   241
  6
CONTINUOUS
  0
LAYER
  5
12B
330
2
100
AcDbSymbolTableRecord
100
AcDbLayerTableRecord
  2
242
 70
     0
 62
   242
  6
CONTINUOUS
  0
LAYER
  5
12C
330
2
100
AcDbSymbolTableRecord
100
AcDbLayerTableRecord
  2
243
 70
     0
 62
   243
  6
CONTINUOUS
  0
LAYER
  5
12D
330
2
100
AcDbSymbolTableRecord
100
AcDbLayerTableRecord
  2
244
 70
     0
 62
   244
  6
CONTINUOUS
  0
LAYER
  5
12E
330
2
100
AcDbSymbolTableRecord
100
AcDbLayerTableRecord
  2
245
 70
     0
 62
   245
  6
CONTINUOUS
  0
LAYER
  5
12F
330
2
100
AcDbSymbolTableRecord
100
AcDbLayerTableRecord
  2
246
 70
     0
 62
   246
  6
CONTINUOUS
  0
LAYER
  5
130
330
2
100
AcDbSymbolTableRecord
100
AcDbLayerTableRecord
  2
247
 70
     0
 62
   247
  6
CONTINUOUS
  0
LAYER
  5
131
330
2
100
AcDbSymbolTableRecord
100
AcDbLayerTableRecord
  2
248
 70
     0
 62
   248
  6
CONTINUOUS
  0
LAYER
  5
132
330
2
100
AcDbSymbolTableRecord
100
AcDbLayerTableRecord
  2
249
 70
     0
 62
   249
  6
CONTINUOUS
  0
LAYER
  5
133
330
2
100
AcDbSymbolTableRecord
100
AcDbLayerTableRecord
  2
250
 70
     0
 62
   250
  6
CONTINUOUS
  0
LAYER
  5
134
330
2
100
AcDbSymbolTableRecord
100
AcDbLayerTableRecord
  2
251
 70
     0
 62
   251
  6
CONTINUOUS
  0
LAYER
  5
135
330
2
100
AcDbSymbolTableRecord
100
AcDbLayerTableRecord
  2
252
 70
     0
 62
   252
  6
CONTINUOUS
  0
LAYER
  5
136
330
2
100
AcDbSymbolTableRecord
100
AcDbLayerTableRecord
  2
253
 70
     0
 62
   253
  6
CONTINUOUS
  0
LAYER
  5
137
330
2
100
AcDbSymbolTableRecord
100
AcDbLayerTableRecord
  2
254
 70
     0
 62
   254
  6
CONTINUOUS
  0
LAYER
  5
138
330
2
100
AcDbSymbolTableRecord
100
AcDbLayerTableRecord
  2
255
 70
     0
 62
   255
  6
CONTINUOUS
  0
LAYER
  5
3A3B
330
2
100
AcDbSymbolTableRecord
100
AcDbLayerTableRecord
  2
DEFPOINTS
 70
     0
 62
     7
  6
CONTINUOUS
  0
ENDTAB
  0
TABLE
  2
STYLE
  5
3
330
0
100
AcDbSymbolTable
 70
     1
  0
STYLE
  5
11
330
3
100
AcDbSymbolTableRecord
100
AcDbTextStyleTableRecord
  2
STANDARD
 70
     0
 40
0.0
 41
1.0
 50
0.0
 71
     0
 42
0.2
  3
monotxt
  4

  0
ENDTAB
  0
TABLE
  2
VIEW
  5
6
330
0
100
AcDbSymbolTable
 70
     0
  0
ENDTAB
  0
TABLE
  2
UCS
  5
7
330
0
100
AcDbSymbolTable
 70
     0
  0
ENDTAB
  0
TABLE
  2
APPID
  5
9
330
0
100
AcDbSymbolTable
 70
     1
  0
APPID
  5
12
330
9
100
AcDbSymbolTableRecord
100
AcDbRegAppTableRecord
  2
ACAD
 70
     0
  0
ENDTAB
  0
TABLE
  2
DIMSTYLE
  5
A
330
0
100
AcDbSymbolTable
 70
     1
  0
DIMSTYLE
105
28F6
102
{ACAD_REACTORS
330
3A3A
102
}
330
A
100
AcDbSymbolTableRecord
100
AcDbDimStyleTableRecord
  2
STANDARD
 70
     0
  3

  4

  5

  6

  7

 40
1.0
 41
0.18
 42
0.0625
 43
0.38
 44
0.18
 45
0.0
 46
0.0
 47
0.0
 48
0.0
140
0.18
141
0.09
142
0.0
143
25.4
144
1.0
145
0.0
146
1.0
147
0.09
 71
     0
 72
     0
 73
     1
 74
     1
 75
     0
 76
     0
 77
     0
 78
     0
170
     0
171
     2
172
     0
173
     0
174
     0
175
     0
176
     0
177
     0
178
     0
270
     2
271
     4
272
     4
273
     2
274
     2
340
11
275
     0
280
     0
281
     0
282
     0
283
     1
284
     0
285
     0
286
     0
287
     3
288
     0
  0
ENDTAB
  0
TABLE
  2
BLOCK_RECORD
  5
1
330
0
100
AcDbSymbolTable
 70
     1
  0
BLOCK_RECORD
  5
1E
102
{ACAD_XDICTIONARY
360
3A8C
102
}
330
1
100
AcDbSymbolTableRecord
100
AcDbBlockTableRecord
  2
*MODEL_SPACE
  0
BLOCK_RECORD
  5
1A
102
{ACAD_XDICTIONARY
360
3A8A
102
}
330
1
100
AcDbSymbolTableRecord
100
AcDbBlockTableRecord
  2
*PAPER_SPACE
  0
BLOCK_RECORD
  5
3A3C
330
1
100
AcDbSymbolTableRecord
100
AcDbBlockTableRecord
  2
*D0
  0
ENDTAB
  0
ENDSEC
  0
SECTION
  2
BLOCKS
  0
BLOCK
  5
13B
330
1E
100
AcDbEntity
  8
0
100
AcDbBlockBegin
  2
*MODEL_SPACE
 70
     0
 10
0.0
 20
0.0
 30
0.0
  3
*MODEL_SPACE
  1

  0
ENDBLK
  5
13C
330
1E
100
AcDbEntity
  8
0
100
AcDbBlockEnd
  0
BLOCK
  5
139
330
1A
100
AcDbEntity
 67
     1
  8
0
100
AcDbBlockBegin
  2
*PAPER_SPACE
 70
     0
 10
0.0
 20
0.0
 30
0.0
  3
*PAPER_SPACE
  1

  0
ENDBLK
  5
13A
330
1A
100
AcDbEntity
 67
     1
  8
0
100
AcDbBlockEnd
  0
BLOCK
  5
3A47
330
3A3C
100
AcDbEntity
  8
0
100
AcDbBlockBegin
  2
*D0
 70
     1
 10
0.0
 20
0.0
 30
0.0
  3
*D0
  1

  0
LINE
  5
3A49
330
3A3C
100
AcDbEntity
  8
0
 62
     0
100
AcDbLine
 10
3.329551741361131
 20
6.531011900710126
 30
0.0
 11
3.329551741361131
 21
6.734881706942454
 31
0.0
  0
LINE
  5
3A4A
330
3A3C
100
AcDbEntity
  8
0
 62
     0
100
AcDbLine
 10
5.259550414195777
 20
6.531011900710126
 30
0.0
 11
5.259550414195777
 21
6.734881706942454
 31
0.0
  0
LINE
  5
3A4B
330
3A3C
100
AcDbEntity
  8
0
 62
     0
100
AcDbLine
 10
3.509551741361131
 20
6.554881706942454
 30
0.0
 11
3.694551077778454
 21
6.554881706942454
 31
0.0
  0
LINE
  5
3A4C
330
3A3C
100
AcDbEntity
  8
0
 62
     0
100
AcDbLine
 10
5.079550414195777
 20
6.554881706942454
 30
0.0
 11
4.894551077778453
 21
6.554881706942454
 31
0.0
  0
SOLID
  5
3A4D
330
3A3C
100
AcDbEntity
  8
0
 62
     0
100
AcDbTrace
 10
3.509551741361131
 20
6.584881706942455
 30
0.0
 11
3.509551741361131
 21
6.524881706942454
 31
0.0
 12
3.329551741361131
 22
6.554881706942454
 32
0.0
 13
3.329551741361131
 23
6.554881706942454
 33
0.0
  0
SOLID
  5
3A4E
330
3A3C
100
AcDbEntity
  8
0
 62
     0
100
AcDbTrace
 10
5.079550414195777
 20
6.584881706942455
 30
0.0
 11
5.079550414195777
 21
6.524881706942454
 31
0.0
 12
5.259550414195777
 22
6.554881706942454
 32
0.0
 13
5.259550414195777
 23
6.554881706942454
 33
0.0
  0
MTEXT
  5
3A4F
330
3A3C
100
AcDbEntity
  8
0
 62
     0
100
AcDbMText
 10
4.294551077778454
 20
6.554881706942454
 30
0.0
 40
0.18
 41
0.0
 71
     5
 72
     1
  1
\A1;1.9300
1001
ACAD
1000
MTEXTBEGIN
1070
    73
1070
     1
1070
    44
1040
1.0
1070
    74
1070
     0
1000
MTEXTEND
  0
POINT
  5
3A50
330
3A3C
100
AcDbEntity
  8
DEFPOINTS
 62
     0
100
AcDbPoint
 10
3.329551741361131
 20
6.468511900710126
 30
0.0
  0
POINT
  5
3A51
330
3A3C
100
AcDbEntity
  8
DEFPOINTS
 62
     0
100
AcDbPoint
 10
5.259550414195777
 20
6.468511900710126
 30
0.0
  0
POINT
  5
3A52
330
3A3C
100
AcDbEntity
  8
DEFPOINTS
 62
     0
100
AcDbPoint
 10
5.259550414195777
 20
6.554881706942454
 30
0.0
  0
ENDBLK
  5
3A48
330
3A3C
100
AcDbEntity
  8
0
100
AcDbBlockEnd
  0
ENDSEC
  0
SECTION
  2
ENTITIES
  0
LINE
  5
25A0
330
1E
100
AcDbEntity
  8
7
100
AcDbLine
 10
5.208951198054044
 20
5.638224763111701
 30
0.0
 11
4.631003008487114
 21
5.638224763111701
 31
0.0
  0
LINE
  5
25A1
330
1E
100
AcDbEntity
  8
7
100
AcDbLine
 10
5.208951198054044
 20
5.638224763111701
 30
0.0
 11
5.238850734865067
 21
5.638224763111701
 31
0.0
  0
LINE
  5
25A2
330
1E
100
AcDbEntity
  8
7
100
AcDbLine
 10
5.208951198054044
 20
5.638224763111701
 30
0.0
 11
5.238850734865067
 21
5.638224763111701
 31
0.0
  0
LINE
  5
25A3
330
1E
100
AcDbEntity
  8
7
100
AcDbLine
 10
4.631003008487114
 20
5.638224763111701
 30
0.0
 11
5.208951198054044
 21
5.638224763111701
 31
0.0
  0
LINE
  5
25B5
330
1E
100
AcDbEntity
  8
7
100
AcDbLine
 10
3.967956137227272
 20
5.638224763111701
 30
0.0
 11
3.985370153172154
 21
5.638224763111701
 31
0.0
  0
LINE
  5
25BE
330
1E
100
AcDbEntity
  8
7
100
AcDbLine
 10
3.380479523841445
 20
5.638224763111701
 30
0.0
 11
3.350251420691839
 21
5.638224763111701
 31
0.0
  0
LINE
  5
25C6
330
1E
100
AcDbEntity
  8
7
100
AcDbLine
 10
3.985370153172154
 20
5.638224763111701
 30
0.0
 11
3.967956137227272
 21
5.638224763111701
 31
0.0
  0
LINE
  5
25CD
330
1E
100
AcDbEntity
  8
7
100
AcDbLine
 10
3.350579987030422
 20
5.60372529756052
 30
0.0
 11
5.238850734865067
 21
5.60372529756052
 31
0.0
  0
LINE
  5
25CE
330
1E
100
AcDbEntity
  8
7
100
AcDbLine
 10
5.248707725022548
 20
5.60372529756052
 30
0.0
 11
5.238850734865067
 21
5.60372529756052
 31
0.0
  0
LINE
  5
25CF
330
1E
100
AcDbEntity
  8
7
100
AcDbLine
 10
5.238193602187902
 20
5.60372529756052
 30
0.0
 11
5.248707725022548
 21
5.60372529756052
 31
0.0
  0
LINE
  5
25D5
330
1E
100
AcDbEntity
  8
7
100
AcDbLine
 10
3.350579987030422
 20
5.60372529756052
 30
0.0
 11
5.238850734865067
 21
5.60372529756052
 31
0.0
  0
LINE
  5
25D6
330
1E
100
AcDbEntity
  8
7
100
AcDbLine
 10
3.340394430534359
 20
5.60372529756052
 30
0.0
 11
3.350579987030422
 21
5.60372529756052
 31
0.0
  0
LINE
  5
25D7
330
1E
100
AcDbEntity
  8
7
100
AcDbLine
 10
3.350908553369004
 20
5.60372529756052
 30
0.0
 11
3.340394430534359
 21
5.60372529756052
 31
0.0
  0
LINE
  5
25E2
330
1E
100
AcDbEntity
  8
7
100
AcDbLine
 10
4.631003008487114
 20
5.638224763111701
 30
0.0
 11
4.628703044117036
 21
5.652681682009339
 31
0.0
  0
LINE
  5
25E3
330
1E
100
AcDbEntity
  8
7
100
AcDbLine
 10
5.218808188211524
 20
5.647424620592015
 30
0.0
 11
5.217165356518611
 21
5.642824691851858
 31
0.0
  0
LINE
  5
25F0
330
1E
100
AcDbEntity
  8
7
100
AcDbLine
 10
5.241807831912312
 20
5.638224763111701
 30
0.0
 11
5.259550414195776
 21
5.638224763111701
 31
0.0
  0
LINE
  5
25F1
330
1E
100
AcDbEntity
  8
7
100
AcDbLine
 10
5.238850734865067
 20
5.60372529756052
 30
0.0
 11
5.241807831912312
 21
5.638224763111701
 31
0.0
  0
LINE
  5
25F7
330
1E
100
AcDbEntity
  8
7
100
AcDbLine
 10
3.333494537424122
 20
5.647096054253433
 30
0.0
 11
3.32955174136113
 21
5.638224763111701
 31
0.0
  0
LINE
  5
25F8
330
1E
100
AcDbEntity
  8
7
100
AcDbLine
 10
3.347294323644595
 20
5.660567274135322
 30
0.0
 11
3.333494537424122
 21
5.647096054253433
 31
0.0
  0
LINE
  5
25F9
330
1E
100
AcDbEntity
  8
7
100
AcDbLine
 10
3.369308268329634
 20
5.660567274135322
 30
0.0
 11
3.347294323644595
 21
5.660567274135322
 31
0.0
  0
LINE
  5
25FA
330
1E
100
AcDbEntity
  8
7
100
AcDbLine
 10
3.370293967345382
 20
5.647424620592015
 30
0.0
 11
3.369308268329634
 21
5.660567274135322
 31
0.0
  0
LINE
  5
2601
330
1E
100
AcDbEntity
  8
7
100
AcDbLine
 10
3.958099147069792
 20
5.638224763111701
 30
0.0
 11
3.960727677778453
 21
5.652681682009339
 31
0.0
  0
LINE
  5
2602
330
1E
100
AcDbEntity
  8
7
100
AcDbLine
 10
3.992598612620973
 20
5.652681682009339
 30
0.0
 11
3.960727677778453
 21
5.652681682009339
 31
0.0
  0
LINE
  5
2603
330
1E
100
AcDbEntity
  8
7
100
AcDbLine
 10
3.995227143329634
 20
5.638224763111701
 30
0.0
 11
3.992598612620973
 21
5.652681682009339
 31
0.0
  0
LINE
  5
2604
330
1E
100
AcDbEntity
  8
7
100
AcDbLine
 10
5.238850734865067
 20
5.60372529756052
 30
0.0
 11
5.241807831912312
 21
5.638224763111701
 31
0.0
  0
LINE
  5
2605
330
1E
100
AcDbEntity
  8
7
100
AcDbLine
 10
5.259550414195776
 20
5.638224763111701
 30
0.0
 11
5.241807831912312
 21
5.638224763111701
 31
0.0
  0
LINE
  5
2606
330
1E
100
AcDbEntity
  8
7
100
AcDbLine
 10
5.255607618132784
 20
5.647096054253433
 30
0.0
 11
5.259550414195776
 21
5.638224763111701
 31
0.0
  0
LINE
  5
2607
330
1E
100
AcDbEntity
  8
7
100
AcDbLine
 10
5.242136398250894
 20
5.660567274135322
 30
0.0
 11
5.255607618132784
 21
5.647096054253433
 31
0.0
  0
LINE
  5
2608
330
1E
100
AcDbEntity
  8
7
100
AcDbLine
 10
5.219793887227272
 20
5.660567274135322
 30
0.0
 11
5.242136398250894
 21
5.660567274135322
 31
0.0
  0
LINE
  5
2609
330
1E
100
AcDbEntity
  8
7
100
AcDbLine
 10
5.218808188211524
 20
5.647424620592015
 30
0.0
 11
5.219793887227272
 21
5.660567274135322
 31
0.0
  0
LINE
  5
260A
330
1E
100
AcDbEntity
  8
7
100
AcDbLine
 10
5.208951198054044
 20
5.638224763111701
 30
0.0
 11
5.213551126794201
 21
5.639210462127449
 31
0.0
  0
LINE
  5
2610
330
1E
100
AcDbEntity
  8
7
100
AcDbLine
 10
4.631003008487114
 20
5.638224763111701
 30
0.0
 11
4.628703044117036
 21
5.652681682009339
 31
0.0
  0
LINE
  5
2611
330
1E
100
AcDbEntity
  8
7
100
AcDbLine
 10
4.596503542935933
 20
5.652681682009339
 30
0.0
 11
4.628703044117036
 21
5.652681682009339
 31
0.0
  0
LINE
  5
2612
330
1E
100
AcDbEntity
  8
7
100
AcDbLine
 10
4.593875012227272
 20
5.638224763111701
 30
0.0
 11
4.596503542935933
 21
5.652681682009339
 31
0.0
  0
LINE
  5
2618
330
1E
100
AcDbEntity
  8
7
100
AcDbLine
 10
3.958099147069792
 20
5.638224763111701
 30
0.0
 11
3.960727677778453
 21
5.652681682009339
 31
0.0
  0
LINE
  5
2624
330
1E
100
AcDbEntity
  8
7
100
AcDbLine
 10
3.350579987030422
 20
5.60372529756052
 30
0.0
 11
3.347294323644595
 21
5.638224763111701
 31
0.0
  0
LINE
  5
2625
330
1E
100
AcDbEntity
  8
7
100
AcDbLine
 10
3.350579987030422
 20
5.60372529756052
 30
0.0
 11
3.347294323644595
 21
5.638224763111701
 31
0.0
  0
LINE
  5
2626
330
1E
100
AcDbEntity
  8
7
100
AcDbLine
 10
3.350908553369004
 20
5.60372529756052
 30
0.0
 11
3.350251420691839
 21
5.638224763111701
 31
0.0
  0
LINE
  5
2627
330
1E
100
AcDbEntity
  8
7
100
AcDbLine
 10
3.350908553369004
 20
5.60372529756052
 30
0.0
 11
3.350251420691839
 21
5.638224763111701
 31
0.0
  0
LINE
  5
2628
330
1E
100
AcDbEntity
  8
7
100
AcDbLine
 10
3.32955174136113
 20
5.638224763111701
 30
0.0
 11
3.350251420691839
 21
5.638224763111701
 31
0.0
  0
LINE
  5
2629
330
1E
100
AcDbEntity
  8
7
100
AcDbLine
 10
3.329880307699712
 20
5.632639135355796
 30
0.0
 11
3.32955174136113
 21
5.638224763111701
 31
0.0
  0
LINE
  5
262F
330
1E
100
AcDbEntity
  8
7
100
AcDbLine
 10
3.340065864195776
 20
5.625739242245559
 30
0.0
 11
3.33316597108554
 21
5.628039206615637
 31
0.0
  0
LINE
  5
2630
330
1E
100
AcDbEntity
  8
7
100
AcDbLine
 10
3.340394430534359
 20
5.60372529756052
 30
0.0
 11
3.340065864195776
 21
5.625739242245559
 31
0.0
  0
LINE
  5
2631
330
1E
100
AcDbEntity
  8
7
100
AcDbLine
 10
3.350251420691839
 20
5.638224763111701
 30
0.0
 11
3.32955174136113
 21
5.638224763111701
 31
0.0
  0
LINE
  5
2632
330
1E
100
AcDbEntity
  8
7
100
AcDbLine
 10
3.340394430534359
 20
5.60372529756052
 30
0.0
 11
3.340065864195776
 21
5.625739242245559
 31
0.0
  0
LINE
  5
2633
330
1E
100
AcDbEntity
  8
7
100
AcDbLine
 10
3.340065864195776
 20
5.625739242245559
 30
0.0
 11
3.33316597108554
 21
5.628039206615637
 31
0.0
  0
LINE
  5
2639
330
1E
100
AcDbEntity
  8
7
100
AcDbLine
 10
3.329880307699712
 20
5.632639135355796
 30
0.0
 11
3.32955174136113
 21
5.638224763111701
 31
0.0
  0
LINE
  5
263A
330
1E
100
AcDbEntity
  8
7
100
AcDbLine
 10
3.350579987030422
 20
5.60372529756052
 30
0.0
 11
3.347294323644595
 21
5.638224763111701
 31
0.0
  0
LINE
  5
263B
330
1E
100
AcDbEntity
  8
7
100
AcDbLine
 10
3.32955174136113
 20
5.638224763111701
 30
0.0
 11
3.329880307699712
 21
5.632639135355796
 31
0.0
  0
LINE
  5
2646
330
1E
100
AcDbEntity
  8
7
100
AcDbLine
 10
3.32955174136113
 20
5.638224763111701
 30
0.0
 11
3.329880307699712
 21
5.632639135355796
 31
0.0
  0
LINE
  5
2651
330
1E
100
AcDbEntity
  8
7
100
AcDbLine
 10
3.369308268329634
 20
5.660567274135322
 30
0.0
 11
3.347294323644595
 21
5.660567274135322
 31
0.0
  0
LINE
  5
2652
330
1E
100
AcDbEntity
  8
7
100
AcDbLine
 10
3.347294323644595
 20
5.660567274135322
 30
0.0
 11
3.333494537424122
 21
5.647096054253433
 31
0.0
  0
LINE
  5
2653
330
1E
100
AcDbEntity
  8
7
100
AcDbLine
 10
3.370293967345382
 20
5.647424620592015
 30
0.0
 11
3.369308268329634
 21
5.660567274135322
 31
0.0
  0
LINE
  5
2654
330
1E
100
AcDbEntity
  8
7
100
AcDbLine
 10
3.32955174136113
 20
5.638224763111701
 30
0.0
 11
3.333494537424122
 21
5.647096054253433
 31
0.0
  0
LINE
  5
265B
330
1E
100
AcDbEntity
  8
7
100
AcDbLine
 10
3.369308268329634
 20
5.660567274135322
 30
0.0
 11
3.347294323644595
 21
5.660567274135322
 31
0.0
  0
LINE
  5
265C
330
1E
100
AcDbEntity
  8
7
100
AcDbLine
 10
3.347294323644595
 20
5.660567274135322
 30
0.0
 11
3.333494537424122
 21
5.647096054253433
 31
0.0
  0
LINE
  5
265D
330
1E
100
AcDbEntity
  8
7
100
AcDbLine
 10
3.370293967345382
 20
5.647424620592015
 30
0.0
 11
3.369308268329634
 21
5.660567274135322
 31
0.0
  0
LINE
  5
2664
330
1E
100
AcDbEntity
  8
7
100
AcDbLine
 10
3.32955174136113
 20
5.638224763111701
 30
0.0
 11
3.333494537424122
 21
5.647096054253433
 31
0.0
  0
LINE
  5
266F
330
1E
100
AcDbEntity
  8
7
100
AcDbLine
 10
3.995227143329634
 20
5.638224763111701
 30
0.0
 11
3.992598612620973
 21
5.652681682009339
 31
0.0
  0
LINE
  5
2670
330
1E
100
AcDbEntity
  8
7
100
AcDbLine
 10
3.982741622463493
 20
5.652681682009339
 30
0.0
 11
3.985370153172154
 21
5.638224763111701
 31
0.0
  0
LINE
  5
2671
330
1E
100
AcDbEntity
  8
7
100
AcDbLine
 10
3.967956137227272
 20
5.638224763111701
 30
0.0
 11
3.970584667935933
 21
5.652681682009339
 31
0.0
  0
LINE
  5
2672
330
1E
100
AcDbEntity
  8
7
100
AcDbLine
 10
3.960727677778453
 20
5.652681682009339
 30
0.0
 11
3.958099147069792
 21
5.638224763111701
 31
0.0
  0
LINE
  5
2673
330
1E
100
AcDbEntity
  8
7
100
AcDbLine
 10
3.982741622463493
 20
5.652681682009339
 30
0.0
 11
3.970584667935933
 21
5.652681682009339
 31
0.0
  0
LINE
  5
2680
330
1E
100
AcDbEntity
  8
7
100
AcDbLine
 10
3.958099147069792
 20
5.638224763111701
 30
0.0
 11
3.960727677778453
 21
5.652681682009339
 31
0.0
  0
LINE
  5
2681
330
1E
100
AcDbEntity
  8
7
100
AcDbLine
 10
3.985370153172154
 20
5.638224763111701
 30
0.0
 11
3.982741622463493
 21
5.652681682009339
 31
0.0
  0
LINE
  5
2682
330
1E
100
AcDbEntity
  8
7
100
AcDbLine
 10
3.970584667935933
 20
5.652681682009339
 30
0.0
 11
3.967956137227272
 21
5.638224763111701
 31
0.0
  0
LINE
  5
2683
330
1E
100
AcDbEntity
  8
7
100
AcDbLine
 10
3.992598612620973
 20
5.652681682009339
 30
0.0
 11
3.995227143329634
 21
5.638224763111701
 31
0.0
  0
LINE
  5
2684
330
1E
100
AcDbEntity
  8
7
100
AcDbLine
 10
5.238850734865067
 20
5.60372529756052
 30
0.0
 11
5.241807831912312
 21
5.638224763111701
 31
0.0
  0
LINE
  5
2685
330
1E
100
AcDbEntity
  8
7
100
AcDbLine
 10
5.238193602187902
 20
5.60372529756052
 30
0.0
 11
5.238850734865067
 21
5.638224763111701
 31
0.0
  0
LINE
  5
2686
330
1E
100
AcDbEntity
  8
7
100
AcDbLine
 10
5.238193602187902
 20
5.60372529756052
 30
0.0
 11
5.238850734865067
 21
5.638224763111701
 31
0.0
  0
LINE
  5
2687
330
1E
100
AcDbEntity
  8
7
100
AcDbLine
 10
5.259550414195776
 20
5.638224763111701
 30
0.0
 11
5.238850734865067
 21
5.638224763111701
 31
0.0
  0
LINE
  5
2692
330
1E
100
AcDbEntity
  8
7
100
AcDbLine
 10
5.259221847857193
 20
5.632639135355796
 30
0.0
 11
5.259550414195776
 21
5.638224763111701
 31
0.0
  0
LINE
  5
2693
330
1E
100
AcDbEntity
  8
7
100
AcDbLine
 10
5.238850734865067
 20
5.638224763111701
 30
0.0
 11
5.259550414195776
 21
5.638224763111701
 31
0.0
  0
LINE
  5
2694
330
1E
100
AcDbEntity
  8
7
100
AcDbLine
 10
5.259221847857193
 20
5.632639135355796
 30
0.0
 11
5.259550414195776
 21
5.638224763111701
 31
0.0
  0
LINE
  5
269A
330
1E
100
AcDbEntity
  8
7
100
AcDbLine
 10
5.249036291361131
 20
5.625739242245559
 30
0.0
 11
5.255936184471366
 21
5.628039206615637
 31
0.0
  0
LINE
  5
269B
330
1E
100
AcDbEntity
  8
7
100
AcDbLine
 10
5.248707725022548
 20
5.60372529756052
 30
0.0
 11
5.249036291361131
 21
5.625739242245559
 31
0.0
  0
LINE
  5
269C
330
1E
100
AcDbEntity
  8
7
100
AcDbLine
 10
5.238850734865067
 20
5.60372529756052
 30
0.0
 11
5.241807831912312
 21
5.638224763111701
 31
0.0
  0
LINE
  5
269D
330
1E
100
AcDbEntity
  8
7
100
AcDbLine
 10
5.259550414195776
 20
5.638224763111701
 30
0.0
 11
5.259221847857193
 21
5.632639135355796
 31
0.0
  0
LINE
  5
26A8
330
1E
100
AcDbEntity
  8
7
100
AcDbLine
 10
5.259550414195776
 20
5.638224763111701
 30
0.0
 11
5.259221847857193
 21
5.632639135355796
 31
0.0
  0
LINE
  5
26B3
330
1E
100
AcDbEntity
  8
7
100
AcDbLine
 10
5.219793887227272
 20
5.660567274135322
 30
0.0
 11
5.242136398250894
 21
5.660567274135322
 31
0.0
  0
LINE
  5
26B4
330
1E
100
AcDbEntity
  8
7
100
AcDbLine
 10
5.242136398250894
 20
5.660567274135322
 30
0.0
 11
5.255607618132784
 21
5.647096054253433
 31
0.0
  0
LINE
  5
26B5
330
1E
100
AcDbEntity
  8
7
100
AcDbLine
 10
5.218808188211524
 20
5.647424620592015
 30
0.0
 11
5.219793887227272
 21
5.660567274135322
 31
0.0
  0
LINE
  5
26B6
330
1E
100
AcDbEntity
  8
7
100
AcDbLine
 10
5.259550414195776
 20
5.638224763111701
 30
0.0
 11
5.255607618132784
 21
5.647096054253433
 31
0.0
  0
LINE
  5
26BC
330
1E
100
AcDbEntity
  8
7
100
AcDbLine
 10
5.213551126794201
 20
5.639210462127449
 30
0.0
 11
5.208951198054044
 21
5.638224763111701
 31
0.0
  0
LINE
  5
26BD
330
1E
100
AcDbEntity
  8
7
100
AcDbLine
 10
5.219793887227272
 20
5.660567274135322
 30
0.0
 11
5.242136398250894
 21
5.660567274135322
 31
0.0
  0
LINE
  5
26BE
330
1E
100
AcDbEntity
  8
7
100
AcDbLine
 10
5.242136398250894
 20
5.660567274135322
 30
0.0
 11
5.255607618132784
 21
5.647096054253433
 31
0.0
  0
LINE
  5
26BF
330
1E
100
AcDbEntity
  8
7
100
AcDbLine
 10
5.218808188211524
 20
5.647424620592015
 30
0.0
 11
5.219793887227272
 21
5.660567274135322
 31
0.0
  0
LINE
  5
26C0
330
1E
100
AcDbEntity
  8
7
100
AcDbLine
 10
5.208951198054044
 20
5.638224763111701
 30
0.0
 11
5.213551126794201
 21
5.639210462127449
 31
0.0
  0
LINE
  5
26C6
330
1E
100
AcDbEntity
  8
7
100
AcDbLine
 10
5.259550414195776
 20
5.638224763111701
 30
0.0
 11
5.255607618132784
 21
5.647096054253433
 31
0.0
  0
LINE
  5
26CD
330
1E
100
AcDbEntity
  8
7
100
AcDbLine
 10
4.606360533093414
 20
5.652681682009339
 30
0.0
 11
4.618846053959555
 21
5.652681682009339
 31
0.0
  0
LINE
  5
26CE
330
1E
100
AcDbEntity
  8
7
100
AcDbLine
 10
4.606360533093414
 20
5.652681682009339
 30
0.0
 11
4.601432038014674
 21
5.652681682009339
 31
0.0
  0
LINE
  5
26D5
330
1E
100
AcDbEntity
  8
7
100
AcDbLine
 10
4.618846053959555
 20
5.652681682009339
 30
0.0
 11
4.621146018329634
 21
5.638224763111701
 31
0.0
  0
LINE
  5
26D6
330
1E
100
AcDbEntity
  8
7
100
AcDbLine
 10
4.603732002384752
 20
5.638224763111701
 30
0.0
 11
4.606360533093414
 21
5.652681682009339
 31
0.0
  0
LINE
  5
26D7
330
1E
100
AcDbEntity
  8
7
100
AcDbLine
 10
4.631003008487114
 20
5.638224763111701
 30
0.0
 11
4.628703044117036
 21
5.652681682009339
 31
0.0
  0
LINE
  5
26E5
330
1E
100
AcDbEntity
  8
7
100
AcDbLine
 10
4.628703044117036
 20
5.652681682009339
 30
0.0
 11
4.631003008487114
 21
5.638224763111701
 31
0.0
  0
LINE
  5
26E6
330
1E
100
AcDbEntity
  8
7
100
AcDbLine
 10
4.621146018329634
 20
5.638224763111701
 30
0.0
 11
4.618846053959555
 21
5.652681682009339
 31
0.0
  0
LINE
  5
26E7
330
1E
100
AcDbEntity
  8
7
100
AcDbLine
 10
4.606360533093414
 20
5.652681682009339
 30
0.0
 11
4.603732002384752
 21
5.638224763111701
 31
0.0
  0
LINE
  5
26E8
330
1E
100
AcDbEntity
  8
7
100
AcDbLine
 10
4.593875012227272
 20
5.638224763111701
 30
0.0
 11
4.596503542935933
 21
5.652681682009339
 31
0.0
  0
LINE
  5
26F6
330
1E
100
AcDbEntity
  8
7
100
AcDbLine
 10
5.208951198054044
 20
6.004904796969968
 30
0.0
 11
4.631003008487114
 21
6.004904796969968
 31
0.0
  0
LINE
  5
26F7
330
1E
100
AcDbEntity
  8
7
100
AcDbLine
 10
5.208951198054044
 20
6.056818278466032
 30
0.0
 11
5.208951198054044
 21
6.004904796969968
 31
0.0
  0
LINE
  5
26F8
330
1E
100
AcDbEntity
  8
7
100
AcDbLine
 10
5.208951198054044
 20
6.056818278466032
 30
0.0
 11
5.238850734865067
 21
6.056818278466032
 31
0.0
  0
LINE
  5
26F9
330
1E
100
AcDbEntity
  8
7
100
AcDbLine
 10
5.238850734865067
 20
6.189887645592015
 30
0.0
 11
5.238850734865067
 21
6.056818278466032
 31
0.0
  0
LINE
  5
26FA
330
1E
100
AcDbEntity
  8
7
100
AcDbLine
 10
5.208951198054044
 20
6.189887645592015
 30
0.0
 11
5.238850734865067
 21
6.189887645592015
 31
0.0
  0
LINE
  5
26FB
330
1E
100
AcDbEntity
  8
7
100
AcDbLine
 10
5.208951198054044
 20
6.242129693426662
 30
0.0
 11
5.208951198054044
 21
6.189887645592015
 31
0.0
  0
LINE
  5
26FC
330
1E
100
AcDbEntity
  8
7
100
AcDbLine
 10
4.631003008487114
 20
6.242129693426662
 30
0.0
 11
5.208951198054044
 21
6.242129693426662
 31
0.0
  0
LINE
  5
2708
330
1E
100
AcDbEntity
  8
7
100
AcDbLine
 10
4.593875012227272
 20
6.242129693426662
 30
0.0
 11
4.593875012227272
 21
6.217158651694377
 31
0.0
  0
LINE
  5
2711
330
1E
100
AcDbEntity
  8
7
100
AcDbLine
 10
3.967956137227272
 20
6.207301661536898
 30
0.0
 11
3.985370153172154
 21
6.207301661536898
 31
0.0
  0
LINE
  5
2718
330
1E
100
AcDbEntity
  8
7
100
AcDbLine
 10
3.958099147069792
 20
6.242129693426662
 30
0.0
 11
3.958099147069792
 21
6.217158651694377
 31
0.0
  0
LINE
  5
2720
330
1E
100
AcDbEntity
  8
7
100
AcDbLine
 10
3.380479523841445
 20
6.056818278466032
 30
0.0
 11
3.350251420691839
 21
6.056818278466032
 31
0.0
  0
LINE
  5
2726
330
1E
100
AcDbEntity
  8
7
100
AcDbLine
 10
3.958099147069792
 20
6.029875838702252
 30
0.0
 11
3.958099147069792
 21
6.004904796969968
 31
0.0
  0
LINE
  5
272D
330
1E
100
AcDbEntity
  8
7
100
AcDbLine
 10
3.985370153172154
 20
6.039732828859732
 30
0.0
 11
3.967956137227272
 21
6.039732828859732
 31
0.0
  0
LINE
  5
2734
330
1E
100
AcDbEntity
  8
7
100
AcDbLine
 10
3.995227143329634
 20
6.004904796969968
 30
0.0
 11
3.995227143329634
 21
6.029875838702252
 31
0.0
  0
LINE
  5
273A
330
1E
100
AcDbEntity
  8
7
100
AcDbLine
 10
5.248707725022548
 20
6.241472560749496
 30
0.0
 11
5.238850734865067
 21
6.241472560749496
 31
0.0
  0
LINE
  5
273B
330
1E
100
AcDbEntity
  8
7
100
AcDbLine
 10
5.248707725022548
 20
6.241472560749496
 30
0.0
 11
5.248707725022548
 21
6.19284474263926
 31
0.0
  0
LINE
  5
273C
330
1E
100
AcDbEntity
  8
7
100
AcDbLine
 10
5.238193602187902
 20
6.19284474263926
 30
0.0
 11
5.248707725022548
 21
6.19284474263926
 31
0.0
  0
LINE
  5
273D
330
1E
100
AcDbEntity
  8
7
100
AcDbLine
 10
5.238193602187902
 20
6.053861181418787
 30
0.0
 11
5.238193602187902
 21
6.19284474263926
 31
0.0
  0
LINE
  5
273E
330
1E
100
AcDbEntity
  8
7
100
AcDbLine
 10
5.238193602187902
 20
6.053861181418787
 30
0.0
 11
5.248707725022548
 21
6.053861181418787
 31
0.0
  0
LINE
  5
273F
330
1E
100
AcDbEntity
  8
7
100
AcDbLine
 10
5.248707725022548
 20
6.005561929647134
 30
0.0
 11
5.248707725022548
 21
6.053861181418787
 31
0.0
  0
LINE
  5
2745
330
1E
100
AcDbEntity
  8
7
100
AcDbLine
 10
3.350579987030422
 20
6.004247664292803
 30
0.0
 11
5.238850734865067
 21
6.004247664292803
 31
0.0
  0
LINE
  5
2746
330
1E
100
AcDbEntity
  8
7
100
AcDbLine
 10
3.350579987030422
 20
6.005561929647134
 30
0.0
 11
3.350579987030422
 21
6.004247664292803
 31
0.0
  0
LINE
  5
2747
330
1E
100
AcDbEntity
  8
7
100
AcDbLine
 10
3.340394430534359
 20
6.005561929647134
 30
0.0
 11
3.350579987030422
 21
6.005561929647134
 31
0.0
  0
LINE
  5
2748
330
1E
100
AcDbEntity
  8
7
100
AcDbLine
 10
3.340394430534359
 20
6.005561929647134
 30
0.0
 11
3.340394430534359
 21
6.053861181418787
 31
0.0
  0
LINE
  5
2749
330
1E
100
AcDbEntity
  8
7
100
AcDbLine
 10
3.350908553369004
 20
6.053861181418787
 30
0.0
 11
3.340394430534359
 21
6.053861181418787
 31
0.0
  0
LINE
  5
274F
330
1E
100
AcDbEntity
  8
7
100
AcDbLine
 10
3.340394430534359
 20
6.241472560749496
 30
0.0
 11
3.340394430534359
 21
6.19284474263926
 31
0.0
  0
LINE
  5
2750
330
1E
100
AcDbEntity
  8
7
100
AcDbLine
 10
3.340394430534359
 20
6.241472560749496
 30
0.0
 11
3.350579987030422
 21
6.241472560749496
 31
0.0
  0
LINE
  5
2751
330
1E
100
AcDbEntity
  8
7
100
AcDbLine
 10
3.350579987030422
 20
6.242786826103827
 30
0.0
 11
3.350579987030422
 21
6.241472560749496
 31
0.0
  0
LINE
  5
2757
330
1E
100
AcDbEntity
  8
7
100
AcDbLine
 10
4.631003008487114
 20
6.242129693426662
 30
0.0
 11
4.628703044117036
 21
6.241801127088079
 31
0.0
  0
LINE
  5
2765
330
1E
100
AcDbEntity
  8
7
100
AcDbLine
 10
5.241807831912312
 20
6.242129693426662
 30
0.0
 11
5.259550414195776
 21
6.242129693426662
 31
0.0
  0
LINE
  5
2766
330
1E
100
AcDbEntity
  8
7
100
AcDbLine
 10
5.238850734865067
 20
6.242786826103827
 30
0.0
 11
5.241807831912312
 21
6.242129693426662
 31
0.0
  0
LINE
  5
276C
330
1E
100
AcDbEntity
  8
7
100
AcDbLine
 10
3.333494537424122
 20
6.241801127088079
 30
0.0
 11
3.32955174136113
 21
6.242129693426662
 31
0.0
  0
LINE
  5
276D
330
1E
100
AcDbEntity
  8
7
100
AcDbLine
 10
3.347294323644595
 20
6.241801127088079
 30
0.0
 11
3.333494537424122
 21
6.241801127088079
 31
0.0
  0
LINE
  5
276E
330
1E
100
AcDbEntity
  8
7
100
AcDbLine
 10
3.369308268329634
 20
6.241801127088079
 30
0.0
 11
3.347294323644595
 21
6.241801127088079
 31
0.0
  0
LINE
  5
276F
330
1E
100
AcDbEntity
  8
7
100
AcDbLine
 10
3.370293967345382
 20
6.241801127088079
 30
0.0
 11
3.369308268329634
 21
6.241801127088079
 31
0.0
  0
LINE
  5
2776
330
1E
100
AcDbEntity
  8
7
100
AcDbLine
 10
3.958099147069792
 20
6.242129693426662
 30
0.0
 11
3.960727677778453
 21
6.241801127088079
 31
0.0
  0
LINE
  5
2777
330
1E
100
AcDbEntity
  8
7
100
AcDbLine
 10
3.992598612620973
 20
6.241801127088079
 30
0.0
 11
3.960727677778453
 21
6.241801127088079
 31
0.0
  0
LINE
  5
2778
330
1E
100
AcDbEntity
  8
7
100
AcDbLine
 10
3.995227143329634
 20
6.242129693426662
 30
0.0
 11
3.992598612620973
 21
6.241801127088079
 31
0.0
  0
LINE
  5
2779
330
1E
100
AcDbEntity
  8
7
100
AcDbLine
 10
5.238850734865067
 20
6.004247664292803
 30
0.0
 11
5.241807831912312
 21
6.004904796969968
 31
0.0
  0
LINE
  5
277A
330
1E
100
AcDbEntity
  8
7
100
AcDbLine
 10
5.259550414195776
 20
6.004904796969968
 30
0.0
 11
5.241807831912312
 21
6.004904796969968
 31
0.0
  0
LINE
  5
277B
330
1E
100
AcDbEntity
  8
7
100
AcDbLine
 10
5.255607618132784
 20
6.004904796969968
 30
0.0
 11
5.259550414195776
 21
6.004904796969968
 31
0.0
  0
LINE
  5
277C
330
1E
100
AcDbEntity
  8
7
100
AcDbLine
 10
5.242136398250894
 20
6.005233363308551
 30
0.0
 11
5.255607618132784
 21
6.004904796969968
 31
0.0
  0
LINE
  5
277D
330
1E
100
AcDbEntity
  8
7
100
AcDbLine
 10
5.219793887227272
 20
6.005233363308551
 30
0.0
 11
5.242136398250894
 21
6.005233363308551
 31
0.0
  0
LINE
  5
277E
330
1E
100
AcDbEntity
  8
7
100
AcDbLine
 10
5.218808188211524
 20
6.004904796969968
 30
0.0
 11
5.219793887227272
 21
6.005233363308551
 31
0.0
  0
LINE
  5
277F
330
1E
100
AcDbEntity
  8
7
100
AcDbLine
 10
5.208951198054044
 20
6.004904796969968
 30
0.0
 11
5.213551126794201
 21
6.004904796969968
 31
0.0
  0
LINE
  5
2785
330
1E
100
AcDbEntity
  8
7
100
AcDbLine
 10
4.631003008487114
 20
6.004904796969968
 30
0.0
 11
4.628703044117036
 21
6.005233363308551
 31
0.0
  0
LINE
  5
2786
330
1E
100
AcDbEntity
  8
7
100
AcDbLine
 10
4.596503542935933
 20
6.005233363308551
 30
0.0
 11
4.628703044117036
 21
6.005233363308551
 31
0.0
  0
LINE
  5
2787
330
1E
100
AcDbEntity
  8
7
100
AcDbLine
 10
4.593875012227272
 20
6.004904796969968
 30
0.0
 11
4.596503542935933
 21
6.005233363308551
 31
0.0
  0
LINE
  5
278D
330
1E
100
AcDbEntity
  8
7
100
AcDbLine
 10
3.958099147069792
 20
6.004904796969968
 30
0.0
 11
3.960727677778453
 21
6.005233363308551
 31
0.0
  0
LINE
  5
2799
330
1E
100
AcDbEntity
  8
7
100
AcDbLine
 10
3.350579987030422
 20
6.004247664292803
 30
0.0
 11
3.347294323644595
 21
6.004904796969968
 31
0.0
  0
LINE
  5
279A
330
1E
100
AcDbEntity
  8
7
100
AcDbLine
 10
3.350579987030422
 20
6.241472560749496
 30
0.0
 11
3.347294323644595
 21
6.242129693426662
 31
0.0
  0
LINE
  5
279B
330
1E
100
AcDbEntity
  8
7
100
AcDbLine
 10
3.350908553369004
 20
6.19284474263926
 30
0.0
 11
3.350251420691839
 21
6.189887645592015
 31
0.0
  0
LINE
  5
279C
330
1E
100
AcDbEntity
  8
7
100
AcDbLine
 10
3.350908553369004
 20
6.053861181418787
 30
0.0
 11
3.350251420691839
 21
6.056818278466032
 31
0.0
  0
LINE
  5
279D
330
1E
100
AcDbEntity
  8
7
100
AcDbLine
 10
3.32955174136113
 20
6.189887645592015
 30
0.0
 11
3.350251420691839
 21
6.189887645592015
 31
0.0
  0
LINE
  5
279E
330
1E
100
AcDbEntity
  8
7
100
AcDbLine
 10
3.329880307699712
 20
6.190544778269181
 30
0.0
 11
3.32955174136113
 21
6.189887645592015
 31
0.0
  0
LINE
  5
27A4
330
1E
100
AcDbEntity
  8
7
100
AcDbLine
 10
3.340065864195776
 20
6.191201910946347
 30
0.0
 11
3.33316597108554
 21
6.190873344607764
 31
0.0
  0
LINE
  5
27A5
330
1E
100
AcDbEntity
  8
7
100
AcDbLine
 10
3.340394430534359
 20
6.19284474263926
 30
0.0
 11
3.340065864195776
 21
6.191201910946347
 31
0.0
  0
LINE
  5
27A6
330
1E
100
AcDbEntity
  8
7
100
AcDbLine
 10
3.350251420691839
 20
6.056818278466032
 30
0.0
 11
3.32955174136113
 21
6.056818278466032
 31
0.0
  0
LINE
  5
27B1
330
1E
100
AcDbEntity
  8
7
100
AcDbLine
 10
3.329880307699712
 20
6.056489712127449
 30
0.0
 11
3.32955174136113
 21
6.056818278466032
 31
0.0
  0
LINE
  5
27B2
330
1E
100
AcDbEntity
  8
7
100
AcDbLine
 10
3.350579987030422
 20
6.005561929647134
 30
0.0
 11
3.347294323644595
 21
6.004904796969968
 31
0.0
  0
LINE
  5
27B8
330
1E
100
AcDbEntity
  8
7
100
AcDbLine
 10
3.32955174136113
 20
6.189887645592015
 30
0.0
 11
3.32955174136113
 21
6.242129693426662
 31
0.0
  0
LINE
  5
27B9
330
1E
100
AcDbEntity
  8
7
100
AcDbLine
 10
3.33316597108554
 20
6.190873344607764
 30
0.0
 11
3.33316597108554
 21
6.241801127088079
 31
0.0
  0
LINE
  5
27BF
330
1E
100
AcDbEntity
  8
7
100
AcDbLine
 10
3.340065864195776
 20
6.241801127088079
 30
0.0
 11
3.340065864195776
 21
6.191201910946347
 31
0.0
  0
LINE
  5
27C5
330
1E
100
AcDbEntity
  8
7
100
AcDbLine
 10
3.329880307699712
 20
6.004904796969968
 30
0.0
 11
3.329880307699712
 21
6.056489712127449
 31
0.0
  0
LINE
  5
27C6
330
1E
100
AcDbEntity
  8
7
100
AcDbLine
 10
3.32955174136113
 20
6.004904796969968
 30
0.0
 11
3.329880307699712
 21
6.004904796969968
 31
0.0
  0
LINE
  5
27C7
330
1E
100
AcDbEntity
  8
7
100
AcDbLine
 10
3.32955174136113
 20
6.056818278466032
 30
0.0
 11
3.32955174136113
 21
6.004904796969968
 31
0.0
  0
LINE
  5
27C8
330
1E
100
AcDbEntity
  8
7
100
AcDbLine
 10
3.33316597108554
 20
6.056161145788866
 30
0.0
 11
3.33316597108554
 21
6.005233363308551
 31
0.0
  0
LINE
  5
27CE
330
1E
100
AcDbEntity
  8
7
100
AcDbLine
 10
3.340065864195776
 20
6.005233363308551
 30
0.0
 11
3.340065864195776
 21
6.055832579450283
 31
0.0
  0
LINE
  5
27D4
330
1E
100
AcDbEntity
  8
7
100
AcDbLine
 10
3.347294323644595
 20
6.005233363308551
 30
0.0
 11
3.347294323644595
 21
6.054846880434536
 31
0.0
  0
LINE
  5
27D5
330
1E
100
AcDbEntity
  8
7
100
AcDbLine
 10
3.369308268329634
 20
6.054846880434536
 30
0.0
 11
3.369308268329634
 21
6.005233363308551
 31
0.0
  0
LINE
  5
27D6
330
1E
100
AcDbEntity
  8
7
100
AcDbLine
 10
3.369308268329634
 20
6.054846880434536
 30
0.0
 11
3.347294323644595
 21
6.054846880434536
 31
0.0
  0
LINE
  5
27D7
330
1E
100
AcDbEntity
  8
7
100
AcDbLine
 10
3.333494537424122
 20
6.056161145788866
 30
0.0
 11
3.333494537424122
 21
6.004904796969968
 31
0.0
  0
LINE
  5
27D8
330
1E
100
AcDbEntity
  8
7
100
AcDbLine
 10
3.347294323644595
 20
6.054846880434536
 30
0.0
 11
3.333494537424122
 21
6.056161145788866
 31
0.0
  0
LINE
  5
27DE
330
1E
100
AcDbEntity
  8
7
100
AcDbLine
 10
3.32955174136113
 20
6.056818278466032
 30
0.0
 11
3.333494537424122
 21
6.056161145788866
 31
0.0
  0
LINE
  5
27E5
330
1E
100
AcDbEntity
  8
7
100
AcDbLine
 10
3.347294323644595
 20
6.241801127088079
 30
0.0
 11
3.347294323644595
 21
6.191859043623512
 31
0.0
  0
LINE
  5
27E6
330
1E
100
AcDbEntity
  8
7
100
AcDbLine
 10
3.369308268329634
 20
6.191859043623512
 30
0.0
 11
3.347294323644595
 21
6.191859043623512
 31
0.0
  0
LINE
  5
27E7
330
1E
100
AcDbEntity
  8
7
100
AcDbLine
 10
3.369308268329634
 20
6.191859043623512
 30
0.0
 11
3.369308268329634
 21
6.241801127088079
 31
0.0
  0
LINE
  5
27E8
330
1E
100
AcDbEntity
  8
7
100
AcDbLine
 10
3.333494537424122
 20
6.190873344607764
 30
0.0
 11
3.333494537424122
 21
6.241801127088079
 31
0.0
  0
LINE
  5
27E9
330
1E
100
AcDbEntity
  8
7
100
AcDbLine
 10
3.347294323644595
 20
6.191859043623512
 30
0.0
 11
3.333494537424122
 21
6.190873344607764
 31
0.0
  0
LINE
  5
27EA
330
1E
100
AcDbEntity
  8
7
100
AcDbLine
 10
3.370293967345382
 20
6.190873344607764
 30
0.0
 11
3.369308268329634
 21
6.191859043623512
 31
0.0
  0
LINE
  5
27EB
330
1E
100
AcDbEntity
  8
7
100
AcDbLine
 10
3.370293967345382
 20
6.190873344607764
 30
0.0
 11
3.370293967345382
 21
6.241801127088079
 31
0.0
  0
LINE
  5
27F2
330
1E
100
AcDbEntity
  8
7
100
AcDbLine
 10
3.32955174136113
 20
6.189887645592015
 30
0.0
 11
3.333494537424122
 21
6.190873344607764
 31
0.0
  0
LINE
  5
27F3
330
1E
100
AcDbEntity
  8
7
100
AcDbLine
 10
3.992598612620973
 20
6.02724730799359
 30
0.0
 11
3.992598612620973
 21
6.005233363308551
 31
0.0
  0
LINE
  5
27FF
330
1E
100
AcDbEntity
  8
7
100
AcDbLine
 10
3.995227143329634
 20
6.029875838702252
 30
0.0
 11
3.992598612620973
 21
6.02724730799359
 31
0.0
  0
LINE
  5
2800
330
1E
100
AcDbEntity
  8
7
100
AcDbLine
 10
3.982741622463493
 20
6.037104298151071
 30
0.0
 11
3.985370153172154
 21
6.039732828859732
 31
0.0
  0
LINE
  5
2801
330
1E
100
AcDbEntity
  8
7
100
AcDbLine
 10
3.967956137227272
 20
6.039732828859732
 30
0.0
 11
3.970584667935933
 21
6.037104298151071
 31
0.0
  0
LINE
  5
2802
330
1E
100
AcDbEntity
  8
7
100
AcDbLine
 10
3.960727677778453
 20
6.02724730799359
 30
0.0
 11
3.958099147069792
 21
6.029875838702252
 31
0.0
  0
LINE
  5
2803
330
1E
100
AcDbEntity
  8
7
100
AcDbLine
 10
3.982741622463493
 20
6.209601625906977
 30
0.0
 11
3.970584667935933
 21
6.209601625906977
 31
0.0
  0
LINE
  5
280B
330
1E
100
AcDbEntity
  8
7
100
AcDbLine
 10
3.960727677778453
 20
6.219458616064457
 30
0.0
 11
3.960727677778453
 21
6.241801127088079
 31
0.0
  0
LINE
  5
2812
330
1E
100
AcDbEntity
  8
7
100
AcDbLine
 10
3.958099147069792
 20
6.217158651694377
 30
0.0
 11
3.960727677778453
 21
6.219458616064457
 31
0.0
  0
LINE
  5
2813
330
1E
100
AcDbEntity
  8
7
100
AcDbLine
 10
3.985370153172154
 20
6.207301661536898
 30
0.0
 11
3.982741622463493
 21
6.209601625906977
 31
0.0
  0
LINE
  5
2814
330
1E
100
AcDbEntity
  8
7
100
AcDbLine
 10
3.970584667935933
 20
6.209601625906977
 30
0.0
 11
3.967956137227272
 21
6.207301661536898
 31
0.0
  0
LINE
  5
2815
330
1E
100
AcDbEntity
  8
7
100
AcDbLine
 10
3.992598612620973
 20
6.219458616064457
 30
0.0
 11
3.995227143329634
 21
6.217158651694377
 31
0.0
  0
LINE
  5
2816
330
1E
100
AcDbEntity
  8
7
100
AcDbLine
 10
5.238850734865067
 20
6.241472560749496
 30
0.0
 11
5.241807831912312
 21
6.242129693426662
 31
0.0
  0
LINE
  5
2817
330
1E
100
AcDbEntity
  8
7
100
AcDbLine
 10
5.238193602187902
 20
6.19284474263926
 30
0.0
 11
5.238850734865067
 21
6.189887645592015
 31
0.0
  0
LINE
  5
2818
330
1E
100
AcDbEntity
  8
7
100
AcDbLine
 10
5.238193602187902
 20
6.053861181418787
 30
0.0
 11
5.238850734865067
 21
6.056818278466032
 31
0.0
  0
LINE
  5
2819
330
1E
100
AcDbEntity
  8
7
100
AcDbLine
 10
5.259550414195776
 20
6.189887645592015
 30
0.0
 11
5.238850734865067
 21
6.189887645592015
 31
0.0
  0
LINE
  5
281A
330
1E
100
AcDbEntity
  8
7
100
AcDbLine
 10
5.248707725022548
 20
6.19284474263926
 30
0.0
 11
5.249036291361131
 21
6.191201910946347
 31
0.0
  0
LINE
  5
281B
330
1E
100
AcDbEntity
  8
7
100
AcDbLine
 10
5.249036291361131
 20
6.191201910946347
 30
0.0
 11
5.255936184471366
 21
6.190873344607764
 31
0.0
  0
LINE
  5
2821
330
1E
100
AcDbEntity
  8
7
100
AcDbLine
 10
5.259221847857193
 20
6.190544778269181
 30
0.0
 11
5.259550414195776
 21
6.189887645592015
 31
0.0
  0
LINE
  5
2822
330
1E
100
AcDbEntity
  8
7
100
AcDbLine
 10
5.238850734865067
 20
6.056818278466032
 30
0.0
 11
5.259550414195776
 21
6.056818278466032
 31
0.0
  0
LINE
  5
2823
330
1E
100
AcDbEntity
  8
7
100
AcDbLine
 10
5.259221847857193
 20
6.056489712127449
 30
0.0
 11
5.259550414195776
 21
6.056818278466032
 31
0.0
  0
LINE
  5
2829
330
1E
100
AcDbEntity
  8
7
100
AcDbLine
 10
5.249036291361131
 20
6.055832579450283
 30
0.0
 11
5.255936184471366
 21
6.056161145788866
 31
0.0
  0
LINE
  5
282A
330
1E
100
AcDbEntity
  8
7
100
AcDbLine
 10
5.248707725022548
 20
6.053861181418787
 30
0.0
 11
5.249036291361131
 21
6.055832579450283
 31
0.0
  0
LINE
  5
282B
330
1E
100
AcDbEntity
  8
7
100
AcDbLine
 10
5.238850734865067
 20
6.005561929647134
 30
0.0
 11
5.241807831912312
 21
6.004904796969968
 31
0.0
  0
LINE
  5
282C
330
1E
100
AcDbEntity
  8
7
100
AcDbLine
 10
5.259550414195776
 20
6.242129693426662
 30
0.0
 11
5.259221847857193
 21
6.241801127088079
 31
0.0
  0
LINE
  5
282D
330
1E
100
AcDbEntity
  8
7
100
AcDbLine
 10
5.259550414195776
 20
6.189887645592015
 30
0.0
 11
5.259550414195776
 21
6.242129693426662
 31
0.0
  0
LINE
  5
282E
330
1E
100
AcDbEntity
  8
7
100
AcDbLine
 10
5.259221847857193
 20
6.241801127088079
 30
0.0
 11
5.259221847857193
 21
6.190544778269181
 31
0.0
  0
LINE
  5
282F
330
1E
100
AcDbEntity
  8
7
100
AcDbLine
 10
5.255936184471366
 20
6.190873344607764
 30
0.0
 11
5.255936184471366
 21
6.241801127088079
 31
0.0
  0
LINE
  5
2835
330
1E
100
AcDbEntity
  8
7
100
AcDbLine
 10
5.249036291361131
 20
6.241801127088079
 30
0.0
 11
5.249036291361131
 21
6.191201910946347
 31
0.0
  0
LINE
  5
283B
330
1E
100
AcDbEntity
  8
7
100
AcDbLine
 10
5.259550414195776
 20
6.056818278466032
 30
0.0
 11
5.259550414195776
 21
6.004904796969968
 31
0.0
  0
LINE
  5
2841
330
1E
100
AcDbEntity
  8
7
100
AcDbLine
 10
5.255936184471366
 20
6.056161145788866
 30
0.0
 11
5.255936184471366
 21
6.005233363308551
 31
0.0
  0
LINE
  5
2847
330
1E
100
AcDbEntity
  8
7
100
AcDbLine
 10
5.249036291361131
 20
6.005233363308551
 30
0.0
 11
5.249036291361131
 21
6.055832579450283
 31
0.0
  0
LINE
  5
284D
330
1E
100
AcDbEntity
  8
7
100
AcDbLine
 10
5.242136398250894
 20
6.005233363308551
 30
0.0
 11
5.242136398250894
 21
6.054846880434536
 31
0.0
  0
LINE
  5
284E
330
1E
100
AcDbEntity
  8
7
100
AcDbLine
 10
5.219793887227272
 20
6.054846880434536
 30
0.0
 11
5.242136398250894
 21
6.054846880434536
 31
0.0
  0
LINE
  5
284F
330
1E
100
AcDbEntity
  8
7
100
AcDbLine
 10
5.219793887227272
 20
6.054846880434536
 30
0.0
 11
5.219793887227272
 21
6.005233363308551
 31
0.0
  0
LINE
  5
2850
330
1E
100
AcDbEntity
  8
7
100
AcDbLine
 10
5.255607618132784
 20
6.056161145788866
 30
0.0
 11
5.255607618132784
 21
6.004904796969968
 31
0.0
  0
LINE
  5
2851
330
1E
100
AcDbEntity
  8
7
100
AcDbLine
 10
5.242136398250894
 20
6.054846880434536
 30
0.0
 11
5.255607618132784
 21
6.056161145788866
 31
0.0
  0
LINE
  5
2852
330
1E
100
AcDbEntity
  8
7
100
AcDbLine
 10
5.218808188211524
 20
6.056161145788866
 30
0.0
 11
5.219793887227272
 21
6.054846880434536
 31
0.0
  0
LINE
  5
2853
330
1E
100
AcDbEntity
  8
7
100
AcDbLine
 10
5.218808188211524
 20
6.004904796969968
 30
0.0
 11
5.218808188211524
 21
6.056161145788866
 31
0.0
  0
LINE
  5
2854
330
1E
100
AcDbEntity
  8
7
100
AcDbLine
 10
5.259550414195776
 20
6.056818278466032
 30
0.0
 11
5.255607618132784
 21
6.056161145788866
 31
0.0
  0
LINE
  5
285B
330
1E
100
AcDbEntity
  8
7
100
AcDbLine
 10
5.242136398250894
 20
6.241801127088079
 30
0.0
 11
5.242136398250894
 21
6.191859043623512
 31
0.0
  0
LINE
  5
285C
330
1E
100
AcDbEntity
  8
7
100
AcDbLine
 10
5.219793887227272
 20
6.191859043623512
 30
0.0
 11
5.219793887227272
 21
6.241801127088079
 31
0.0
  0
LINE
  5
285D
330
1E
100
AcDbEntity
  8
7
100
AcDbLine
 10
5.219793887227272
 20
6.191859043623512
 30
0.0
 11
5.242136398250894
 21
6.191859043623512
 31
0.0
  0
LINE
  5
285E
330
1E
100
AcDbEntity
  8
7
100
AcDbLine
 10
5.255607618132784
 20
6.190873344607764
 30
0.0
 11
5.255607618132784
 21
6.241801127088079
 31
0.0
  0
LINE
  5
285F
330
1E
100
AcDbEntity
  8
7
100
AcDbLine
 10
5.242136398250894
 20
6.191859043623512
 30
0.0
 11
5.255607618132784
 21
6.190873344607764
 31
0.0
  0
LINE
  5
2860
330
1E
100
AcDbEntity
  8
7
100
AcDbLine
 10
5.218808188211524
 20
6.190873344607764
 30
0.0
 11
5.219793887227272
 21
6.191859043623512
 31
0.0
  0
LINE
  5
2861
330
1E
100
AcDbEntity
  8
7
100
AcDbLine
 10
5.218808188211524
 20
6.190873344607764
 30
0.0
 11
5.218808188211524
 21
6.241801127088079
 31
0.0
  0
LINE
  5
2868
330
1E
100
AcDbEntity
  8
7
100
AcDbLine
 10
5.259550414195776
 20
6.189887645592015
 30
0.0
 11
5.255607618132784
 21
6.190873344607764
 31
0.0
  0
LINE
  5
2869
330
1E
100
AcDbEntity
  8
7
100
AcDbLine
 10
4.628703044117036
 20
6.02724730799359
 30
0.0
 11
4.628703044117036
 21
6.005233363308551
 31
0.0
  0
LINE
  5
2870
330
1E
100
AcDbEntity
  8
7
100
AcDbLine
 10
4.606360533093414
 20
6.037104298151071
 30
0.0
 11
4.618846053959555
 21
6.037104298151071
 31
0.0
  0
LINE
  5
2878
330
1E
100
AcDbEntity
  8
7
100
AcDbLine
 10
4.596503542935933
 20
6.02724730799359
 30
0.0
 11
4.593875012227272
 21
6.029875838702252
 31
0.0
  0
LINE
  5
2879
330
1E
100
AcDbEntity
  8
7
100
AcDbLine
 10
4.618846053959555
 20
6.037104298151071
 30
0.0
 11
4.621146018329634
 21
6.039732828859732
 31
0.0
  0
LINE
  5
287A
330
1E
100
AcDbEntity
  8
7
100
AcDbLine
 10
4.603732002384752
 20
6.039732828859732
 30
0.0
 11
4.606360533093414
 21
6.037104298151071
 31
0.0
  0
LINE
  5
287B
330
1E
100
AcDbEntity
  8
7
100
AcDbLine
 10
4.631003008487114
 20
6.029875838702252
 30
0.0
 11
4.628703044117036
 21
6.02724730799359
 31
0.0
  0
LINE
  5
2884
330
1E
100
AcDbEntity
  8
7
100
AcDbLine
 10
4.596503542935933
 20
6.219458616064457
 30
0.0
 11
4.596503542935933
 21
6.241801127088079
 31
0.0
  0
LINE
  5
288A
330
1E
100
AcDbEntity
  8
7
100
AcDbLine
 10
4.601432038014674
 20
6.210915891261307
 30
0.0
 11
4.606360533093414
 21
6.209601625906977
 31
0.0
  0
LINE
  5
288B
330
1E
100
AcDbEntity
  8
7
100
AcDbLine
 10
4.628703044117036
 20
6.219458616064457
 30
0.0
 11
4.631003008487114
 21
6.217158651694377
 31
0.0
  0
LINE
  5
288C
330
1E
100
AcDbEntity
  8
7
100
AcDbLine
 10
4.621146018329634
 20
6.207301661536898
 30
0.0
 11
4.618846053959555
 21
6.209601625906977
 31
0.0
  0
LINE
  5
288D
330
1E
100
AcDbEntity
  8
7
100
AcDbLine
 10
4.606360533093414
 20
6.209601625906977
 30
0.0
 11
4.603732002384752
 21
6.207301661536898
 31
0.0
  0
LINE
  5
288E
330
1E
100
AcDbEntity
  8
7
100
AcDbLine
 10
4.593875012227272
 20
6.217158651694377
 30
0.0
 11
4.596503542935933
 21
6.219458616064457
 31
0.0
  0
LINE
  5
28FD
330
1E
100
AcDbEntity
  8
7
100
AcDbLine
 10
4.596503542935933
 20
6.219458616064457
 30
0.0
 11
4.597817808290264
 21
6.214530120985717
 31
0.0
  0
LINE
  5
28FE
330
1E
100
AcDbEntity
  8
7
100
AcDbLine
 10
4.597817808290264
 20
6.214530120985717
 30
0.0
 11
4.601432038014674
 21
6.210915891261307
 31
0.0
  0
LINE
  5
28FF
330
1E
100
AcDbEntity
  8
7
100
AcDbLine
 10
4.606360533093414
 20
6.209601625906977
 30
0.0
 11
4.618846053959555
 21
6.209601625906977
 31
0.0
  0
LINE
  5
2900
330
1E
100
AcDbEntity
  8
7
100
AcDbLine
 10
4.618846053959555
 20
6.209601625906977
 30
0.0
 11
4.623774549038295
 21
6.210915891261307
 31
0.0
  0
LINE
  5
2901
330
1E
100
AcDbEntity
  8
7
100
AcDbLine
 10
4.623774549038295
 20
6.210915891261307
 30
0.0
 11
4.627388778762705
 21
6.214530120985717
 31
0.0
  0
LINE
  5
2902
330
1E
100
AcDbEntity
  8
7
100
AcDbLine
 10
4.627388778762705
 20
6.214530120985717
 30
0.0
 11
4.628703044117036
 21
6.219458616064457
 31
0.0
  0
LINE
  5
2903
330
1E
100
AcDbEntity
  8
7
100
AcDbLine
 10
4.628703044117036
 20
6.219458616064457
 30
0.0
 11
4.628703044117036
 21
6.241801127088079
 31
0.0
  0
LINE
  5
2904
330
1E
100
AcDbEntity
  8
7
100
AcDbLine
 10
4.606360533093414
 20
6.037104298151071
 30
0.0
 11
4.601432038014674
 21
6.03579003279674
 31
0.0
  0
LINE
  5
2905
330
1E
100
AcDbEntity
  8
7
100
AcDbLine
 10
4.601432038014674
 20
6.03579003279674
 30
0.0
 11
4.597817808290264
 21
6.03217580307233
 31
0.0
  0
LINE
  5
2906
330
1E
100
AcDbEntity
  8
7
100
AcDbLine
 10
4.597817808290264
 20
6.03217580307233
 30
0.0
 11
4.596503542935933
 21
6.02724730799359
 31
0.0
  0
LINE
  5
2907
330
1E
100
AcDbEntity
  8
7
100
AcDbLine
 10
4.596503542935933
 20
6.02724730799359
 30
0.0
 11
4.596503542935933
 21
6.005233363308551
 31
0.0
  0
LINE
  5
2908
330
1E
100
AcDbEntity
  8
7
100
AcDbLine
 10
4.628703044117036
 20
6.02724730799359
 30
0.0
 11
4.627388778762705
 21
6.03217580307233
 31
0.0
  0
LINE
  5
2909
330
1E
100
AcDbEntity
  8
7
100
AcDbLine
 10
4.627388778762705
 20
6.03217580307233
 30
0.0
 11
4.623774549038295
 21
6.03579003279674
 31
0.0
  0
LINE
  5
290A
330
1E
100
AcDbEntity
  8
7
100
AcDbLine
 10
4.623774549038295
 20
6.03579003279674
 30
0.0
 11
4.618846053959555
 21
6.037104298151071
 31
0.0
  0
LINE
  5
290B
330
1E
100
AcDbEntity
  8
7
100
AcDbLine
 10
5.208951198054044
 20
6.189887645592015
 30
0.0
 11
5.213551126794201
 21
6.190216211930598
 31
0.0
  0
LINE
  5
290C
330
1E
100
AcDbEntity
  8
7
100
AcDbLine
 10
5.213551126794201
 20
6.190216211930598
 30
0.0
 11
5.217165356518611
 21
6.190216211930598
 31
0.0
  0
LINE
  5
290D
330
1E
100
AcDbEntity
  8
7
100
AcDbLine
 10
5.217165356518611
 20
6.190216211930598
 30
0.0
 11
5.218808188211524
 21
6.190873344607764
 31
0.0
  0
LINE
  5
290E
330
1E
100
AcDbEntity
  8
7
100
AcDbLine
 10
5.218808188211524
 20
6.056161145788866
 30
0.0
 11
5.217165356518611
 21
6.056489712127449
 31
0.0
  0
LINE
  5
290F
330
1E
100
AcDbEntity
  8
7
100
AcDbLine
 10
5.217165356518611
 20
6.056489712127449
 30
0.0
 11
5.213551126794201
 21
6.056818278466032
 31
0.0
  0
LINE
  5
2910
330
1E
100
AcDbEntity
  8
7
100
AcDbLine
 10
5.213551126794201
 20
6.056818278466032
 30
0.0
 11
5.208951198054044
 21
6.056818278466032
 31
0.0
  0
LINE
  5
2911
330
1E
100
AcDbEntity
  8
7
100
AcDbLine
 10
5.255936184471366
 20
6.005233363308551
 30
0.0
 11
5.249036291361131
 21
6.005233363308551
 31
0.0
  0
LINE
  5
2912
330
1E
100
AcDbEntity
  8
7
100
AcDbLine
 10
5.249036291361131
 20
6.005233363308551
 30
0.0
 11
5.248707725022548
 21
6.005561929647134
 31
0.0
  0
LINE
  5
2913
330
1E
100
AcDbEntity
  8
7
100
AcDbLine
 10
5.259221847857193
 20
6.004904796969968
 30
0.0
 11
5.258236148841445
 21
6.004904796969968
 31
0.0
  0
LINE
  5
2914
330
1E
100
AcDbEntity
  8
7
100
AcDbLine
 10
5.258236148841445
 20
6.004904796969968
 30
0.0
 11
5.255936184471366
 21
6.005233363308551
 31
0.0
  0
LINE
  5
2915
330
1E
100
AcDbEntity
  8
7
100
AcDbLine
 10
5.259550414195776
 20
6.004904796969968
 30
0.0
 11
5.259221847857193
 21
6.004904796969968
 31
0.0
  0
LINE
  5
2916
330
1E
100
AcDbEntity
  8
7
100
AcDbLine
 10
5.259221847857193
 20
6.004904796969968
 30
0.0
 11
5.259221847857193
 21
6.056489712127449
 31
0.0
  0
LINE
  5
2917
330
1E
100
AcDbEntity
  8
7
100
AcDbLine
 10
5.255936184471366
 20
6.241801127088079
 30
0.0
 11
5.249036291361131
 21
6.241801127088079
 31
0.0
  0
LINE
  5
2918
330
1E
100
AcDbEntity
  8
7
100
AcDbLine
 10
5.249036291361131
 20
6.241801127088079
 30
0.0
 11
5.248707725022548
 21
6.241472560749496
 31
0.0
  0
LINE
  5
2919
330
1E
100
AcDbEntity
  8
7
100
AcDbLine
 10
5.259221847857193
 20
6.241801127088079
 30
0.0
 11
5.258236148841445
 21
6.241801127088079
 31
0.0
  0
LINE
  5
291A
330
1E
100
AcDbEntity
  8
7
100
AcDbLine
 10
5.258236148841445
 20
6.241801127088079
 30
0.0
 11
5.255936184471366
 21
6.241801127088079
 31
0.0
  0
LINE
  5
291B
330
1E
100
AcDbEntity
  8
7
100
AcDbLine
 10
5.259221847857193
 20
6.056489712127449
 30
0.0
 11
5.258236148841445
 21
6.056161145788866
 31
0.0
  0
LINE
  5
291C
330
1E
100
AcDbEntity
  8
7
100
AcDbLine
 10
5.258236148841445
 20
6.056161145788866
 30
0.0
 11
5.255936184471366
 21
6.056161145788866
 31
0.0
  0
LINE
  5
291D
330
1E
100
AcDbEntity
  8
7
100
AcDbLine
 10
5.259221847857193
 20
6.190544778269181
 30
0.0
 11
5.258236148841445
 21
6.190544778269181
 31
0.0
  0
LINE
  5
291E
330
1E
100
AcDbEntity
  8
7
100
AcDbLine
 10
5.258236148841445
 20
6.190544778269181
 30
0.0
 11
5.255936184471366
 21
6.190873344607764
 31
0.0
  0
LINE
  5
291F
330
1E
100
AcDbEntity
  8
7
100
AcDbLine
 10
3.960727677778453
 20
6.219458616064457
 30
0.0
 11
3.962041943132784
 21
6.214530120985717
 31
0.0
  0
LINE
  5
2920
330
1E
100
AcDbEntity
  8
7
100
AcDbLine
 10
3.962041943132784
 20
6.214530120985717
 30
0.0
 11
3.965656172857193
 21
6.210915891261307
 31
0.0
  0
LINE
  5
2921
330
1E
100
AcDbEntity
  8
7
100
AcDbLine
 10
3.965656172857193
 20
6.210915891261307
 30
0.0
 11
3.970584667935933
 21
6.209601625906977
 31
0.0
  0
LINE
  5
2922
330
1E
100
AcDbEntity
  8
7
100
AcDbLine
 10
3.982741622463493
 20
6.209601625906977
 30
0.0
 11
3.987670117542232
 21
6.210915891261307
 31
0.0
  0
LINE
  5
2923
330
1E
100
AcDbEntity
  8
7
100
AcDbLine
 10
3.987670117542232
 20
6.210915891261307
 30
0.0
 11
3.991284347266642
 21
6.214530120985717
 31
0.0
  0
LINE
  5
2924
330
1E
100
AcDbEntity
  8
7
100
AcDbLine
 10
3.991284347266642
 20
6.214530120985717
 30
0.0
 11
3.992598612620973
 21
6.219458616064457
 31
0.0
  0
LINE
  5
2925
330
1E
100
AcDbEntity
  8
7
100
AcDbLine
 10
3.992598612620973
 20
6.219458616064457
 30
0.0
 11
3.992598612620973
 21
6.241801127088079
 31
0.0
  0
LINE
  5
2926
330
1E
100
AcDbEntity
  8
7
100
AcDbLine
 10
3.992598612620973
 20
6.02724730799359
 30
0.0
 11
3.991284347266642
 21
6.03217580307233
 31
0.0
  0
LINE
  5
2927
330
1E
100
AcDbEntity
  8
7
100
AcDbLine
 10
3.991284347266642
 20
6.03217580307233
 30
0.0
 11
3.987670117542232
 21
6.03579003279674
 31
0.0
  0
LINE
  5
2928
330
1E
100
AcDbEntity
  8
7
100
AcDbLine
 10
3.987670117542232
 20
6.03579003279674
 30
0.0
 11
3.982741622463493
 21
6.037104298151071
 31
0.0
  0
LINE
  5
2929
330
1E
100
AcDbEntity
  8
7
100
AcDbLine
 10
3.982741622463493
 20
6.037104298151071
 30
0.0
 11
3.970584667935933
 21
6.037104298151071
 31
0.0
  0
LINE
  5
292A
330
1E
100
AcDbEntity
  8
7
100
AcDbLine
 10
3.970584667935933
 20
6.037104298151071
 30
0.0
 11
3.965656172857193
 21
6.03579003279674
 31
0.0
  0
LINE
  5
292B
330
1E
100
AcDbEntity
  8
7
100
AcDbLine
 10
3.965656172857193
 20
6.03579003279674
 30
0.0
 11
3.962041943132784
 21
6.03217580307233
 31
0.0
  0
LINE
  5
292C
330
1E
100
AcDbEntity
  8
7
100
AcDbLine
 10
3.962041943132784
 20
6.03217580307233
 30
0.0
 11
3.960727677778453
 21
6.02724730799359
 31
0.0
  0
LINE
  5
292D
330
1E
100
AcDbEntity
  8
7
100
AcDbLine
 10
3.960727677778453
 20
6.02724730799359
 30
0.0
 11
3.960727677778453
 21
6.005233363308551
 31
0.0
  0
LINE
  5
292E
330
1E
100
AcDbEntity
  8
7
100
AcDbLine
 10
3.380479523841445
 20
6.189887645592015
 30
0.0
 11
3.375551028762705
 21
6.190216211930598
 31
0.0
  0
LINE
  5
292F
330
1E
100
AcDbEntity
  8
7
100
AcDbLine
 10
3.375551028762705
 20
6.190216211930598
 30
0.0
 11
3.371936799038295
 21
6.190216211930598
 31
0.0
  0
LINE
  5
2930
330
1E
100
AcDbEntity
  8
7
100
AcDbLine
 10
3.371936799038295
 20
6.190216211930598
 30
0.0
 11
3.370293967345382
 21
6.190873344607764
 31
0.0
  0
LINE
  5
2931
330
1E
100
AcDbEntity
  8
7
100
AcDbLine
 10
3.370293967345382
 20
6.056161145788866
 30
0.0
 11
3.371936799038295
 21
6.056489712127449
 31
0.0
  0
LINE
  5
2932
330
1E
100
AcDbEntity
  8
7
100
AcDbLine
 10
3.371936799038295
 20
6.056489712127449
 30
0.0
 11
3.375551028762705
 21
6.056818278466032
 31
0.0
  0
LINE
  5
2933
330
1E
100
AcDbEntity
  8
7
100
AcDbLine
 10
3.375551028762705
 20
6.056818278466032
 30
0.0
 11
3.380479523841445
 21
6.056818278466032
 31
0.0
  0
LINE
  5
2934
330
1E
100
AcDbEntity
  8
7
100
AcDbLine
 10
3.370293967345382
 20
6.004904796969968
 30
0.0
 11
3.370293967345382
 21
6.056161145788866
 31
0.0
  0
LINE
  5
2935
330
1E
100
AcDbEntity
  8
7
100
AcDbLine
 10
3.370293967345382
 20
6.056161145788866
 30
0.0
 11
3.369308268329634
 21
6.054846880434536
 31
0.0
  0
LINE
  5
2936
330
1E
100
AcDbEntity
  8
7
100
AcDbLine
 10
3.33316597108554
 20
6.005233363308551
 30
0.0
 11
3.340065864195776
 21
6.005233363308551
 31
0.0
  0
LINE
  5
2937
330
1E
100
AcDbEntity
  8
7
100
AcDbLine
 10
3.340065864195776
 20
6.005233363308551
 30
0.0
 11
3.340394430534359
 21
6.005561929647134
 31
0.0
  0
LINE
  5
2938
330
1E
100
AcDbEntity
  8
7
100
AcDbLine
 10
3.329880307699712
 20
6.004904796969968
 30
0.0
 11
3.330866006715461
 21
6.004904796969968
 31
0.0
  0
LINE
  5
2939
330
1E
100
AcDbEntity
  8
7
100
AcDbLine
 10
3.330866006715461
 20
6.004904796969968
 30
0.0
 11
3.33316597108554
 21
6.005233363308551
 31
0.0
  0
LINE
  5
293A
330
1E
100
AcDbEntity
  8
7
100
AcDbLine
 10
3.33316597108554
 20
6.241801127088079
 30
0.0
 11
3.340065864195776
 21
6.241801127088079
 31
0.0
  0
LINE
  5
293B
330
1E
100
AcDbEntity
  8
7
100
AcDbLine
 10
3.340065864195776
 20
6.241801127088079
 30
0.0
 11
3.340394430534359
 21
6.241472560749496
 31
0.0
  0
LINE
  5
293C
330
1E
100
AcDbEntity
  8
7
100
AcDbLine
 10
3.329880307699712
 20
6.241801127088079
 30
0.0
 11
3.330866006715461
 21
6.241801127088079
 31
0.0
  0
LINE
  5
293D
330
1E
100
AcDbEntity
  8
7
100
AcDbLine
 10
3.330866006715461
 20
6.241801127088079
 30
0.0
 11
3.33316597108554
 21
6.241801127088079
 31
0.0
  0
LINE
  5
293E
330
1E
100
AcDbEntity
  8
7
100
AcDbLine
 10
3.32955174136113
 20
6.242129693426662
 30
0.0
 11
3.329880307699712
 21
6.241801127088079
 31
0.0
  0
LINE
  5
293F
330
1E
100
AcDbEntity
  8
7
100
AcDbLine
 10
3.329880307699712
 20
6.241801127088079
 30
0.0
 11
3.329880307699712
 21
6.190544778269181
 31
0.0
  0
LINE
  5
2940
330
1E
100
AcDbEntity
  8
7
100
AcDbLine
 10
3.329880307699712
 20
6.056489712127449
 30
0.0
 11
3.330866006715461
 21
6.056161145788866
 31
0.0
  0
LINE
  5
2941
330
1E
100
AcDbEntity
  8
7
100
AcDbLine
 10
3.330866006715461
 20
6.056161145788866
 30
0.0
 11
3.33316597108554
 21
6.056161145788866
 31
0.0
  0
LINE
  5
2942
330
1E
100
AcDbEntity
  8
7
100
AcDbLine
 10
3.340394430534359
 20
6.053861181418787
 30
0.0
 11
3.340065864195776
 21
6.055832579450283
 31
0.0
  0
LINE
  5
2943
330
1E
100
AcDbEntity
  8
7
100
AcDbLine
 10
3.340065864195776
 20
6.055832579450283
 30
0.0
 11
3.33316597108554
 21
6.056161145788866
 31
0.0
  0
LINE
  5
2944
330
1E
100
AcDbEntity
  8
7
100
AcDbLine
 10
3.329880307699712
 20
6.190544778269181
 30
0.0
 11
3.330866006715461
 21
6.190544778269181
 31
0.0
  0
LINE
  5
2945
330
1E
100
AcDbEntity
  8
7
100
AcDbLine
 10
3.330866006715461
 20
6.190544778269181
 30
0.0
 11
3.33316597108554
 21
6.190873344607764
 31
0.0
  0
LINE
  5
2946
330
1E
100
AcDbEntity
  8
7
100
AcDbLine
 10
3.380479523841445
 20
6.004904796969968
 30
0.0
 11
3.375551028762705
 21
6.004904796969968
 31
0.0
  0
LINE
  5
2947
330
1E
100
AcDbEntity
  8
7
100
AcDbLine
 10
3.375551028762705
 20
6.004904796969968
 30
0.0
 11
3.371936799038295
 21
6.004904796969968
 31
0.0
  0
LINE
  5
2948
330
1E
100
AcDbEntity
  8
7
100
AcDbLine
 10
3.371936799038295
 20
6.004904796969968
 30
0.0
 11
3.370293967345382
 21
6.004904796969968
 31
0.0
  0
LINE
  5
2949
330
1E
100
AcDbEntity
  8
7
100
AcDbLine
 10
3.370293967345382
 20
6.004904796969968
 30
0.0
 11
3.369308268329634
 21
6.005233363308551
 31
0.0
  0
LINE
  5
294A
330
1E
100
AcDbEntity
  8
7
100
AcDbLine
 10
3.369308268329634
 20
6.005233363308551
 30
0.0
 11
3.347294323644595
 21
6.005233363308551
 31
0.0
  0
LINE
  5
294B
330
1E
100
AcDbEntity
  8
7
100
AcDbLine
 10
3.347294323644595
 20
6.005233363308551
 30
0.0
 11
3.333494537424122
 21
6.004904796969968
 31
0.0
  0
LINE
  5
294C
330
1E
100
AcDbEntity
  8
7
100
AcDbLine
 10
3.333494537424122
 20
6.004904796969968
 30
0.0
 11
3.32955174136113
 21
6.004904796969968
 31
0.0
  0
LINE
  5
294D
330
1E
100
AcDbEntity
  8
7
100
AcDbLine
 10
3.32955174136113
 20
6.004904796969968
 30
0.0
 11
3.347294323644595
 21
6.004904796969968
 31
0.0
  0
LINE
  5
294E
330
1E
100
AcDbEntity
  8
7
100
AcDbLine
 10
3.995227143329634
 20
6.004904796969968
 30
0.0
 11
3.992598612620973
 21
6.005233363308551
 31
0.0
  0
LINE
  5
294F
330
1E
100
AcDbEntity
  8
7
100
AcDbLine
 10
3.992598612620973
 20
6.005233363308551
 30
0.0
 11
3.960727677778453
 21
6.005233363308551
 31
0.0
  0
LINE
  5
2950
330
1E
100
AcDbEntity
  8
7
100
AcDbLine
 10
5.213551126794201
 20
6.004904796969968
 30
0.0
 11
5.217165356518611
 21
6.004904796969968
 31
0.0
  0
LINE
  5
2951
330
1E
100
AcDbEntity
  8
7
100
AcDbLine
 10
5.217165356518611
 20
6.004904796969968
 30
0.0
 11
5.218808188211524
 21
6.004904796969968
 31
0.0
  0
LINE
  5
2952
330
1E
100
AcDbEntity
  8
7
100
AcDbLine
 10
3.370293967345382
 20
6.241801127088079
 30
0.0
 11
3.371936799038295
 21
6.241801127088079
 31
0.0
  0
LINE
  5
2953
330
1E
100
AcDbEntity
  8
7
100
AcDbLine
 10
3.371936799038295
 20
6.241801127088079
 30
0.0
 11
3.375551028762705
 21
6.242129693426662
 31
0.0
  0
LINE
  5
2954
330
1E
100
AcDbEntity
  8
7
100
AcDbLine
 10
3.375551028762705
 20
6.242129693426662
 30
0.0
 11
3.380479523841445
 21
6.242129693426662
 31
0.0
  0
LINE
  5
2955
330
1E
100
AcDbEntity
  8
7
100
AcDbLine
 10
3.350579987030422
 20
6.242786826103827
 30
0.0
 11
3.347294323644595
 21
6.242129693426662
 31
0.0
  0
LINE
  5
2956
330
1E
100
AcDbEntity
  8
7
100
AcDbLine
 10
3.347294323644595
 20
6.242129693426662
 30
0.0
 11
3.32955174136113
 21
6.242129693426662
 31
0.0
  0
LINE
  5
2957
330
1E
100
AcDbEntity
  8
7
100
AcDbLine
 10
5.218808188211524
 20
6.241801127088079
 30
0.0
 11
5.219793887227272
 21
6.241801127088079
 31
0.0
  0
LINE
  5
2958
330
1E
100
AcDbEntity
  8
7
100
AcDbLine
 10
5.219793887227272
 20
6.241801127088079
 30
0.0
 11
5.242136398250894
 21
6.241801127088079
 31
0.0
  0
LINE
  5
2959
330
1E
100
AcDbEntity
  8
7
100
AcDbLine
 10
5.242136398250894
 20
6.241801127088079
 30
0.0
 11
5.255607618132784
 21
6.241801127088079
 31
0.0
  0
LINE
  5
295A
330
1E
100
AcDbEntity
  8
7
100
AcDbLine
 10
5.255607618132784
 20
6.241801127088079
 30
0.0
 11
5.259550414195776
 21
6.242129693426662
 31
0.0
  0
LINE
  5
295B
330
1E
100
AcDbEntity
  8
7
100
AcDbLine
 10
5.218808188211524
 20
6.241801127088079
 30
0.0
 11
5.217165356518611
 21
6.241801127088079
 31
0.0
  0
LINE
  5
295C
330
1E
100
AcDbEntity
  8
7
100
AcDbLine
 10
5.217165356518611
 20
6.241801127088079
 30
0.0
 11
5.213551126794201
 21
6.242129693426662
 31
0.0
  0
LINE
  5
295D
330
1E
100
AcDbEntity
  8
7
100
AcDbLine
 10
5.213551126794201
 20
6.242129693426662
 30
0.0
 11
5.208951198054044
 21
6.242129693426662
 31
0.0
  0
LINE
  5
295E
330
1E
100
AcDbEntity
  8
7
100
AcDbLine
 10
4.593875012227272
 20
6.242129693426662
 30
0.0
 11
4.596503542935933
 21
6.241801127088079
 31
0.0
  0
LINE
  5
295F
330
1E
100
AcDbEntity
  8
7
100
AcDbLine
 10
4.596503542935933
 20
6.241801127088079
 30
0.0
 11
4.628703044117036
 21
6.241801127088079
 31
0.0
  0
LINE
  5
2960
330
1E
100
AcDbEntity
  8
7
100
AcDbLine
 10
3.350908553369004
 20
6.053861181418787
 30
0.0
 11
3.350908553369004
 21
6.19284474263926
 31
0.0
  0
LINE
  5
2961
330
1E
100
AcDbEntity
  8
7
100
AcDbLine
 10
3.350908553369004
 20
6.19284474263926
 30
0.0
 11
3.340394430534359
 21
6.19284474263926
 31
0.0
  0
LINE
  5
2962
330
1E
100
AcDbEntity
  8
7
100
AcDbLine
 10
5.248707725022548
 20
6.005561929647134
 30
0.0
 11
5.238850734865067
 21
6.005561929647134
 31
0.0
  0
LINE
  5
2963
330
1E
100
AcDbEntity
  8
7
100
AcDbLine
 10
5.238850734865067
 20
6.005561929647134
 30
0.0
 11
5.238850734865067
 21
6.004247664292803
 31
0.0
  0
LINE
  5
2964
330
1E
100
AcDbEntity
  8
7
100
AcDbLine
 10
3.350579987030422
 20
6.242786826103827
 30
0.0
 11
5.238850734865067
 21
6.242786826103827
 31
0.0
  0
LINE
  5
2965
330
1E
100
AcDbEntity
  8
7
100
AcDbLine
 10
5.238850734865067
 20
6.242786826103827
 30
0.0
 11
5.238850734865067
 21
6.241472560749496
 31
0.0
  0
LINE
  5
2966
330
1E
100
AcDbEntity
  8
7
100
AcDbLine
 10
3.985370153172154
 20
6.039732828859732
 30
0.0
 11
3.990298648250894
 21
6.038418563505402
 31
0.0
  0
LINE
  5
2967
330
1E
100
AcDbEntity
  8
7
100
AcDbLine
 10
3.990298648250894
 20
6.038418563505402
 30
0.0
 11
3.993912877975303
 21
6.034804333780992
 31
0.0
  0
LINE
  5
2968
330
1E
100
AcDbEntity
  8
7
100
AcDbLine
 10
3.993912877975303
 20
6.034804333780992
 30
0.0
 11
3.995227143329634
 21
6.029875838702252
 31
0.0
  0
LINE
  5
2969
330
1E
100
AcDbEntity
  8
7
100
AcDbLine
 10
3.958099147069792
 20
6.029875838702252
 30
0.0
 11
3.959413412424122
 21
6.034804333780992
 31
0.0
  0
LINE
  5
296A
330
1E
100
AcDbEntity
  8
7
100
AcDbLine
 10
3.959413412424122
 20
6.034804333780992
 30
0.0
 11
3.963027642148532
 21
6.038418563505402
 31
0.0
  0
LINE
  5
296B
330
1E
100
AcDbEntity
  8
7
100
AcDbLine
 10
3.963027642148532
 20
6.038418563505402
 30
0.0
 11
3.967956137227272
 21
6.039732828859732
 31
0.0
  0
LINE
  5
296C
330
1E
100
AcDbEntity
  8
7
100
AcDbLine
 10
3.380479523841445
 20
6.056818278466032
 30
0.0
 11
3.380479523841445
 21
6.004904796969968
 31
0.0
  0
LINE
  5
296D
330
1E
100
AcDbEntity
  8
7
100
AcDbLine
 10
3.380479523841445
 20
6.004904796969968
 30
0.0
 11
3.958099147069792
 21
6.004904796969968
 31
0.0
  0
LINE
  5
296E
330
1E
100
AcDbEntity
  8
7
100
AcDbLine
 10
3.958099147069792
 20
6.242129693426662
 30
0.0
 11
3.380479523841445
 21
6.242129693426662
 31
0.0
  0
LINE
  5
296F
330
1E
100
AcDbEntity
  8
7
100
AcDbLine
 10
3.380479523841445
 20
6.242129693426662
 30
0.0
 11
3.380479523841445
 21
6.189887645592015
 31
0.0
  0
LINE
  5
2970
330
1E
100
AcDbEntity
  8
7
100
AcDbLine
 10
3.380479523841445
 20
6.189887645592015
 30
0.0
 11
3.350251420691839
 21
6.189887645592015
 31
0.0
  0
LINE
  5
2971
330
1E
100
AcDbEntity
  8
7
100
AcDbLine
 10
3.350251420691839
 20
6.189887645592015
 30
0.0
 11
3.350251420691839
 21
6.056818278466032
 31
0.0
  0
LINE
  5
2972
330
1E
100
AcDbEntity
  8
7
100
AcDbLine
 10
3.967956137227272
 20
6.207301661536898
 30
0.0
 11
3.963027642148532
 21
6.208615926891228
 31
0.0
  0
LINE
  5
2973
330
1E
100
AcDbEntity
  8
7
100
AcDbLine
 10
3.963027642148532
 20
6.208615926891228
 30
0.0
 11
3.959413412424122
 21
6.212230156615638
 31
0.0
  0
LINE
  5
2974
330
1E
100
AcDbEntity
  8
7
100
AcDbLine
 10
3.959413412424122
 20
6.212230156615638
 30
0.0
 11
3.958099147069792
 21
6.217158651694377
 31
0.0
  0
LINE
  5
2975
330
1E
100
AcDbEntity
  8
7
100
AcDbLine
 10
4.593875012227272
 20
6.242129693426662
 30
0.0
 11
3.995227143329634
 21
6.242129693426662
 31
0.0
  0
LINE
  5
2976
330
1E
100
AcDbEntity
  8
7
100
AcDbLine
 10
3.995227143329634
 20
6.242129693426662
 30
0.0
 11
3.995227143329634
 21
6.217158651694377
 31
0.0
  0
LINE
  5
2977
330
1E
100
AcDbEntity
  8
7
100
AcDbLine
 10
3.995227143329634
 20
6.217158651694377
 30
0.0
 11
3.993912877975303
 21
6.212230156615638
 31
0.0
  0
LINE
  5
2978
330
1E
100
AcDbEntity
  8
7
100
AcDbLine
 10
3.993912877975303
 20
6.212230156615638
 30
0.0
 11
3.990298648250894
 21
6.208615926891228
 31
0.0
  0
LINE
  5
2979
330
1E
100
AcDbEntity
  8
7
100
AcDbLine
 10
3.990298648250894
 20
6.208615926891228
 30
0.0
 11
3.985370153172154
 21
6.207301661536898
 31
0.0
  0
LINE
  5
297A
330
1E
100
AcDbEntity
  8
7
100
AcDbLine
 10
4.631003008487114
 20
6.242129693426662
 30
0.0
 11
4.631003008487114
 21
6.217158651694377
 31
0.0
  0
LINE
  5
297B
330
1E
100
AcDbEntity
  8
7
100
AcDbLine
 10
4.631003008487114
 20
6.217158651694377
 30
0.0
 11
4.629688743132784
 21
6.212230156615638
 31
0.0
  0
LINE
  5
297C
330
1E
100
AcDbEntity
  8
7
100
AcDbLine
 10
4.629688743132784
 20
6.212230156615638
 30
0.0
 11
4.626074513408374
 21
6.208615926891228
 31
0.0
  0
LINE
  5
297D
330
1E
100
AcDbEntity
  8
7
100
AcDbLine
 10
4.626074513408374
 20
6.208615926891228
 30
0.0
 11
4.621146018329634
 21
6.207301661536898
 31
0.0
  0
LINE
  5
297E
330
1E
100
AcDbEntity
  8
7
100
AcDbLine
 10
4.621146018329634
 20
6.207301661536898
 30
0.0
 11
4.603732002384752
 21
6.207301661536898
 31
0.0
  0
LINE
  5
297F
330
1E
100
AcDbEntity
  8
7
100
AcDbLine
 10
4.603732002384752
 20
6.207301661536898
 30
0.0
 11
4.598803507306012
 21
6.208615926891228
 31
0.0
  0
LINE
  5
2980
330
1E
100
AcDbEntity
  8
7
100
AcDbLine
 10
4.598803507306012
 20
6.208615926891228
 30
0.0
 11
4.595189277581603
 21
6.212230156615638
 31
0.0
  0
LINE
  5
2981
330
1E
100
AcDbEntity
  8
7
100
AcDbLine
 10
4.595189277581603
 20
6.212230156615638
 30
0.0
 11
4.593875012227272
 21
6.217158651694377
 31
0.0
  0
LINE
  5
2982
330
1E
100
AcDbEntity
  8
7
100
AcDbLine
 10
3.995227143329634
 20
6.004904796969968
 30
0.0
 11
4.593875012227272
 21
6.004904796969968
 31
0.0
  0
LINE
  5
2983
330
1E
100
AcDbEntity
  8
7
100
AcDbLine
 10
4.593875012227272
 20
6.004904796969968
 30
0.0
 11
4.593875012227272
 21
6.029875838702252
 31
0.0
  0
LINE
  5
2984
330
1E
100
AcDbEntity
  8
7
100
AcDbLine
 10
4.593875012227272
 20
6.029875838702252
 30
0.0
 11
4.595189277581603
 21
6.034804333780992
 31
0.0
  0
LINE
  5
2985
330
1E
100
AcDbEntity
  8
7
100
AcDbLine
 10
4.595189277581603
 20
6.034804333780992
 30
0.0
 11
4.598803507306012
 21
6.038418563505402
 31
0.0
  0
LINE
  5
2986
330
1E
100
AcDbEntity
  8
7
100
AcDbLine
 10
4.598803507306012
 20
6.038418563505402
 30
0.0
 11
4.603732002384752
 21
6.039732828859732
 31
0.0
  0
LINE
  5
2987
330
1E
100
AcDbEntity
  8
7
100
AcDbLine
 10
4.603732002384752
 20
6.039732828859732
 30
0.0
 11
4.621146018329634
 21
6.039732828859732
 31
0.0
  0
LINE
  5
2988
330
1E
100
AcDbEntity
  8
7
100
AcDbLine
 10
4.621146018329634
 20
6.039732828859732
 30
0.0
 11
4.626074513408374
 21
6.038418563505402
 31
0.0
  0
LINE
  5
2989
330
1E
100
AcDbEntity
  8
7
100
AcDbLine
 10
4.626074513408374
 20
6.038418563505402
 30
0.0
 11
4.629688743132784
 21
6.034804333780992
 31
0.0
  0
LINE
  5
298A
330
1E
100
AcDbEntity
  8
7
100
AcDbLine
 10
4.629688743132784
 20
6.034804333780992
 30
0.0
 11
4.631003008487114
 21
6.029875838702252
 31
0.0
  0
LINE
  5
298B
330
1E
100
AcDbEntity
  8
7
100
AcDbLine
 10
4.631003008487114
 20
6.029875838702252
 30
0.0
 11
4.631003008487114
 21
6.004904796969968
 31
0.0
  0
LINE
  5
298C
330
1E
100
AcDbEntity
  8
7
100
AcDbLine
 10
4.596503542935933
 20
5.652681682009339
 30
0.0
 11
4.597817808290264
 21
5.652681682009339
 31
0.0
  0
LINE
  5
298D
330
1E
100
AcDbEntity
  8
7
100
AcDbLine
 10
4.597817808290264
 20
5.652681682009339
 30
0.0
 11
4.601432038014674
 21
5.652681682009339
 31
0.0
  0
LINE
  5
298E
330
1E
100
AcDbEntity
  8
7
100
AcDbLine
 10
4.601432038014674
 20
5.652681682009339
 30
0.0
 11
4.606360533093414
 21
5.652681682009339
 31
0.0
  0
LINE
  5
298F
330
1E
100
AcDbEntity
  8
7
100
AcDbLine
 10
4.606360533093414
 20
5.652681682009339
 30
0.0
 11
4.618846053959555
 21
5.652681682009339
 31
0.0
  0
LINE
  5
2990
330
1E
100
AcDbEntity
  8
7
100
AcDbLine
 10
4.618846053959555
 20
5.652681682009339
 30
0.0
 11
4.623774549038295
 21
5.652681682009339
 31
0.0
  0
LINE
  5
2991
330
1E
100
AcDbEntity
  8
7
100
AcDbLine
 10
4.623774549038295
 20
5.652681682009339
 30
0.0
 11
4.627388778762705
 21
5.652681682009339
 31
0.0
  0
LINE
  5
2992
330
1E
100
AcDbEntity
  8
7
100
AcDbLine
 10
4.627388778762705
 20
5.652681682009339
 30
0.0
 11
4.628703044117036
 21
5.652681682009339
 31
0.0
  0
LINE
  5
2993
330
1E
100
AcDbEntity
  8
7
100
AcDbLine
 10
4.601432038014674
 20
5.652681682009339
 30
0.0
 11
4.597817808290264
 21
5.652681682009339
 31
0.0
  0
LINE
  5
2994
330
1E
100
AcDbEntity
  8
7
100
AcDbLine
 10
4.597817808290264
 20
5.652681682009339
 30
0.0
 11
4.596503542935933
 21
5.652681682009339
 31
0.0
  0
LINE
  5
2995
330
1E
100
AcDbEntity
  8
7
100
AcDbLine
 10
4.596503542935933
 20
5.652681682009339
 30
0.0
 11
4.593875012227272
 21
5.638224763111701
 31
0.0
  0
LINE
  5
2996
330
1E
100
AcDbEntity
  8
7
100
AcDbLine
 10
4.628703044117036
 20
5.652681682009339
 30
0.0
 11
4.627388778762705
 21
5.652681682009339
 31
0.0
  0
LINE
  5
2997
330
1E
100
AcDbEntity
  8
7
100
AcDbLine
 10
4.627388778762705
 20
5.652681682009339
 30
0.0
 11
4.623774549038295
 21
5.652681682009339
 31
0.0
  0
LINE
  5
2998
330
1E
100
AcDbEntity
  8
7
100
AcDbLine
 10
4.623774549038295
 20
5.652681682009339
 30
0.0
 11
4.618846053959555
 21
5.652681682009339
 31
0.0
  0
LINE
  5
2999
330
1E
100
AcDbEntity
  8
7
100
AcDbLine
 10
5.213551126794201
 20
5.639210462127449
 30
0.0
 11
5.217165356518611
 21
5.642824691851858
 31
0.0
  0
LINE
  5
299A
330
1E
100
AcDbEntity
  8
7
100
AcDbLine
 10
5.217165356518611
 20
5.642824691851858
 30
0.0
 11
5.218808188211524
 21
5.647424620592015
 31
0.0
  0
LINE
  5
299B
330
1E
100
AcDbEntity
  8
7
100
AcDbLine
 10
5.218808188211524
 20
5.647424620592015
 30
0.0
 11
5.217165356518611
 21
5.642824691851858
 31
0.0
  0
LINE
  5
299C
330
1E
100
AcDbEntity
  8
7
100
AcDbLine
 10
5.217165356518611
 20
5.642824691851858
 30
0.0
 11
5.213551126794201
 21
5.639210462127449
 31
0.0
  0
LINE
  5
299D
330
1E
100
AcDbEntity
  8
7
100
AcDbLine
 10
5.255936184471366
 20
5.628039206615637
 30
0.0
 11
5.249036291361131
 21
5.625739242245559
 31
0.0
  0
LINE
  5
299E
330
1E
100
AcDbEntity
  8
7
100
AcDbLine
 10
5.249036291361131
 20
5.625739242245559
 30
0.0
 11
5.248707725022548
 21
5.60372529756052
 31
0.0
  0
LINE
  5
299F
330
1E
100
AcDbEntity
  8
7
100
AcDbLine
 10
5.259221847857193
 20
5.632639135355796
 30
0.0
 11
5.258236148841445
 21
5.630010604647134
 31
0.0
  0
LINE
  5
29A0
330
1E
100
AcDbEntity
  8
7
100
AcDbLine
 10
5.258236148841445
 20
5.630010604647134
 30
0.0
 11
5.255936184471366
 21
5.628039206615637
 31
0.0
  0
LINE
  5
29A1
330
1E
100
AcDbEntity
  8
7
100
AcDbLine
 10
5.255936184471366
 20
5.628039206615637
 30
0.0
 11
5.249036291361131
 21
5.625739242245559
 31
0.0
  0
LINE
  5
29A2
330
1E
100
AcDbEntity
  8
7
100
AcDbLine
 10
5.249036291361131
 20
5.625739242245559
 30
0.0
 11
5.248707725022548
 21
5.60372529756052
 31
0.0
  0
LINE
  5
29A3
330
1E
100
AcDbEntity
  8
7
100
AcDbLine
 10
5.259221847857193
 20
5.632639135355796
 30
0.0
 11
5.258236148841445
 21
5.630010604647134
 31
0.0
  0
LINE
  5
29A4
330
1E
100
AcDbEntity
  8
7
100
AcDbLine
 10
5.258236148841445
 20
5.630010604647134
 30
0.0
 11
5.255936184471366
 21
5.628039206615637
 31
0.0
  0
LINE
  5
29A5
330
1E
100
AcDbEntity
  8
7
100
AcDbLine
 10
5.259221847857193
 20
5.632639135355796
 30
0.0
 11
5.258236148841445
 21
5.630010604647134
 31
0.0
  0
LINE
  5
29A6
330
1E
100
AcDbEntity
  8
7
100
AcDbLine
 10
5.258236148841445
 20
5.630010604647134
 30
0.0
 11
5.255936184471366
 21
5.628039206615637
 31
0.0
  0
LINE
  5
29A7
330
1E
100
AcDbEntity
  8
7
100
AcDbLine
 10
5.259221847857193
 20
5.632639135355796
 30
0.0
 11
5.258236148841445
 21
5.630010604647134
 31
0.0
  0
LINE
  5
29A8
330
1E
100
AcDbEntity
  8
7
100
AcDbLine
 10
5.258236148841445
 20
5.630010604647134
 30
0.0
 11
5.255936184471366
 21
5.628039206615637
 31
0.0
  0
LINE
  5
29A9
330
1E
100
AcDbEntity
  8
7
100
AcDbLine
 10
5.248707725022548
 20
5.60372529756052
 30
0.0
 11
5.249036291361131
 21
5.625739242245559
 31
0.0
  0
LINE
  5
29AA
330
1E
100
AcDbEntity
  8
7
100
AcDbLine
 10
5.249036291361131
 20
5.625739242245559
 30
0.0
 11
5.255936184471366
 21
5.628039206615637
 31
0.0
  0
LINE
  5
29AB
330
1E
100
AcDbEntity
  8
7
100
AcDbLine
 10
3.960727677778453
 20
5.652681682009339
 30
0.0
 11
3.962041943132784
 21
5.652681682009339
 31
0.0
  0
LINE
  5
29AC
330
1E
100
AcDbEntity
  8
7
100
AcDbLine
 10
3.962041943132784
 20
5.652681682009339
 30
0.0
 11
3.965656172857193
 21
5.652681682009339
 31
0.0
  0
LINE
  5
29AD
330
1E
100
AcDbEntity
  8
7
100
AcDbLine
 10
3.965656172857193
 20
5.652681682009339
 30
0.0
 11
3.970584667935933
 21
5.652681682009339
 31
0.0
  0
LINE
  5
29AE
330
1E
100
AcDbEntity
  8
7
100
AcDbLine
 10
3.982741622463493
 20
5.652681682009339
 30
0.0
 11
3.987670117542232
 21
5.652681682009339
 31
0.0
  0
LINE
  5
29AF
330
1E
100
AcDbEntity
  8
7
100
AcDbLine
 10
3.987670117542232
 20
5.652681682009339
 30
0.0
 11
3.991284347266642
 21
5.652681682009339
 31
0.0
  0
LINE
  5
29B0
330
1E
100
AcDbEntity
  8
7
100
AcDbLine
 10
3.991284347266642
 20
5.652681682009339
 30
0.0
 11
3.992598612620973
 21
5.652681682009339
 31
0.0
  0
LINE
  5
29B1
330
1E
100
AcDbEntity
  8
7
100
AcDbLine
 10
3.992598612620973
 20
5.652681682009339
 30
0.0
 11
3.991284347266642
 21
5.652681682009339
 31
0.0
  0
LINE
  5
29B2
330
1E
100
AcDbEntity
  8
7
100
AcDbLine
 10
3.991284347266642
 20
5.652681682009339
 30
0.0
 11
3.987670117542232
 21
5.652681682009339
 31
0.0
  0
LINE
  5
29B3
330
1E
100
AcDbEntity
  8
7
100
AcDbLine
 10
3.987670117542232
 20
5.652681682009339
 30
0.0
 11
3.982741622463493
 21
5.652681682009339
 31
0.0
  0
LINE
  5
29B4
330
1E
100
AcDbEntity
  8
7
100
AcDbLine
 10
3.982741622463493
 20
5.652681682009339
 30
0.0
 11
3.970584667935933
 21
5.652681682009339
 31
0.0
  0
LINE
  5
29B5
330
1E
100
AcDbEntity
  8
7
100
AcDbLine
 10
3.970584667935933
 20
5.652681682009339
 30
0.0
 11
3.965656172857193
 21
5.652681682009339
 31
0.0
  0
LINE
  5
29B6
330
1E
100
AcDbEntity
  8
7
100
AcDbLine
 10
3.965656172857193
 20
5.652681682009339
 30
0.0
 11
3.962041943132784
 21
5.652681682009339
 31
0.0
  0
LINE
  5
29B7
330
1E
100
AcDbEntity
  8
7
100
AcDbLine
 10
3.962041943132784
 20
5.652681682009339
 30
0.0
 11
3.960727677778453
 21
5.652681682009339
 31
0.0
  0
LINE
  5
29B8
330
1E
100
AcDbEntity
  8
7
100
AcDbLine
 10
3.380479523841445
 20
5.638224763111701
 30
0.0
 11
3.375551028762705
 21
5.639210462127449
 31
0.0
  0
LINE
  5
29B9
330
1E
100
AcDbEntity
  8
7
100
AcDbLine
 10
3.375551028762705
 20
5.639210462127449
 30
0.0
 11
3.371936799038295
 21
5.642824691851858
 31
0.0
  0
LINE
  5
29BA
330
1E
100
AcDbEntity
  8
7
100
AcDbLine
 10
3.371936799038295
 20
5.642824691851858
 30
0.0
 11
3.370293967345382
 21
5.647424620592015
 31
0.0
  0
LINE
  5
29BB
330
1E
100
AcDbEntity
  8
7
100
AcDbLine
 10
3.370293967345382
 20
5.647424620592015
 30
0.0
 11
3.371936799038295
 21
5.642824691851858
 31
0.0
  0
LINE
  5
29BC
330
1E
100
AcDbEntity
  8
7
100
AcDbLine
 10
3.371936799038295
 20
5.642824691851858
 30
0.0
 11
3.375551028762705
 21
5.639210462127449
 31
0.0
  0
LINE
  5
29BD
330
1E
100
AcDbEntity
  8
7
100
AcDbLine
 10
3.375551028762705
 20
5.639210462127449
 30
0.0
 11
3.380479523841445
 21
5.638224763111701
 31
0.0
  0
LINE
  5
29BE
330
1E
100
AcDbEntity
  8
7
100
AcDbLine
 10
3.33316597108554
 20
5.628039206615637
 30
0.0
 11
3.340065864195776
 21
5.625739242245559
 31
0.0
  0
LINE
  5
29BF
330
1E
100
AcDbEntity
  8
7
100
AcDbLine
 10
3.340065864195776
 20
5.625739242245559
 30
0.0
 11
3.340394430534359
 21
5.60372529756052
 31
0.0
  0
LINE
  5
29C0
330
1E
100
AcDbEntity
  8
7
100
AcDbLine
 10
3.329880307699712
 20
5.632639135355796
 30
0.0
 11
3.330866006715461
 21
5.630010604647134
 31
0.0
  0
LINE
  5
29C1
330
1E
100
AcDbEntity
  8
7
100
AcDbLine
 10
3.330866006715461
 20
5.630010604647134
 30
0.0
 11
3.33316597108554
 21
5.628039206615637
 31
0.0
  0
LINE
  5
29C2
330
1E
100
AcDbEntity
  8
7
100
AcDbLine
 10
3.33316597108554
 20
5.628039206615637
 30
0.0
 11
3.340065864195776
 21
5.625739242245559
 31
0.0
  0
LINE
  5
29C3
330
1E
100
AcDbEntity
  8
7
100
AcDbLine
 10
3.340065864195776
 20
5.625739242245559
 30
0.0
 11
3.340394430534359
 21
5.60372529756052
 31
0.0
  0
LINE
  5
29C4
330
1E
100
AcDbEntity
  8
7
100
AcDbLine
 10
3.329880307699712
 20
5.632639135355796
 30
0.0
 11
3.330866006715461
 21
5.630010604647134
 31
0.0
  0
LINE
  5
29C5
330
1E
100
AcDbEntity
  8
7
100
AcDbLine
 10
3.330866006715461
 20
5.630010604647134
 30
0.0
 11
3.33316597108554
 21
5.628039206615637
 31
0.0
  0
LINE
  5
29C6
330
1E
100
AcDbEntity
  8
7
100
AcDbLine
 10
3.329880307699712
 20
5.632639135355796
 30
0.0
 11
3.330866006715461
 21
5.630010604647134
 31
0.0
  0
LINE
  5
29C7
330
1E
100
AcDbEntity
  8
7
100
AcDbLine
 10
3.330866006715461
 20
5.630010604647134
 30
0.0
 11
3.33316597108554
 21
5.628039206615637
 31
0.0
  0
LINE
  5
29C8
330
1E
100
AcDbEntity
  8
7
100
AcDbLine
 10
3.329880307699712
 20
5.632639135355796
 30
0.0
 11
3.330866006715461
 21
5.630010604647134
 31
0.0
  0
LINE
  5
29C9
330
1E
100
AcDbEntity
  8
7
100
AcDbLine
 10
3.330866006715461
 20
5.630010604647134
 30
0.0
 11
3.33316597108554
 21
5.628039206615637
 31
0.0
  0
LINE
  5
29CA
330
1E
100
AcDbEntity
  8
7
100
AcDbLine
 10
3.380479523841445
 20
5.638224763111701
 30
0.0
 11
3.375551028762705
 21
5.639210462127449
 31
0.0
  0
LINE
  5
29CB
330
1E
100
AcDbEntity
  8
7
100
AcDbLine
 10
3.375551028762705
 20
5.639210462127449
 30
0.0
 11
3.371936799038295
 21
5.642824691851858
 31
0.0
  0
LINE
  5
29CC
330
1E
100
AcDbEntity
  8
7
100
AcDbLine
 10
3.371936799038295
 20
5.642824691851858
 30
0.0
 11
3.370293967345382
 21
5.647424620592015
 31
0.0
  0
LINE
  5
29CD
330
1E
100
AcDbEntity
  8
7
100
AcDbLine
 10
3.370293967345382
 20
5.647424620592015
 30
0.0
 11
3.369308268329634
 21
5.660567274135322
 31
0.0
  0
LINE
  5
29CE
330
1E
100
AcDbEntity
  8
7
100
AcDbLine
 10
3.369308268329634
 20
5.660567274135322
 30
0.0
 11
3.347294323644595
 21
5.660567274135322
 31
0.0
  0
LINE
  5
29CF
330
1E
100
AcDbEntity
  8
7
100
AcDbLine
 10
3.347294323644595
 20
5.660567274135322
 30
0.0
 11
3.333494537424122
 21
5.647096054253433
 31
0.0
  0
LINE
  5
29D0
330
1E
100
AcDbEntity
  8
7
100
AcDbLine
 10
3.333494537424122
 20
5.647096054253433
 30
0.0
 11
3.32955174136113
 21
5.638224763111701
 31
0.0
  0
LINE
  5
29D1
330
1E
100
AcDbEntity
  8
7
100
AcDbLine
 10
3.32955174136113
 20
5.638224763111701
 30
0.0
 11
3.347294323644595
 21
5.638224763111701
 31
0.0
  0
LINE
  5
29D2
330
1E
100
AcDbEntity
  8
7
100
AcDbLine
 10
3.995227143329634
 20
5.638224763111701
 30
0.0
 11
3.992598612620973
 21
5.652681682009339
 31
0.0
  0
LINE
  5
29D3
330
1E
100
AcDbEntity
  8
7
100
AcDbLine
 10
3.992598612620973
 20
5.652681682009339
 30
0.0
 11
3.960727677778453
 21
5.652681682009339
 31
0.0
  0
LINE
  5
29D4
330
1E
100
AcDbEntity
  8
7
100
AcDbLine
 10
5.213551126794201
 20
5.639210462127449
 30
0.0
 11
5.217165356518611
 21
5.642824691851858
 31
0.0
  0
LINE
  5
29D5
330
1E
100
AcDbEntity
  8
7
100
AcDbLine
 10
5.217165356518611
 20
5.642824691851858
 30
0.0
 11
5.218808188211524
 21
5.647424620592015
 31
0.0
  0
LINE
  5
29D6
330
1E
100
AcDbEntity
  8
7
100
AcDbLine
 10
3.370293967345382
 20
5.647424620592015
 30
0.0
 11
3.371936799038295
 21
5.642824691851858
 31
0.0
  0
LINE
  5
29D7
330
1E
100
AcDbEntity
  8
7
100
AcDbLine
 10
3.371936799038295
 20
5.642824691851858
 30
0.0
 11
3.375551028762705
 21
5.639210462127449
 31
0.0
  0
LINE
  5
29D8
330
1E
100
AcDbEntity
  8
7
100
AcDbLine
 10
3.375551028762705
 20
5.639210462127449
 30
0.0
 11
3.380479523841445
 21
5.638224763111701
 31
0.0
  0
LINE
  5
29D9
330
1E
100
AcDbEntity
  8
7
100
AcDbLine
 10
3.350579987030422
 20
5.60372529756052
 30
0.0
 11
3.347294323644595
 21
5.638224763111701
 31
0.0
  0
LINE
  5
29DA
330
1E
100
AcDbEntity
  8
7
100
AcDbLine
 10
3.347294323644595
 20
5.638224763111701
 30
0.0
 11
3.32955174136113
 21
5.638224763111701
 31
0.0
  0
LINE
  5
29DB
330
1E
100
AcDbEntity
  8
7
100
AcDbLine
 10
5.218808188211524
 20
5.647424620592015
 30
0.0
 11
5.219793887227272
 21
5.660567274135322
 31
0.0
  0
LINE
  5
29DC
330
1E
100
AcDbEntity
  8
7
100
AcDbLine
 10
5.219793887227272
 20
5.660567274135322
 30
0.0
 11
5.242136398250894
 21
5.660567274135322
 31
0.0
  0
LINE
  5
29DD
330
1E
100
AcDbEntity
  8
7
100
AcDbLine
 10
5.242136398250894
 20
5.660567274135322
 30
0.0
 11
5.255607618132784
 21
5.647096054253433
 31
0.0
  0
LINE
  5
29DE
330
1E
100
AcDbEntity
  8
7
100
AcDbLine
 10
5.255607618132784
 20
5.647096054253433
 30
0.0
 11
5.259550414195776
 21
5.638224763111701
 31
0.0
  0
LINE
  5
29DF
330
1E
100
AcDbEntity
  8
7
100
AcDbLine
 10
5.217165356518611
 20
5.642824691851858
 30
0.0
 11
5.213551126794201
 21
5.639210462127449
 31
0.0
  0
LINE
  5
29E0
330
1E
100
AcDbEntity
  8
7
100
AcDbLine
 10
5.213551126794201
 20
5.639210462127449
 30
0.0
 11
5.208951198054044
 21
5.638224763111701
 31
0.0
  0
LINE
  5
29E1
330
1E
100
AcDbEntity
  8
7
100
AcDbLine
 10
4.593875012227272
 20
5.638224763111701
 30
0.0
 11
4.596503542935933
 21
5.652681682009339
 31
0.0
  0
LINE
  5
29E2
330
1E
100
AcDbEntity
  8
7
100
AcDbLine
 10
4.596503542935933
 20
5.652681682009339
 30
0.0
 11
4.628703044117036
 21
5.652681682009339
 31
0.0
  0
LINE
  5
29E3
330
1E
100
AcDbEntity
  8
7
100
AcDbLine
 10
3.350908553369004
 20
5.60372529756052
 30
0.0
 11
3.340394430534359
 21
5.60372529756052
 31
0.0
  0
LINE
  5
29E4
330
1E
100
AcDbEntity
  8
7
100
AcDbLine
 10
3.340394430534359
 20
5.60372529756052
 30
0.0
 11
3.350579987030422
 21
5.60372529756052
 31
0.0
  0
LINE
  5
29E5
330
1E
100
AcDbEntity
  8
7
100
AcDbLine
 10
5.238193602187902
 20
5.60372529756052
 30
0.0
 11
5.248707725022548
 21
5.60372529756052
 31
0.0
  0
LINE
  5
29E6
330
1E
100
AcDbEntity
  8
7
100
AcDbLine
 10
5.248707725022548
 20
5.60372529756052
 30
0.0
 11
5.238850734865067
 21
5.60372529756052
 31
0.0
  0
LINE
  5
29E7
330
1E
100
AcDbEntity
  8
7
100
AcDbLine
 10
3.985370153172154
 20
5.638224763111701
 30
0.0
 11
3.990298648250894
 21
5.638224763111701
 31
0.0
  0
LINE
  5
29E8
330
1E
100
AcDbEntity
  8
7
100
AcDbLine
 10
3.990298648250894
 20
5.638224763111701
 30
0.0
 11
3.993912877975303
 21
5.638224763111701
 31
0.0
  0
LINE
  5
29E9
330
1E
100
AcDbEntity
  8
7
100
AcDbLine
 10
3.993912877975303
 20
5.638224763111701
 30
0.0
 11
3.995227143329634
 21
5.638224763111701
 31
0.0
  0
LINE
  5
29EA
330
1E
100
AcDbEntity
  8
7
100
AcDbLine
 10
3.380479523841445
 20
5.638224763111701
 30
0.0
 11
3.958099147069792
 21
5.638224763111701
 31
0.0
  0
LINE
  5
29EB
330
1E
100
AcDbEntity
  8
7
100
AcDbLine
 10
3.958099147069792
 20
5.638224763111701
 30
0.0
 11
3.959413412424122
 21
5.638224763111701
 31
0.0
  0
LINE
  5
29EC
330
1E
100
AcDbEntity
  8
7
100
AcDbLine
 10
3.959413412424122
 20
5.638224763111701
 30
0.0
 11
3.963027642148532
 21
5.638224763111701
 31
0.0
  0
LINE
  5
29ED
330
1E
100
AcDbEntity
  8
7
100
AcDbLine
 10
3.963027642148532
 20
5.638224763111701
 30
0.0
 11
3.967956137227272
 21
5.638224763111701
 31
0.0
  0
LINE
  5
29EE
330
1E
100
AcDbEntity
  8
7
100
AcDbLine
 10
3.967956137227272
 20
5.638224763111701
 30
0.0
 11
3.963027642148532
 21
5.638224763111701
 31
0.0
  0
LINE
  5
29EF
330
1E
100
AcDbEntity
  8
7
100
AcDbLine
 10
3.963027642148532
 20
5.638224763111701
 30
0.0
 11
3.959413412424122
 21
5.638224763111701
 31
0.0
  0
LINE
  5
29F0
330
1E
100
AcDbEntity
  8
7
100
AcDbLine
 10
3.959413412424122
 20
5.638224763111701
 30
0.0
 11
3.958099147069792
 21
5.638224763111701
 31
0.0
  0
LINE
  5
29F1
330
1E
100
AcDbEntity
  8
7
100
AcDbLine
 10
3.958099147069792
 20
5.638224763111701
 30
0.0
 11
3.380479523841445
 21
5.638224763111701
 31
0.0
  0
LINE
  5
29F2
330
1E
100
AcDbEntity
  8
7
100
AcDbLine
 10
3.380479523841445
 20
5.638224763111701
 30
0.0
 11
3.350251420691839
 21
5.638224763111701
 31
0.0
  0
LINE
  5
29F3
330
1E
100
AcDbEntity
  8
7
100
AcDbLine
 10
3.995227143329634
 20
5.638224763111701
 30
0.0
 11
3.993912877975303
 21
5.638224763111701
 31
0.0
  0
LINE
  5
29F4
330
1E
100
AcDbEntity
  8
7
100
AcDbLine
 10
3.993912877975303
 20
5.638224763111701
 30
0.0
 11
3.990298648250894
 21
5.638224763111701
 31
0.0
  0
LINE
  5
29F5
330
1E
100
AcDbEntity
  8
7
100
AcDbLine
 10
3.990298648250894
 20
5.638224763111701
 30
0.0
 11
3.985370153172154
 21
5.638224763111701
 31
0.0
  0
LINE
  5
29F6
330
1E
100
AcDbEntity
  8
7
100
AcDbLine
 10
4.631003008487114
 20
5.638224763111701
 30
0.0
 11
4.629688743132784
 21
5.638224763111701
 31
0.0
  0
LINE
  5
29F7
330
1E
100
AcDbEntity
  8
7
100
AcDbLine
 10
4.629688743132784
 20
5.638224763111701
 30
0.0
 11
4.626074513408374
 21
5.638224763111701
 31
0.0
  0
LINE
  5
29F8
330
1E
100
AcDbEntity
  8
7
100
AcDbLine
 10
4.626074513408374
 20
5.638224763111701
 30
0.0
 11
4.621146018329634
 21
5.638224763111701
 31
0.0
  0
LINE
  5
29F9
330
1E
100
AcDbEntity
  8
7
100
AcDbLine
 10
4.621146018329634
 20
5.638224763111701
 30
0.0
 11
4.603732002384752
 21
5.638224763111701
 31
0.0
  0
LINE
  5
29FA
330
1E
100
AcDbEntity
  8
7
100
AcDbLine
 10
4.603732002384752
 20
5.638224763111701
 30
0.0
 11
4.598803507306012
 21
5.638224763111701
 31
0.0
  0
LINE
  5
29FB
330
1E
100
AcDbEntity
  8
7
100
AcDbLine
 10
4.598803507306012
 20
5.638224763111701
 30
0.0
 11
4.595189277581603
 21
5.638224763111701
 31
0.0
  0
LINE
  5
29FC
330
1E
100
AcDbEntity
  8
7
100
AcDbLine
 10
4.595189277581603
 20
5.638224763111701
 30
0.0
 11
4.593875012227272
 21
5.638224763111701
 31
0.0
  0
LINE
  5
29FD
330
1E
100
AcDbEntity
  8
7
100
AcDbLine
 10
4.593875012227272
 20
5.638224763111701
 30
0.0
 11
3.995227143329634
 21
5.638224763111701
 31
0.0
  0
LINE
  5
29FE
330
1E
100
AcDbEntity
  8
7
100
AcDbLine
 10
3.995227143329634
 20
5.638224763111701
 30
0.0
 11
4.593875012227272
 21
5.638224763111701
 31
0.0
  0
LINE
  5
29FF
330
1E
100
AcDbEntity
  8
7
100
AcDbLine
 10
4.593875012227272
 20
5.638224763111701
 30
0.0
 11
4.595189277581603
 21
5.638224763111701
 31
0.0
  0
LINE
  5
2A00
330
1E
100
AcDbEntity
  8
7
100
AcDbLine
 10
4.595189277581603
 20
5.638224763111701
 30
0.0
 11
4.598803507306012
 21
5.638224763111701
 31
0.0
  0
LINE
  5
2A01
330
1E
100
AcDbEntity
  8
7
100
AcDbLine
 10
4.598803507306012
 20
5.638224763111701
 30
0.0
 11
4.603732002384752
 21
5.638224763111701
 31
0.0
  0
LINE
  5
2A02
330
1E
100
AcDbEntity
  8
7
100
AcDbLine
 10
4.603732002384752
 20
5.638224763111701
 30
0.0
 11
4.621146018329634
 21
5.638224763111701
 31
0.0
  0
LINE
  5
2A03
330
1E
100
AcDbEntity
  8
7
100
AcDbLine
 10
4.621146018329634
 20
5.638224763111701
 30
0.0
 11
4.626074513408374
 21
5.638224763111701
 31
0.0
  0
LINE
  5
2A04
330
1E
100
AcDbEntity
  8
7
100
AcDbLine
 10
4.626074513408374
 20
5.638224763111701
 30
0.0
 11
4.629688743132784
 21
5.638224763111701
 31
0.0
  0
LINE
  5
2A05
330
1E
100
AcDbEntity
  8
7
100
AcDbLine
 10
4.629688743132784
 20
5.638224763111701
 30
0.0
 11
4.631003008487114
 21
5.638224763111701
 31
0.0
  0
ENDSEC
  0
SECTION
  2
OBJECTS
  0
DICTIONARY
  5
C
330
0
100
AcDbDictionary
  3
ACAD_GROUP
350
D
  3
ACAD_MLINESTYLE
350
16
  3
ACAD_PLOTSETTINGS
350
18
  3
ACAD_LAYOUT
350
19
1001
ACAD
1000
TREAT_AS_HARD
1070
     0
  0
DICTIONARY
  5
3A8C
330
1E
100
AcDbDictionary
  3
ACAD_LAYOUTSELFREF
350
3A8D
  0
DICTIONARY
  5
3A8A
330
1A
100
AcDbDictionary
  3
ACAD_LAYOUTSELFREF
350
3A8B
  0
DICTIONARY
  5
D
102
{ACAD_REACTORS
330
C
102
}
330
C
100
AcDbDictionary
1001
ACAD
1000
TREAT_AS_HARD
1070
     0
  0
DICTIONARY
  5
16
102
{ACAD_REACTORS
330
C
102
}
330
C
100
AcDbDictionary
  3
STANDARD
350
17
1001
ACAD
1000
TREAT_AS_HARD
1070
     0
  0
DICTIONARY
  5
18
102
{ACAD_REACTORS
330
C
102
}
330
C
100
AcDbDictionary
1001
ACAD
1000
TREAT_AS_HARD
1070
     0
  0
DICTIONARY
  5
19
102
{ACAD_REACTORS
330
C
102
}
330
C
100
AcDbDictionary
1001
ACAD
1000
TREAT_AS_HARD
1070
     0
  0
XRECORD
  5
3A8D
102
{ACAD_REACTORS
330
3A8C
102
}
330
3A8C
100
AcDbXrecord
340
1E
  0
XRECORD
  5
3A8B
102
{ACAD_REACTORS
330
3A8A
102
}
330
3A8A
100
AcDbXrecord
340
1A
  0
MLINESTYLE
  5
17
102
{ACAD_REACTORS
330
16
102
}
330
16
100
AcDbMlineStyle
  2
STANDARD
 70
     0
  3

 62
   256
 51
90.0
 52
90.0
 71
     2
 49
0.5
 62
   256
  6
BYLAYER
 49
-0.5
 62
   256
  6
BYLAYER
  0
ENDSEC
  0
EOF
