  0
SECTION
  2
HEADER
  9
$ACADVER
  1
AC1015
  9
$ACADMAINTVER
 70
     6
  9
$DWGCODEPAGE
  3
ANSI_1252
  9
$INSBASE
 10
0.0
 20
0.0
 30
0.0
  9
$EXTMIN
 10
-0.5
 20
-0.5
 30
-0.5
  9
$EXTMAX
 10
5.0
 20
5.0
 30
5.0
  9
$LIMMIN
 10
-0.5
 20
-0.5
  9
$LIMMAX
 10
5.0
 20
5.0
  9
$ORTHOMODE
 70
     0
  9
$REGENMODE
 70
     1
  9
$FILLMODE
 70
     1
  9
$QTEXTMODE
 70
     0
  9
$MIRRTEXT
 70
     1
  9
$LTSCALE
 40
1.0
  9
$ATTMODE
 70
     1
  9
$TEXTSIZE
 40
0.2
  9
$TRACEWID
 40
0.05
  9
$TEXTSTYLE
  7
Standard
  9
$CLAYER
  8
0
  9
$CELTYPE
  6
ByLayer
  9
$CECOLOR
 62
   256
  9
$CELTSCALE
 40
1.0
  9
$DISPSILH
 70
     0
  9
$DIMSCALE
 40
1.0
  9
$DIMASZ
 40
0.18
  9
$DIMEXO
 40
0.0625
  9
$DIMDLI
 40
0.38
  9
$DIMRND
 40
0.0
  9
$DIMDLE
 40
0.0
  9
$DIMEXE
 40
0.18
  9
$DIMTP
 40
0.0
  9
$DIMTM
 40
0.0
  9
$DIMTXT
 40
0.18
  9
$DIMCEN
 40
0.09
  9
$DIMTSZ
 40
0.0
  9
$DIMTOL
 70
     0
  9
$DIMLIM
 70
     0
  9
$DIMTIH
 70
     1
  9
$DIMTOH
 70
     1
  9
$DIMSE1
 70
     0
  9
$DIMSE2
 70
     0
  9
$DIMTAD
 70
     0
  9
$DIMZIN
 70
     0
  9
$DIMBLK
  1

  9
$DIMASO
 70
     1
  9
$DIMSHO
 70
     1
  9
$DIMPOST
  1

  9
$DIMAPOST
  1

  9
$DIMALT
 70
     0
  9
$DIMALTD
 70
     2
  9
$DIMALTF
 40
25.4
  9
$DIMLFAC
 40
1.0
  9
$DIMTOFL
 70
     0
  9
$DIMTVP
 40
0.0
  9
$DIMTIX
 70
     0
  9
$DIMSOXD
 70
     0
  9
$DIMSAH
 70
     0
  9
$DIMBLK1
  1

  9
$DIMBLK2
  1

  9
$DIMSTYLE
  2
Standard
  9
$DIMCLRD
 70
     0
  9
$DIMCLRE
 70
     0
  9
$DIMCLRT
 70
     0
  9
$DIMTFAC
 40
1.0
  9
$DIMGAP
 40
0.09
  9
$DIMJUST
 70
     0
  9
$DIMSD1
 70
     0
  9
$DIMSD2
 70
     0
  9
$DIMTOLJ
 70
     1
  9
$DIMTZIN
 70
     0
  9
$DIMALTZ
 70
     0
  9
$DIMALTTZ
 70
     0
  9
$DIMUPT
 70
     0
  9
$DIMDEC
 70
     4
  9
$DIMTDEC
 70
     4
  9
$DIMALTU
 70
     2
  9
$DIMALTTD
 70
     2
  9
$DIMTXSTY
  7
Standard
  9
$DIMAUNIT
 70
     0
  9
$DIMADEC
 70
     0
  9
$DIMALTRND
 40
0.0
  9
$DIMAZIN
 70
     0
  9
$DIMDSEP
 70
    46
  9
$DIMATFIT
 70
     3
  9
$DIMFRAC
 70
     0
  9
$DIMLDRBLK
  1

  9
$DIMLUNIT
 70
     2
  9
$DIMLWD
 70
    -2
  9
$DIMLWE
 70
    -2
  9
$DIMTMOVE
 70
     0
  9
$LUNITS
 70
     2
  9
$LUPREC
 70
     4
  9
$SKETCHINC
 40
0.1
  9
$FILLETRAD
 40
0.5
  9
$AUNITS
 70
     0
  9
$AUPREC
 70
     0
  9
$MENU
  1
.
  9
$ELEVATION
 40
0.0
  9
$PELEVATION
 40
0.0
  9
$THICKNESS
 40
0.0
  9
$LIMCHECK
 70
     0
  9
$CHAMFERA
 40
0.5
  9
$CHAMFERB
 40
0.5
  9
$CHAMFERC
 40
1.0
  9
$CHAMFERD
 40
0.0
  9
$SKPOLY
 70
     0
  9
$TDCREATE
 40
2456896.639002975
  9
$TDUCREATE
 40
2456896.847336308
  9
$TDUPDATE
 40
2456896.639002986
  9
$TDUUPDATE
 40
2456896.847336319
  9
$TDINDWG
 40
0.0000000116
  9
$TDUSRTIMER
 40
0.0000000116
  9
$USRTIMER
 70
     1
  9
$ANGBASE
 50
0.0
  9
$ANGDIR
 70
     0
  9
$PDMODE
 70
     0
  9
$PDSIZE
 40
0.0
  9
$PLINEWID
 40
0.0
  9
$SPLFRAME
 70
     0
  9
$SPLINETYPE
 70
     6
  9
$SPLINESEGS
 70
     8
  9
$HANDSEED
  5
54E
  9
$SURFTAB1
 70
     6
  9
$SURFTAB2
 70
     6
  9
$SURFTYPE
 70
     6
  9
$SURFU
 70
     6
  9
$SURFV
 70
     6
  9
$UCSBASE
  2

  9
$UCSNAME
  2

  9
$UCSORG
 10
0.0
 20
0.0
 30
0.0
  9
$UCSXDIR
 10
1.0
 20
0.0
 30
0.0
  9
$UCSYDIR
 10
0.0
 20
1.0
 30
0.0
  9
$UCSORTHOREF
  2

  9
$UCSORTHOVIEW
 70
     0
  9
$UCSORGTOP
 10
0.0
 20
0.0
 30
0.0
  9
$UCSORGBOTTOM
 10
0.0
 20
0.0
 30
0.0
  9
$UCSORGLEFT
 10
0.0
 20
0.0
 30
0.0
  9
$UCSORGRIGHT
 10
0.0
 20
0.0
 30
0.0
  9
$UCSORGFRONT
 10
0.0
 20
0.0
 30
0.0
  9
$UCSORGBACK
 10
0.0
 20
0.0
 30
0.0
  9
$PUCSBASE
  2

  9
$PUCSNAME
  2

  9
$PUCSORG
 10
0.0
 20
0.0
 30
0.0
  9
$PUCSXDIR
 10
1.0
 20
0.0
 30
0.0
  9
$PUCSYDIR
 10
0.0
 20
1.0
 30
0.0
  9
$PUCSORTHOREF
  2

  9
$PUCSORTHOVIEW
 70
     0
  9
$PUCSORGTOP
 10
0.0
 20
0.0
 30
0.0
  9
$PUCSORGBOTTOM
 10
0.0
 20
0.0
 30
0.0
  9
$PUCSORGLEFT
 10
0.0
 20
0.0
 30
0.0
  9
$PUCSORGRIGHT
 10
0.0
 20
0.0
 30
0.0
  9
$PUCSORGFRONT
 10
0.0
 20
0.0
 30
0.0
  9
$PUCSORGBACK
 10
0.0
 20
0.0
 30
0.0
  9
$USERI1
 70
     0
  9
$USERI2
 70
     0
  9
$USERI3
 70
     0
  9
$USERI4
 70
     0
  9
$USERI5
 70
     0
  9
$USERR1
 40
0.0
  9
$USERR2
 40
0.0
  9
$USERR3
 40
0.0
  9
$USERR4
 40
0.0
  9
$USERR5
 40
0.0
  9
$WORLDVIEW
 70
     1
  9
$SHADEDGE
 70
     3
  9
$SHADEDIF
 70
    70
  9
$TILEMODE
 70
     0
  9
$MAXACTVP
 70
    64
  9
$PINSBASE
 10
0.0
 20
0.0
 30
0.0
  9
$PLIMCHECK
 70
     0
  9
$PEXTMIN
 10
0.0
 20
0.0
 30
0.0
  9
$PEXTMAX
 10
11.0
 20
8.5
 30
0.0
  9
$PLIMMIN
 10
0.0
 20
0.0
  9
$PLIMMAX
 10
11.0
 20
8.5
  9
$UNITMODE
 70
     0
  9
$VISRETAIN
 70
     1
  9
$PLINEGEN
 70
     0
  9
$PSLTSCALE
 70
     1
  9
$TREEDEPTH
 70
  3020
  9
$CMLSTYLE
  2
Standard
  9
$CMLJUST
 70
     0
  9
$CMLSCALE
 40
1.0
  9
$PROXYGRAPHICS
 70
     1
  9
$MEASUREMENT
 70
     0
  9
$CELWEIGHT
370
    -1
  9
$ENDCAPS
280
     0
  9
$JOINSTYLE
280
     0
  9
$LWDISPLAY
290
     0
  9
$INSUNITS
 70
     1
  9
$HYPERLINKBASE
  1

  9
$STYLESHEET
  1

  9
$XEDIT
290
     1
  9
$CEPSNTYPE
380
     0
  9
$PSTYLEMODE
290
     1
  9
$FINGERPRINTGUID
  2
{465CAFBF-A5A3-420B-A21F-3CD970CF1BDC}
  9
$VERSIONGUID
  2
{FAEB1C32-E019-11D5-929B-00C0DF256EC4}
  9
$EXTNAMES
290
     1
  9
$PSVPSCALE
 40
0.0
  9
$OLESTARTUP
290
     0
  0
ENDSEC
  0
SECTION
  2
CLASSES
  0
CLASS
  1
ACDBDICTIONARYWDFLT
  2
AcDbDictionaryWithDefault
  3
ObjectDBX Classes
 90
        0
280
     0
281
     0
  0
CLASS
  1
VISUALSTYLE
  2
AcDbVisualStyle
  3
ObjectDBX Classes
 90
     4095
280
     0
281
     0
  0
CLASS
  1
MATERIAL
  2
AcDbMaterial
  3
ObjectDBX Classes
 90
     1153
280
     0
281
     0
  0
CLASS
  1
DICTIONARYVAR
  2
AcDbDictionaryVar
  3
ObjectDBX Classes
 90
        0
280
     0
281
     0
  0
CLASS
  1
ACDBPLACEHOLDER
  2
AcDbPlaceHolder
  3
ObjectDBX Classes
 90
        0
280
     0
281
     0
  0
CLASS
  1
LAYOUT
  2
AcDbLayout
  3
ObjectDBX Classes
 90
        0
280
     0
281
     0
  0
ENDSEC
  0
SECTION
  2
TABLES
  0
TABLE
  2
VPORT
  5
8
330
0
100
AcDbSymbolTable
 70
    17
  0
VPORT
  5
29
330
8
100
AcDbSymbolTableRecord
100
AcDbViewportTableRecord
  2
DUMMY
 70
     0
 10
0.0
 20
0.0
 11
1.0
 21
1.0
 12
10.429907
 22
4.5
 13
0.0
 23
0.0
 14
0.5
 24
0.5
 15
0.5
 25
0.5
 16
0.0
 26
0.0
 36
1.0
 17
0.0
 27
0.0
 37
0.0
 40
9.0
 41
1.972973
 42
50.0
 43
0.0
 44
0.0
 50
0.0
 51
0.0
 71
     0
 72
   100
 73
     1
 74
     3
 75
     0
 76
     0
 77
     0
 78
     0
281
     0
 65
     1
110
0.0
120
0.0
130
0.0
111
1.0
121
0.0
131
0.0
112
0.0
122
1.0
132
0.0
 79
     0
146
0.0
  0
VPORT
  5
513
330
8
100
AcDbSymbolTableRecord
100
AcDbViewportTableRecord
  2
*ACTIVE
 70
     0
 10
0.0
 20
0.0
 11
1.0
 21
1.0
 12
-6.834472
 22
-6.834472
 13
0.0
 23
0.0
 14
0.5
 24
0.5
 15
0.5
 25
0.5
 16
0.7188730927569434
 26
-0.5850486126764431
 36
0.3754192287502549
 17
0.0
 27
0.0
 37
0.0
 40
61.350868
 41
0.28943
 42
50.0
 43
482.07238
 44
-482.07238
 50
0.0
 51
0.0
 71
     0
 72
   100
 73
     1
 74
     3
 75
     0
 76
     0
 77
     0
 78
     0
281
     0
 65
     1
110
0.0
120
0.0
130
0.0
111
1.0
121
0.0
131
0.0
112
0.0
122
1.0
132
0.0
 79
     0
146
0.0
  0
VPORT
  5
514
330
8
100
AcDbSymbolTableRecord
100
AcDbViewportTableRecord
  2
L1
 70
     0
 10
0.0
 20
0.0
 11
1.0
 21
1.0
 12
-6.834472
 22
-6.834472
 13
0.0
 23
0.0
 14
0.5
 24
0.5
 15
0.5
 25
0.5
 16
0.7188730927569434
 26
-0.5850486126764431
 36
0.3754192287502549
 17
0.0
 27
0.0
 37
0.0
 40
61.350868
 41
0.28943
 42
50.0
 43
482.07238
 44
-482.07238
 50
0.0
 51
0.0
 71
     0
 72
   100
 73
     1
 74
     3
 75
     0
 76
     0
 77
     0
 78
     0
281
     0
 65
     1
110
0.0
120
0.0
130
0.0
111
1.0
121
0.0
131
0.0
112
0.0
122
1.0
132
0.0
 79
     0
146
0.0
  0
VPORT
  5
515
330
8
100
AcDbSymbolTableRecord
100
AcDbViewportTableRecord
  2
L2
 70
     0
 10
0.0
 20
0.0
 11
0.5
 21
1.0
 12
0.0
 22
0.0
 13
0.0
 23
0.0
 14
0.5
 24
0.5
 15
0.5
 25
0.5
 16
0.0
 26
-1.0
 36
0.0
 17
0.0
 27
0.0
 37
0.0
 40
59.28775
 41
0.299501
 42
50.0
 43
30.446227
 44
-30.446227
 50
0.0
 51
0.0
 71
     0
 72
   100
 73
     1
 74
     3
 75
     0
 76
     0
 77
     0
 78
     0
281
     0
 65
     1
110
0.0
120
0.0
130
0.0
111
1.0
121
0.0
131
0.0
112
0.0
122
1.0
132
0.0
 79
     0
146
0.0
  0
VPORT
  5
516
330
8
100
AcDbSymbolTableRecord
100
AcDbViewportTableRecord
  2
L2
 70
     0
 10
0.5
 20
0.0
 11
1.0
 21
1.0
 12
0.0
 22
0.0
 13
0.0
 23
0.0
 14
0.5
 24
0.5
 15
0.5
 25
0.5
 16
1.0
 26
0.0
 36
0.0
 17
0.0
 27
0.0
 37
0.0
 40
59.28775
 41
0.299501
 42
50.0
 43
30.05782
 44
-30.05782
 50
0.0
 51
0.0
 71
     0
 72
   100
 73
     1
 74
     3
 75
     0
 76
     0
 77
     0
 78
     0
281
     0
 65
     1
110
0.0
120
0.0
130
0.0
111
1.0
121
0.0
131
0.0
112
0.0
122
1.0
132
0.0
 79
     0
146
0.0
  0
VPORT
  5
517
330
8
100
AcDbSymbolTableRecord
100
AcDbViewportTableRecord
  2
L3
 70
     0
 10
0.0
 20
0.5
 11
1.0
 21
1.0
 12
0.0
 22
0.0
 13
0.0
 23
0.0
 14
0.5
 24
0.5
 15
0.5
 25
0.5
 16
0.0
 26
0.0
 36
1.0
 17
0.0
 27
0.0
 37
0.0
 40
9.942483
 41
1.785948
 42
50.0
 43
29.643875
 44
-29.643875
 50
0.0
 51
0.0
 71
     0
 72
   100
 73
     1
 74
     3
 75
     0
 76
     0
 77
     0
 78
     0
281
     0
 65
     1
110
0.0
120
0.0
130
0.0
111
1.0
121
0.0
131
0.0
112
0.0
122
1.0
132
0.0
 79
     0
146
0.0
  0
VPORT
  5
518
330
8
100
AcDbSymbolTableRecord
100
AcDbViewportTableRecord
  2
L3
 70
     0
 10
0.0
 20
0.0
 11
1.0
 21
0.5
 12
0.0
 22
0.0
 13
0.0
 23
0.0
 14
0.5
 24
0.5
 15
0.5
 25
0.5
 16
0.0
 26
-1.0
 36
0.0
 17
0.0
 27
0.0
 37
0.0
 40
59.28775
 41
0.299501
 42
50.0
 43
30.446227
 44
-30.446227
 50
0.0
 51
0.0
 71
     0
 72
   100
 73
     1
 74
     3
 75
     0
 76
     0
 77
     0
 78
     0
281
     0
 65
     1
110
0.0
120
0.0
130
0.0
111
1.0
121
0.0
131
0.0
112
0.0
122
1.0
132
0.0
 79
     0
146
0.0
  0
VPORT
  5
519
330
8
100
AcDbSymbolTableRecord
100
AcDbViewportTableRecord
  2
L4
 70
     0
 10
0.0
 20
0.5
 11
0.5
 21
1.0
 12
0.0
 22
0.0
 13
0.0
 23
0.0
 14
0.5
 24
0.5
 15
0.5
 25
0.5
 16
0.0
 26
0.0
 36
1.0
 17
0.0
 27
0.0
 37
0.0
 40
9.942483
 41
1.785948
 42
50.0
 43
29.643875
 44
-29.643875
 50
0.0
 51
0.0
 71
     0
 72
   100
 73
     1
 74
     3
 75
     0
 76
     0
 77
     0
 78
     0
281
     0
 65
     1
110
0.0
120
0.0
130
0.0
111
1.0
121
0.0
131
0.0
112
0.0
122
1.0
132
0.0
 79
     0
146
0.0
  0
VPORT
  5
51A
330
8
100
AcDbSymbolTableRecord
100
AcDbViewportTableRecord
  2
L4
 70
     0
 10
0.0
 20
0.0
 11
0.5
 21
0.5
 12
0.0
 22
0.0
 13
0.0
 23
0.0
 14
0.5
 24
0.5
 15
0.5
 25
0.5
 16
0.0
 26
-1.0
 36
0.0
 17
0.0
 27
0.0
 37
0.0
 40
59.28775
 41
0.299501
 42
50.0
 43
30.446227
 44
-30.446227
 50
0.0
 51
0.0
 71
     0
 72
   100
 73
     1
 74
     3
 75
     0
 76
     0
 77
     0
 78
     0
281
     0
 65
     1
110
0.0
120
0.0
130
0.0
111
1.0
121
0.0
131
0.0
112
0.0
122
1.0
132
0.0
 79
     0
146
0.0
  0
VPORT
  5
51B
330
8
100
AcDbSymbolTableRecord
100
AcDbViewportTableRecord
  2
L4
 70
     0
 10
0.5
 20
0.0
 11
1.0
 21
0.5
 12
0.0
 22
0.0
 13
0.0
 23
0.0
 14
0.5
 24
0.5
 15
0.5
 25
0.5
 16
1.0
 26
0.0
 36
0.0
 17
0.0
 27
0.0
 37
0.0
 40
59.28775
 41
0.299501
 42
50.0
 43
30.05782
 44
-30.05782
 50
0.0
 51
0.0
 71
     0
 72
   100
 73
     1
 74
     3
 75
     0
 76
     0
 77
     0
 78
     0
281
     0
 65
     1
110
0.0
120
0.0
130
0.0
111
1.0
121
0.0
131
0.0
112
0.0
122
1.0
132
0.0
 79
     0
146
0.0
  0
VPORT
  5
51C
330
8
100
AcDbSymbolTableRecord
100
AcDbViewportTableRecord
  2
L4
 70
     0
 10
0.5
 20
0.5
 11
1.0
 21
1.0
 12
0.0
 22
0.0
 13
0.0
 23
0.0
 14
0.5
 24
0.5
 15
0.5
 25
0.5
 16
0.5773502691896258
 26
-0.5773502691896258
 36
0.5773502691896258
 17
0.0
 27
0.0
 37
0.0
 40
58.136664
 41
0.305431
 42
50.0
 43
30.264658
 44
-30.264658
 50
0.0
 51
0.0
 71
     0
 72
   100
 73
     1
 74
     3
 75
     0
 76
     0
 77
     0
 78
     0
281
     0
 65
     1
110
0.0
120
0.0
130
0.0
111
1.0
121
0.0
131
0.0
112
0.0
122
1.0
132
0.0
 79
     0
146
0.0
  0
VPORT
  5
51D
330
8
100
AcDbSymbolTableRecord
100
AcDbViewportTableRecord
  2
L6
 70
     0
 10
0.0
 20
0.5
 11
0.333333
 21
1.0
 12
-6.834472
 22
-6.834472
 13
0.0
 23
0.0
 14
0.5
 24
0.5
 15
0.5
 25
0.5
 16
0.7188730927569434
 26
-0.5850486126764431
 36
0.3754192287502549
 17
0.0
 27
0.0
 37
0.0
 40
61.350868
 41
0.28943
 42
50.0
 43
482.07238
 44
-482.07238
 50
0.0
 51
0.0
 71
     0
 72
   100
 73
     1
 74
     3
 75
     0
 76
     0
 77
     0
 78
     0
281
     0
 65
     1
110
0.0
120
0.0
130
0.0
111
1.0
121
0.0
131
0.0
112
0.0
122
1.0
132
0.0
 79
     0
146
0.0
  0
VPORT
  5
51E
330
8
100
AcDbSymbolTableRecord
100
AcDbViewportTableRecord
  2
L6
 70
     0
 10
0.0
 20
0.0
 11
0.333333
 21
0.5
 12
0.0
 22
0.0
 13
0.0
 23
0.0
 14
0.5
 24
0.5
 15
0.5
 25
0.5
 16
-1.0
 26
0.0
 36
0.0
 17
0.0
 27
0.0
 37
0.0
 40
59.28775
 41
0.299501
 42
50.0
 43
30.05782
 44
-30.05782
 50
0.0
 51
0.0
 71
     0
 72
   100
 73
     1
 74
     3
 75
     0
 76
     0
 77
     0
 78
     0
281
     0
 65
     1
110
0.0
120
0.0
130
0.0
111
1.0
121
0.0
131
0.0
112
0.0
122
1.0
132
0.0
 79
     0
146
0.0
  0
VPORT
  5
51F
330
8
100
AcDbSymbolTableRecord
100
AcDbViewportTableRecord
  2
L6
 70
     0
 10
0.333333
 20
0.5
 11
0.666667
 21
1.0
 12
0.0
 22
0.0
 13
0.0
 23
0.0
 14
0.5
 24
0.5
 15
0.5
 25
0.5
 16
0.0
 26
0.0
 36
1.0
 17
0.0
 27
0.0
 37
0.0
 40
9.942483
 41
1.785948
 42
50.0
 43
29.643875
 44
-29.643875
 50
0.0
 51
0.0
 71
     0
 72
   100
 73
     1
 74
     3
 75
     0
 76
     0
 77
     0
 78
     0
281
     0
 65
     1
110
0.0
120
0.0
130
0.0
111
1.0
121
0.0
131
0.0
112
0.0
122
1.0
132
0.0
 79
     0
146
0.0
  0
VPORT
  5
520
330
8
100
AcDbSymbolTableRecord
100
AcDbViewportTableRecord
  2
L6
 70
     0
 10
0.333333
 20
0.0
 11
0.666667
 21
0.5
 12
0.0
 22
0.0
 13
0.0
 23
0.0
 14
0.5
 24
0.5
 15
0.5
 25
0.5
 16
0.0
 26
-1.0
 36
0.0
 17
0.0
 27
0.0
 37
0.0
 40
59.28775
 41
0.299501
 42
50.0
 43
30.446227
 44
-30.446227
 50
0.0
 51
0.0
 71
     0
 72
   100
 73
     1
 74
     3
 75
     0
 76
     0
 77
     0
 78
     0
281
     0
 65
     1
110
0.0
120
0.0
130
0.0
111
1.0
121
0.0
131
0.0
112
0.0
122
1.0
132
0.0
 79
     0
146
0.0
  0
VPORT
  5
521
330
8
100
AcDbSymbolTableRecord
100
AcDbViewportTableRecord
  2
L6
 70
     0
 10
0.666667
 20
0.5
 11
1.0
 21
1.0
 12
0.0
 22
0.0
 13
0.0
 23
0.0
 14
0.5
 24
0.5
 15
0.5
 25
0.5
 16
0.5773502691896258
 26
-0.5773502691896258
 36
0.5773502691896258
 17
0.0
 27
0.0
 37
0.0
 40
58.136664
 41
0.305431
 42
50.0
 43
30.264658
 44
-30.264658
 50
0.0
 51
0.0
 71
     0
 72
   100
 73
     1
 74
     3
 75
     0
 76
     0
 77
     0
 78
     0
281
     0
 65
     1
110
0.0
120
0.0
130
0.0
111
1.0
121
0.0
131
0.0
112
0.0
122
1.0
132
0.0
 79
     0
146
0.0
  0
VPORT
  5
522
330
8
100
AcDbSymbolTableRecord
100
AcDbViewportTableRecord
  2
L6
 70
     0
 10
0.666667
 20
0.0
 11
1.0
 21
0.5
 12
0.0
 22
0.0
 13
0.0
 23
0.0
 14
0.5
 24
0.5
 15
0.5
 25
0.5
 16
1.0
 26
0.0
 36
0.0
 17
0.0
 27
0.0
 37
0.0
 40
59.28775
 41
0.299501
 42
50.0
 43
30.05782
 44
-30.05782
 50
0.0
 51
0.0
 71
     0
 72
   100
 73
     1
 74
     3
 75
     0
 76
     0
 77
     0
 78
     0
281
     0
 65
     1
110
0.0
120
0.0
130
0.0
111
1.0
121
0.0
131
0.0
112
0.0
122
1.0
132
0.0
 79
     0
146
0.0
  0
ENDTAB
  0
TABLE
  2
LTYPE
  5
5
330
0
100
AcDbSymbolTable
 70
     7
  0
LTYPE
  5
14
330
5
100
AcDbSymbolTableRecord
100
AcDbLinetypeTableRecord
  2
BYBLOCK
 70
     0
  3

 72
    65
 73
     0
 40
0.0
  0
LTYPE
  5
15
330
5
100
AcDbSymbolTableRecord
100
AcDbLinetypeTableRecord
  2
BYLAYER
 70
     0
  3

 72
    65
 73
     0
 40
0.0
  0
LTYPE
  5
16
330
5
100
AcDbSymbolTableRecord
100
AcDbLinetypeTableRecord
  2
CONTINUOUS
 70
     0
  3
Solid line
 72
    65
 73
     0
 40
0.0
  0
LTYPE
  5
40
330
5
100
AcDbSymbolTableRecord
100
AcDbLinetypeTableRecord
  2
DASHED
 70
     0
  3
__ __ __ __ __ __ __ __ __
 72
    65
 73
     2
 40
25.72
 49
12.86
 74
     4
 75
     0
340
0
 46
0.0
 50
0.0
 44
0.0
 45
0.0
 49
-12.86
 74
     4
 75
     0
340
0
 46
0.0
 50
0.0
 44
0.0
 45
0.0
  0
LTYPE
  5
41
330
5
100
AcDbSymbolTableRecord
100
AcDbLinetypeTableRecord
  2
HIDDEN
 70
     0
  3
_ _ _ _ _ _ _ _ _ _ _ _ _ _ _
 72
    65
 73
     2
 40
0.5
 49
0.25
 74
     4
 75
     0
340
0
 46
0.0
 50
0.0
 44
0.0
 45
0.0
 49
-0.25
 74
     4
 75
     0
340
0
 46
0.0
 50
0.0
 44
0.0
 45
0.0
  0
LTYPE
  5
42
330
5
100
AcDbSymbolTableRecord
100
AcDbLinetypeTableRecord
  2
PHANTOM
 70
     0
  3
____ _ _ ____ _ _ _____ _ _ ____
 72
    65
 73
     6
 40
50.5
 49
18.0
 74
     4
 75
     0
340
0
 46
0.0
 50
0.0
 44
0.0
 45
0.0
 49
-6.5
 74
     4
 75
     0
340
0
 46
0.0
 50
0.0
 44
0.0
 45
0.0
 49
6.5
 74
     4
 75
     0
340
0
 46
0.0
 50
0.0
 44
0.0
 45
0.0
 49
-6.5
 74
     4
 75
     0
340
0
 46
0.0
 50
0.0
 44
0.0
 45
0.0
 49
6.5
 74
     4
 75
     0
340
0
 46
0.0
 50
0.0
 44
0.0
 45
0.0
 49
-6.5
 74
     4
 75
     0
340
0
 46
0.0
 50
0.0
 44
0.0
 45
0.0
  0
LTYPE
  5
43
330
5
100
AcDbSymbolTableRecord
100
AcDbLinetypeTableRecord
  2
CENTER
 70
     0
  3
____ _ ____ _ ____ _ ____
 72
    65
 73
     4
 40
47.4
 49
22.0
 74
     4
 75
     0
340
0
 46
0.0
 50
0.0
 44
0.0
 45
0.0
 49
-8.5
 74
     4
 75
     0
340
0
 46
0.0
 50
0.0
 44
0.0
 45
0.0
 49
8.5
 74
     4
 75
     0
340
0
 46
0.0
 50
0.0
 44
0.0
 45
0.0
 49
-8.5
 74
     4
 75
     0
340
0
 46
0.0
 50
0.0
 44
0.0
 45
0.0
  0
LTYPE
  5
44
330
5
100
AcDbSymbolTableRecord
100
AcDbLinetypeTableRecord
  2
DOT
 70
     0
  3
.........................
 72
    65
 73
     2
 40
10.0
 49
0.0
 74
     4
 75
     0
340
0
 46
0.0
 50
0.0
 44
0.0
 45
0.0
 49
-10.0
 74
     4
 75
     0
340
0
 46
0.0
 50
0.0
 44
0.0
 45
0.0
  0
LTYPE
  5
45
330
5
100
AcDbSymbolTableRecord
100
AcDbLinetypeTableRecord
  2
DASHDOT
 70
     0
  3
_._._._._._._._._._._._._._._._.
 72
    65
 73
     4
 40
70.0
 49
31.0
 74
     4
 75
     0
340
0
 46
0.0
 50
0.0
 44
0.0
 45
0.0
 49
-13.0
 74
     4
 75
     0
340
0
 46
0.0
 50
0.0
 44
0.0
 45
0.0
 49
13.0
 74
     4
 75
     0
340
0
 46
0.0
 50
0.0
 44
0.0
 45
0.0
 49
-13.0
 74
     4
 75
     0
340
0
 46
0.0
 50
0.0
 44
0.0
 45
0.0
  0
ENDTAB
  0
TABLE
  2
LAYER
  5
2
330
0
100
AcDbSymbolTable
 70
     2
  0
LAYER
  5
10
330
2
100
AcDbSymbolTableRecord
100
AcDbLayerTableRecord
  2
0
 70
     0
 62
     7
  6
CONTINUOUS
370
    -3
390
F
  0
LAYER
  5
53
330
2
100
AcDbSymbolTableRecord
100
AcDbLayerTableRecord
  2
1
 70
     0
 62
     7
  6
CONTINUOUS
370
    -3
390
F
  0
ENDTAB
  0
TABLE
  2
STYLE
  5
3
330
0
100
AcDbSymbolTable
 70
     1
  0
STYLE
  5
11
330
3
100
AcDbSymbolTableRecord
100
AcDbTextStyleTableRecord
  2
Standard
 70
     0
 40
0.0
 41
1.0
 50
0.0
 71
     0
 42
0.2
  3
txt
  4

  0
ENDTAB
  0
TABLE
  2
VIEW
  5
6
330
0
100
AcDbSymbolTable
 70
     8
  0
VIEW
  5
46
330
6
100
AcDbSymbolTableRecord
100
AcDbViewTableRecord
  2
TOP
 70
     0
 40
9.942483
 10
0.0
 20
0.0
 41
13.88718
 11
0.0
 21
0.0
 31
1.0
 12
0.0
 22
0.0
 32
0.0
 42
50.0
 43
29.643875
 44
-29.643875
 50
0.0
 71
     0
281
     0
 72
     0
  0
VIEW
  5
47
330
6
100
AcDbSymbolTableRecord
100
AcDbViewTableRecord
  2
FRONT
 70
     0
 40
59.28775
 10
0.0
 20
0.0
 41
13.88718
 11
0.0
 21
-1.0
 31
0.0
 12
0.0
 22
0.0
 32
0.0
 42
50.0
 43
30.446227
 44
-30.446227
 50
0.0
 71
     0
281
     0
 72
     0
  0
VIEW
  5
48
330
6
100
AcDbSymbolTableRecord
100
AcDbViewTableRecord
  2
RIGHT
 70
     0
 40
59.28775
 10
0.0
 20
0.0
 41
9.942483
 11
1.0
 21
0.0
 31
0.0
 12
0.0
 22
0.0
 32
0.0
 42
50.0
 43
30.05782
 44
-30.05782
 50
0.0
 71
     0
281
     0
 72
     0
  0
VIEW
  5
49
330
6
100
AcDbSymbolTableRecord
100
AcDbViewTableRecord
  2
BACK
 70
     0
 40
59.28775
 10
0.0
 20
0.0
 41
13.88718
 11
0.0
 21
1.0
 31
0.0
 12
0.0
 22
0.0
 32
0.0
 42
50.0
 43
30.446227
 44
-30.446227
 50
0.0
 71
     0
281
     0
 72
     0
  0
VIEW
  5
4A
330
6
100
AcDbSymbolTableRecord
100
AcDbViewTableRecord
  2
BOTTOM
 70
     0
 40
9.942483
 10
0.0
 20
0.0
 41
13.88718
 11
0.0
 21
0.0
 31
-1.0
 12
0.0
 22
0.0
 32
0.0
 42
50.0
 43
29.643875
 44
-29.643875
 50
180.0
 71
     0
281
     0
 72
     0
  0
VIEW
  5
4B
330
6
100
AcDbSymbolTableRecord
100
AcDbViewTableRecord
  2
LEFT
 70
     0
 40
59.28775
 10
0.0
 20
0.0
 41
9.942483
 11
-1.0
 21
0.0
 31
0.0
 12
0.0
 22
0.0
 32
0.0
 42
50.0
 43
30.05782
 44
-30.05782
 50
0.0
 71
     0
281
     0
 72
     0
  0
VIEW
  5
4C
330
6
100
AcDbSymbolTableRecord
100
AcDbViewTableRecord
  2
TFR-ISO
 70
     0
 40
58.136664
 10
0.0
 20
0.0
 41
16.850116
 11
0.5773502691896258
 21
-0.5773502691896258
 31
0.5773502691896258
 12
0.0
 22
0.0
 32
0.0
 42
50.0
 43
30.264658
 44
-30.264658
 50
0.0
 71
     0
281
     0
 72
     0
  0
VIEW
  5
4D
330
6
100
AcDbSymbolTableRecord
100
AcDbViewTableRecord
  2
TFR-TRI
 70
     0
 40
61.350868
 10
0.0
 20
0.0
 41
16.477288
 11
0.7188730927569434
 21
-0.5850486126764431
 31
0.3754192287502549
 12
0.0
 22
0.0
 32
0.0
 42
50.0
 43
31.762517
 44
-31.762517
 50
0.0
 71
     0
281
     0
 72
     0
  0
ENDTAB
  0
TABLE
  2
UCS
  5
7
330
0
100
AcDbSymbolTable
 70
     0
  0
ENDTAB
  0
TABLE
  2
APPID
  5
9
330
0
100
AcDbSymbolTable
 70
     1
  0
APPID
  5
12
330
9
100
AcDbSymbolTableRecord
100
AcDbRegAppTableRecord
  2
ACAD
 70
     0
  0
ENDTAB
  0
TABLE
  2
DIMSTYLE
  5
A
330
0
100
AcDbSymbolTable
 70
     1
100
AcDbDimStyleTable
  0
DIMSTYLE
105
27
330
A
100
AcDbSymbolTableRecord
100
AcDbDimStyleTableRecord
  2
Standard
 70
     0
178
     0
340
11
  0
ENDTAB
  0
TABLE
  2
BLOCK_RECORD
  5
1
330
0
100
AcDbSymbolTable
 70
     2
  0
BLOCK_RECORD
  5
1F
330
1
100
AcDbSymbolTableRecord
100
AcDbBlockTableRecord
  2
*Model_Space
340
22
  0
BLOCK_RECORD
  5
4E
330
1
100
AcDbSymbolTableRecord
100
AcDbBlockTableRecord
  2
*PAPER_SPACE
340
512
  0
ENDTAB
  0
ENDSEC
  0
SECTION
  2
BLOCKS
  0
BLOCK
  5
20
330
1F
100
AcDbEntity
  8
0
100
AcDbBlockBegin
  2
*Model_Space
 70
     0
 10
0.0
 20
0.0
 30
0.0
  3
*Model_Space
  1

  0
ENDBLK
  5
21
330
1F
100
AcDbEntity
  8
0
100
AcDbBlockEnd
  0
BLOCK
  5
4F
330
4E
100
AcDbEntity
 67
     1
  8
0
100
AcDbBlockBegin
  2
*PAPER_SPACE
 70
     0
 10
0.0
 20
0.0
 30
0.0
  3
*PAPER_SPACE
  1

  0
ENDBLK
  5
50
330
4E
100
AcDbEntity
 67
     1
  8
0
100
AcDbBlockEnd
  0
ENDSEC
  0
SECTION
  2
ENTITIES
  0
VIEWPORT
  5
51
330
4E
100
AcDbEntity
 67
     1
  8
0
100
AcDbViewport
 10
5.5
 20
4.25
 30
0.0
 40
11.0
 41
8.5
 68
     1
 69
     1
 12
5.5
 22
4.25
 13
0.0
 23
0.0
 14
1.0
 24
1.0
 15
1.0
 25
1.0
 16
0.0
 26
0.0
 36
1.0
 17
0.0
 27
0.0
 37
0.0
 42
43.280727
 43
0.0
 44
0.0
 45
8.5
 50
0.0
 51
0.0
 72
   100
 90
   557152
  1

281
     0
 71
     1
 74
     0
110
0.0
120
0.0
130
0.0
111
1.0
121
0.0
131
0.0
112
0.0
122
1.0
132
0.0
 79
     0
146
0.0
  0
LINE
  5
52
330
4E
100
AcDbEntity
 67
     1
  8
1
  6
CONTINUOUS
 62
    18
100
AcDbLine
 10
2.056965
 20
5.308814
 30
0.0
 11
1.881965
 21
5.308814
 31
0.0
  0
LINE
  5
54
330
4E
100
AcDbEntity
 67
     1
  8
1
  6
CONTINUOUS
 62
    18
100
AcDbLine
 10
2.691965
 20
5.308814
 30
0.0
 11
2.516965
 21
5.308814
 31
0.0
  0
LINE
  5
55
330
4E
100
AcDbEntity
 67
     1
  8
1
  6
CONTINUOUS
 62
    18
100
AcDbLine
 10
2.056965
 20
3.973812
 30
0.0
 11
1.881965
 21
3.973812
 31
0.0
  0
LINE
  5
56
330
4E
100
AcDbEntity
 67
     1
  8
1
  6
CONTINUOUS
 62
    18
100
AcDbLine
 10
2.691965
 20
3.973812
 30
0.0
 11
2.516965
 21
3.973812
 31
0.0
  0
LINE
  5
57
330
4E
100
AcDbEntity
 67
     1
  8
1
  6
CONTINUOUS
 62
    18
100
AcDbLine
 10
2.897965
 20
4.540043
 30
0.0
 11
1.675965
 21
4.540043
 31
0.0
  0
LINE
  5
58
330
4E
100
AcDbEntity
 67
     1
  8
1
  6
CONTINUOUS
 62
    18
100
AcDbLine
 10
1.655965
 20
3.660043
 30
0.0
 11
1.655965
 21
4.520043
 31
0.0
  0
LINE
  5
59
330
4E
100
AcDbEntity
 67
     1
  8
1
  6
CONTINUOUS
 62
    18
100
AcDbLine
 10
2.917965
 20
3.660043
 30
0.0
 11
2.917965
 21
4.520043
 31
0.0
  0
LINE
  5
5A
330
4E
100
AcDbEntity
 67
     1
  8
1
  6
CONTINUOUS
 62
    18
100
AcDbLine
 10
3.476599
 20
2.865927
 30
0.0
 11
3.476599
 21
6.995194
 31
0.0
  0
LINE
  5
5B
330
4E
100
AcDbEntity
 67
     1
  8
1
  6
CONTINUOUS
 62
    18
100
AcDbLine
 10
3.476599
 20
2.865927
 30
0.0
 11
3.510801
 21
2.865927
 31
0.0
  0
LINE
  5
5C
330
4E
100
AcDbEntity
 67
     1
  8
1
  6
CONTINUOUS
 62
    18
100
AcDbLine
 10
3.510801
 20
2.865927
 30
0.0
 11
3.540877
 21
2.865927
 31
0.0
  0
LINE
  5
5D
330
4E
100
AcDbEntity
 67
     1
  8
1
  6
CONTINUOUS
 62
    18
100
AcDbLine
 10
3.540877
 20
6.995194
 30
0.0
 11
3.540877
 21
2.865927
 31
0.0
  0
LINE
  5
5E
330
4E
100
AcDbEntity
 67
     1
  8
1
  6
CONTINUOUS
 62
    18
100
AcDbLine
 10
3.476599
 20
6.995194
 30
0.0
 11
3.510801
 21
6.995194
 31
0.0
  0
LINE
  5
5F
330
4E
100
AcDbEntity
 67
     1
  8
1
  6
CONTINUOUS
 62
    18
100
AcDbLine
 10
3.510801
 20
6.995194
 30
0.0
 11
3.540877
 21
6.995194
 31
0.0
  0
LINE
  5
60
330
4E
100
AcDbEntity
 67
     1
  8
1
  6
CONTINUOUS
 62
    18
100
AcDbLine
 10
0.911965
 20
2.744839
 30
0.0
 11
0.911965
 21
2.710561
 31
0.0
  0
LINE
  5
61
330
4E
100
AcDbEntity
 67
     1
  8
1
  6
CONTINUOUS
 62
    18
100
AcDbLine
 10
0.911965
 20
7.116282
 30
0.0
 11
0.911965
 21
2.744839
 31
0.0
  0
LINE
  5
62
330
4E
100
AcDbEntity
 67
     1
  8
1
  6
CONTINUOUS
 62
    18
100
AcDbLine
 10
0.911965
 20
7.116282
 30
0.0
 11
0.911965
 21
7.150561
 31
0.0
  0
LINE
  5
63
330
4E
100
AcDbEntity
 67
     1
  8
1
  6
CONTINUOUS
 62
    18
100
AcDbLine
 10
1.033052
 20
6.995194
 30
0.0
 11
1.033052
 21
2.865927
 31
0.0
  0
LINE
  5
64
330
4E
100
AcDbEntity
 67
     1
  8
1
  6
CONTINUOUS
 62
    18
100
AcDbLine
 10
1.033052
 20
2.865927
 30
0.0
 11
1.063129
 21
2.865927
 31
0.0
  0
LINE
  5
65
330
4E
100
AcDbEntity
 67
     1
  8
1
  6
CONTINUOUS
 62
    18
100
AcDbLine
 10
1.063129
 20
2.865927
 30
0.0
 11
1.097331
 21
2.865927
 31
0.0
  0
LINE
  5
66
330
4E
100
AcDbEntity
 67
     1
  8
1
  6
CONTINUOUS
 62
    18
100
AcDbLine
 10
1.097331
 20
2.865927
 30
0.0
 11
1.097331
 21
6.995194
 31
0.0
  0
LINE
  5
67
330
4E
100
AcDbEntity
 67
     1
  8
1
  6
CONTINUOUS
 62
    18
100
AcDbLine
 10
1.033052
 20
6.995194
 30
0.0
 11
1.063129
 21
6.995194
 31
0.0
  0
LINE
  5
68
330
4E
100
AcDbEntity
 67
     1
  8
1
  6
CONTINUOUS
 62
    18
100
AcDbLine
 10
1.063129
 20
6.995194
 30
0.0
 11
1.097331
 21
6.995194
 31
0.0
  0
LINE
  5
69
330
4E
100
AcDbEntity
 67
     1
  8
1
  6
CONTINUOUS
 62
    18
100
AcDbLine
 10
1.033052
 20
2.865927
 30
0.0
 11
0.911965
 21
2.744839
 31
0.0
  0
LINE
  5
6A
330
4E
100
AcDbEntity
 67
     1
  8
1
  6
CONTINUOUS
 62
    18
100
AcDbLine
 10
1.033052
 20
6.995194
 30
0.0
 11
0.911965
 21
7.116282
 31
0.0
  0
LINE
  5
6B
330
4E
100
AcDbEntity
 67
     1
  8
1
  6
CONTINUOUS
 62
    18
100
AcDbLine
 10
3.661965
 20
7.116282
 30
0.0
 11
3.661965
 21
2.744839
 31
0.0
  0
LINE
  5
6C
330
4E
100
AcDbEntity
 67
     1
  8
1
  6
CONTINUOUS
 62
    18
100
AcDbLine
 10
3.661965
 20
2.710561
 30
0.0
 11
3.661965
 21
2.744839
 31
0.0
  0
LINE
  5
6D
330
4E
100
AcDbEntity
 67
     1
  8
1
  6
CONTINUOUS
 62
    18
100
AcDbLine
 10
3.661965
 20
7.150561
 30
0.0
 11
3.661965
 21
7.116282
 31
0.0
  0
LINE
  5
6E
330
4E
100
AcDbEntity
 67
     1
  8
1
  6
CONTINUOUS
 62
    18
100
AcDbLine
 10
3.661965
 20
2.744839
 30
0.0
 11
3.540877
 21
2.865927
 31
0.0
  0
LINE
  5
6F
330
4E
100
AcDbEntity
 67
     1
  8
1
  6
CONTINUOUS
 62
    18
100
AcDbLine
 10
3.661965
 20
7.116282
 30
0.0
 11
3.540877
 21
6.995194
 31
0.0
  0
LINE
  5
70
330
4E
100
AcDbEntity
 67
     1
  8
1
  6
CONTINUOUS
 62
    18
100
AcDbLine
 10
2.897965
 20
5.900168
 30
0.0
 11
1.675965
 21
5.900168
 31
0.0
  0
LINE
  5
71
330
4E
100
AcDbEntity
 67
     1
  8
1
  6
CONTINUOUS
 62
    18
100
AcDbLine
 10
2.917965
 20
5.020169
 30
0.0
 11
2.917965
 21
5.880168
 31
0.0
  0
LINE
  5
72
330
4E
100
AcDbEntity
 67
     1
  8
1
  6
CONTINUOUS
 62
    18
100
AcDbLine
 10
1.675965
 20
5.000168
 30
0.0
 11
2.897965
 21
5.000168
 31
0.0
  0
LINE
  5
73
330
4E
100
AcDbEntity
 67
     1
  8
1
  6
CONTINUOUS
 62
    18
100
AcDbLine
 10
1.655965
 20
5.880168
 30
0.0
 11
1.655965
 21
5.020169
 31
0.0
  0
LINE
  5
74
330
4E
100
AcDbEntity
 67
     1
  8
1
  6
CONTINUOUS
 62
    18
100
AcDbLine
 10
2.897965
 20
3.640043
 30
0.0
 11
1.675965
 21
3.640043
 31
0.0
  0
LINE
  5
75
330
4E
100
AcDbEntity
 67
     1
  8
1
  6
CONTINUOUS
 62
    18
100
AcDbLine
 10
3.476599
 20
2.865927
 30
0.0
 11
1.097331
 21
2.865927
 31
0.0
  0
LINE
  5
76
330
4E
100
AcDbEntity
 67
     1
  8
1
  6
CONTINUOUS
 62
    18
100
AcDbLine
 10
3.476599
 20
6.995194
 30
0.0
 11
1.097331
 21
6.995194
 31
0.0
  0
LINE
  5
77
330
4E
100
AcDbEntity
 67
     1
  8
1
  6
CONTINUOUS
 62
    18
100
AcDbLine
 10
2.629465
 20
6.827061
 30
0.0
 11
1.944465
 21
6.827061
 31
0.0
  0
LINE
  5
78
330
4E
100
AcDbEntity
 67
     1
  8
1
  6
CONTINUOUS
 62
    18
100
AcDbLine
 10
2.659465
 20
6.889998
 30
0.0
 11
2.659465
 21
6.857061
 31
0.0
  0
LINE
  5
79
330
4E
100
AcDbEntity
 67
     1
  8
1
  6
CONTINUOUS
 62
    18
100
AcDbLine
 10
2.964465
 20
6.889998
 30
0.0
 11
2.719465
 21
6.889998
 31
0.0
  0
LINE
  5
7A
330
4E
100
AcDbEntity
 67
     1
  8
1
  6
CONTINUOUS
 62
    18
100
AcDbLine
 10
3.024465
 20
6.857061
 30
0.0
 11
3.024465
 21
6.889998
 31
0.0
  0
LINE
  5
7B
330
4E
100
AcDbEntity
 67
     1
  8
1
  6
CONTINUOUS
 62
    18
100
AcDbLine
 10
3.287465
 20
6.827061
 30
0.0
 11
3.054465
 21
6.827061
 31
0.0
  0
LINE
  5
7C
330
4E
100
AcDbEntity
 67
     1
  8
1
  6
CONTINUOUS
 62
    18
100
AcDbLine
 10
3.317465
 20
6.797061
 30
0.0
 11
3.317465
 21
6.345061
 31
0.0
  0
LINE
  5
7D
330
4E
100
AcDbEntity
 67
     1
  8
1
  6
CONTINUOUS
 62
    18
100
AcDbLine
 10
2.433402
 20
6.315061
 30
0.0
 11
3.287465
 21
6.315061
 31
0.0
  0
LINE
  5
7E
330
4E
100
AcDbEntity
 67
     1
  8
1
  6
CONTINUOUS
 62
    18
100
AcDbLine
 10
2.386965
 20
6.295061
 30
0.0
 11
2.38868
 21
6.295061
 31
0.0
  0
LINE
  5
7F
330
4E
100
AcDbEntity
 67
     1
  8
1
  6
CONTINUOUS
 62
    18
100
AcDbLine
 10
2.212945
 20
6.310061
 30
0.0
 11
2.360984
 21
6.310061
 31
0.0
  0
LINE
  5
80
330
4E
100
AcDbEntity
 67
     1
  8
1
  6
CONTINUOUS
 62
    18
100
AcDbLine
 10
2.186965
 20
6.295061
 30
0.0
 11
2.185249
 21
6.295061
 31
0.0
  0
LINE
  5
81
330
4E
100
AcDbEntity
 67
     1
  8
1
  6
CONTINUOUS
 62
    18
100
AcDbLine
 10
1.286465
 20
6.315061
 30
0.0
 11
2.140528
 21
6.315061
 31
0.0
  0
LINE
  5
82
330
4E
100
AcDbEntity
 67
     1
  8
1
  6
CONTINUOUS
 62
    18
100
AcDbLine
 10
1.256465
 20
6.797061
 30
0.0
 11
1.256465
 21
6.345061
 31
0.0
  0
LINE
  5
83
330
4E
100
AcDbEntity
 67
     1
  8
1
  6
CONTINUOUS
 62
    18
100
AcDbLine
 10
1.519465
 20
6.827061
 30
0.0
 11
1.286465
 21
6.827061
 31
0.0
  0
LINE
  5
84
330
4E
100
AcDbEntity
 67
     1
  8
1
  6
CONTINUOUS
 62
    18
100
AcDbLine
 10
1.549465
 20
6.889998
 30
0.0
 11
1.549465
 21
6.857061
 31
0.0
  0
LINE
  5
85
330
4E
100
AcDbEntity
 67
     1
  8
1
  6
CONTINUOUS
 62
    18
100
AcDbLine
 10
1.609465
 20
6.889998
 30
0.0
 11
1.854465
 21
6.889998
 31
0.0
  0
LINE
  5
86
330
4E
100
AcDbEntity
 67
     1
  8
1
  6
CONTINUOUS
 62
    18
100
AcDbLine
 10
1.914465
 20
6.857061
 30
0.0
 11
1.914465
 21
6.889998
 31
0.0
  0
LINE
  5
87
330
4E
100
AcDbEntity
 67
     1
  8
1
  6
CONTINUOUS
 62
    18
100
AcDbLine
 10
1.834465
 20
3.004061
 30
0.0
 11
1.834465
 21
2.971124
 31
0.0
  0
LINE
  5
88
330
4E
100
AcDbEntity
 67
     1
  8
1
  6
CONTINUOUS
 62
    18
100
AcDbLine
 10
1.529465
 20
2.971124
 30
0.0
 11
1.774465
 21
2.971124
 31
0.0
  0
LINE
  5
89
330
4E
100
AcDbEntity
 67
     1
  8
1
  6
CONTINUOUS
 62
    18
100
AcDbLine
 10
1.469465
 20
2.971124
 30
0.0
 11
1.469465
 21
3.004061
 31
0.0
  0
LINE
  5
8A
330
4E
100
AcDbEntity
 67
     1
  8
1
  6
CONTINUOUS
 62
    18
100
AcDbLine
 10
1.439465
 20
3.034061
 30
0.0
 11
1.286465
 21
3.034061
 31
0.0
  0
LINE
  5
8B
330
4E
100
AcDbEntity
 67
     1
  8
1
  6
CONTINUOUS
 62
    18
100
AcDbLine
 10
1.256465
 20
3.064061
 30
0.0
 11
1.256465
 21
3.516061
 31
0.0
  0
LINE
  5
8C
330
4E
100
AcDbEntity
 67
     1
  8
1
  6
CONTINUOUS
 62
    18
100
AcDbLine
 10
1.286465
 20
3.546061
 30
0.0
 11
2.140528
 21
3.546061
 31
0.0
  0
LINE
  5
8D
330
4E
100
AcDbEntity
 67
     1
  8
1
  6
CONTINUOUS
 62
    18
100
AcDbLine
 10
2.186965
 20
3.566061
 30
0.0
 11
2.185249
 21
3.566061
 31
0.0
  0
LINE
  5
8E
330
4E
100
AcDbEntity
 67
     1
  8
1
  6
CONTINUOUS
 62
    18
100
AcDbLine
 10
2.212945
 20
3.551061
 30
0.0
 11
2.360984
 21
3.551061
 31
0.0
  0
LINE
  5
8F
330
4E
100
AcDbEntity
 67
     1
  8
1
  6
CONTINUOUS
 62
    18
100
AcDbLine
 10
2.386965
 20
3.566061
 30
0.0
 11
2.38868
 21
3.566061
 31
0.0
  0
LINE
  5
90
330
4E
100
AcDbEntity
 67
     1
  8
1
  6
CONTINUOUS
 62
    18
100
AcDbLine
 10
2.433402
 20
3.546061
 30
0.0
 11
3.287465
 21
3.546061
 31
0.0
  0
LINE
  5
91
330
4E
100
AcDbEntity
 67
     1
  8
1
  6
CONTINUOUS
 62
    18
100
AcDbLine
 10
3.317465
 20
3.064061
 30
0.0
 11
3.317465
 21
3.516061
 31
0.0
  0
LINE
  5
92
330
4E
100
AcDbEntity
 67
     1
  8
1
  6
CONTINUOUS
 62
    18
100
AcDbLine
 10
3.287465
 20
3.034061
 30
0.0
 11
3.134465
 21
3.034061
 31
0.0
  0
LINE
  5
93
330
4E
100
AcDbEntity
 67
     1
  8
1
  6
CONTINUOUS
 62
    18
100
AcDbLine
 10
3.104465
 20
3.004061
 30
0.0
 11
3.104465
 21
2.971124
 31
0.0
  0
LINE
  5
94
330
4E
100
AcDbEntity
 67
     1
  8
1
  6
CONTINUOUS
 62
    18
100
AcDbLine
 10
3.044465
 20
2.971124
 30
0.0
 11
2.799465
 21
2.971124
 31
0.0
  0
LINE
  5
95
330
4E
100
AcDbEntity
 67
     1
  8
1
  6
CONTINUOUS
 62
    18
100
AcDbLine
 10
2.739465
 20
2.971124
 30
0.0
 11
2.739465
 21
3.004061
 31
0.0
  0
LINE
  5
96
330
4E
100
AcDbEntity
 67
     1
  8
1
  6
CONTINUOUS
 62
    18
100
AcDbLine
 10
2.709465
 20
3.034061
 30
0.0
 11
1.864465
 21
3.034061
 31
0.0
  0
LINE
  5
97
330
4E
100
AcDbEntity
 67
     1
  8
1
  6
CONTINUOUS
 62
    18
100
AcDbLine
 10
2.326965
 20
6.492061
 30
0.0
 11
2.246965
 21
6.492061
 31
0.0
  0
LINE
  5
98
330
4E
100
AcDbEntity
 67
     1
  8
1
  6
CONTINUOUS
 62
    18
100
AcDbLine
 10
2.356965
 20
6.382061
 30
0.0
 11
2.356965
 21
6.462061
 31
0.0
  0
LINE
  5
99
330
4E
100
AcDbEntity
 67
     1
  8
1
  6
CONTINUOUS
 62
    18
100
AcDbLine
 10
2.216965
 20
6.382061
 30
0.0
 11
2.216965
 21
6.462061
 31
0.0
  0
LINE
  5
9A
330
4E
100
AcDbEntity
 67
     1
  8
1
  6
CONTINUOUS
 62
    18
100
AcDbLine
 10
2.356965
 20
6.382061
 30
0.0
 11
2.216965
 21
6.382061
 31
0.0
  0
LINE
  5
9B
330
4E
100
AcDbEntity
 67
     1
  8
1
  6
CONTINUOUS
 62
    18
100
AcDbLine
 10
2.356965
 20
6.364061
 30
0.0
 11
2.356965
 21
6.369333
 31
0.0
  0
LINE
  5
9C
330
4E
100
AcDbEntity
 67
     1
  8
1
  6
CONTINUOUS
 62
    18
100
AcDbLine
 10
2.356965
 20
6.369333
 30
0.0
 11
2.356965
 21
6.382061
 31
0.0
  0
LINE
  5
9D
330
4E
100
AcDbEntity
 67
     1
  8
1
  6
CONTINUOUS
 62
    18
100
AcDbLine
 10
2.216965
 20
6.364061
 30
0.0
 11
2.216965
 21
6.369333
 31
0.0
  0
LINE
  5
9E
330
4E
100
AcDbEntity
 67
     1
  8
1
  6
CONTINUOUS
 62
    18
100
AcDbLine
 10
2.216965
 20
6.369333
 30
0.0
 11
2.216965
 21
6.382061
 31
0.0
  0
LINE
  5
9F
330
4E
100
AcDbEntity
 67
     1
  8
1
  6
CONTINUOUS
 62
    18
100
AcDbLine
 10
2.356965
 20
6.364061
 30
0.0
 11
2.216965
 21
6.364061
 31
0.0
  0
LINE
  5
A0
330
4E
100
AcDbEntity
 67
     1
  8
1
  6
CONTINUOUS
 62
    18
100
AcDbLine
 10
2.356965
 20
6.325061
 30
0.0
 11
2.356965
 21
6.345311
 31
0.0
  0
LINE
  5
A1
330
4E
100
AcDbEntity
 67
     1
  8
1
  6
CONTINUOUS
 62
    18
100
AcDbLine
 10
2.356965
 20
6.345311
 30
0.0
 11
2.356965
 21
6.35915
 31
0.0
  0
LINE
  5
A2
330
4E
100
AcDbEntity
 67
     1
  8
1
  6
CONTINUOUS
 62
    18
100
AcDbLine
 10
2.356965
 20
6.35915
 30
0.0
 11
2.356965
 21
6.364061
 31
0.0
  0
LINE
  5
A3
330
4E
100
AcDbEntity
 67
     1
  8
1
  6
CONTINUOUS
 62
    18
100
AcDbLine
 10
2.216965
 20
6.325061
 30
0.0
 11
2.216965
 21
6.345311
 31
0.0
  0
LINE
  5
A4
330
4E
100
AcDbEntity
 67
     1
  8
1
  6
CONTINUOUS
 62
    18
100
AcDbLine
 10
2.216965
 20
6.345311
 30
0.0
 11
2.216965
 21
6.35915
 31
0.0
  0
LINE
  5
A5
330
4E
100
AcDbEntity
 67
     1
  8
1
  6
CONTINUOUS
 62
    18
100
AcDbLine
 10
2.216965
 20
6.35915
 30
0.0
 11
2.216965
 21
6.364061
 31
0.0
  0
LINE
  5
A6
330
4E
100
AcDbEntity
 67
     1
  8
1
  6
CONTINUOUS
 62
    18
100
AcDbLine
 10
2.360984
 20
6.310061
 30
0.0
 11
2.357694
 21
6.318488
 31
0.0
  0
LINE
  5
A7
330
4E
100
AcDbEntity
 67
     1
  8
1
  6
CONTINUOUS
 62
    18
100
AcDbLine
 10
2.357694
 20
6.318488
 30
0.0
 11
2.356965
 21
6.325061
 31
0.0
  0
LINE
  5
A8
330
4E
100
AcDbEntity
 67
     1
  8
1
  6
CONTINUOUS
 62
    18
100
AcDbLine
 10
2.216965
 20
6.325061
 30
0.0
 11
2.215646
 21
6.316263
 31
0.0
  0
LINE
  5
A9
330
4E
100
AcDbEntity
 67
     1
  8
1
  6
CONTINUOUS
 62
    18
100
AcDbLine
 10
2.215646
 20
6.316263
 30
0.0
 11
2.212945
 21
6.310061
 31
0.0
  0
LINE
  5
AA
330
4E
100
AcDbEntity
 67
     1
  8
1
  6
CONTINUOUS
 62
    18
100
AcDbLine
 10
1.097331
 20
7.059474
 30
0.0
 11
3.476599
 21
7.059474
 31
0.0
  0
LINE
  5
AB
330
4E
100
AcDbEntity
 67
     1
  8
1
  6
CONTINUOUS
 62
    18
100
AcDbLine
 10
3.476599
 20
7.059474
 30
0.0
 11
3.597686
 21
7.180561
 31
0.0
  0
LINE
  5
AC
330
4E
100
AcDbEntity
 67
     1
  8
1
  6
CONTINUOUS
 62
    18
100
AcDbLine
 10
0.976244
 20
7.180561
 30
0.0
 11
3.597686
 21
7.180561
 31
0.0
  0
LINE
  5
AD
330
4E
100
AcDbEntity
 67
     1
  8
1
  6
CONTINUOUS
 62
    18
100
AcDbLine
 10
0.976244
 20
7.180561
 30
0.0
 11
1.097331
 21
7.059474
 31
0.0
  0
LINE
  5
AE
330
4E
100
AcDbEntity
 67
     1
  8
1
  6
CONTINUOUS
 62
    18
100
AcDbLine
 10
3.476599
 20
6.995194
 30
0.0
 11
3.476599
 21
7.029397
 31
0.0
  0
LINE
  5
AF
330
4E
100
AcDbEntity
 67
     1
  8
1
  6
CONTINUOUS
 62
    18
100
AcDbLine
 10
3.476599
 20
7.029397
 30
0.0
 11
3.476599
 21
7.059474
 31
0.0
  0
LINE
  5
B0
330
4E
100
AcDbEntity
 67
     1
  8
1
  6
CONTINUOUS
 62
    18
100
AcDbLine
 10
1.097331
 20
6.995194
 30
0.0
 11
1.097331
 21
7.029397
 31
0.0
  0
LINE
  5
B1
330
4E
100
AcDbEntity
 67
     1
  8
1
  6
CONTINUOUS
 62
    18
100
AcDbLine
 10
1.097331
 20
7.029397
 30
0.0
 11
1.097331
 21
7.059474
 31
0.0
  0
LINE
  5
B2
330
4E
100
AcDbEntity
 67
     1
  8
1
  6
CONTINUOUS
 62
    18
100
AcDbLine
 10
3.661965
 20
7.150561
 30
0.0
 11
3.660414
 21
7.160081
 31
0.0
  0
LINE
  5
B3
330
4E
100
AcDbEntity
 67
     1
  8
1
  6
CONTINUOUS
 62
    18
100
AcDbLine
 10
3.660414
 20
7.160081
 30
0.0
 11
3.655843
 21
7.168722
 31
0.0
  0
LINE
  5
B4
330
4E
100
AcDbEntity
 67
     1
  8
1
  6
CONTINUOUS
 62
    18
100
AcDbLine
 10
3.655843
 20
7.168722
 30
0.0
 11
3.648739
 21
7.175433
 31
0.0
  0
LINE
  5
B5
330
4E
100
AcDbEntity
 67
     1
  8
1
  6
CONTINUOUS
 62
    18
100
AcDbLine
 10
3.648739
 20
7.175433
 30
0.0
 11
3.639886
 21
7.179496
 31
0.0
  0
LINE
  5
B6
330
4E
100
AcDbEntity
 67
     1
  8
1
  6
CONTINUOUS
 62
    18
100
AcDbLine
 10
3.639886
 20
7.179496
 30
0.0
 11
3.631965
 21
7.180561
 31
0.0
  0
LINE
  5
B7
330
4E
100
AcDbEntity
 67
     1
  8
1
  6
CONTINUOUS
 62
    18
100
AcDbLine
 10
3.597686
 20
7.180561
 30
0.0
 11
3.631965
 21
7.180561
 31
0.0
  0
LINE
  5
B8
330
4E
100
AcDbEntity
 67
     1
  8
1
  6
CONTINUOUS
 62
    18
100
AcDbLine
 10
3.540877
 20
6.995194
 30
0.0
 11
3.52331
 21
7.019755
 31
0.0
  0
LINE
  5
B9
330
4E
100
AcDbEntity
 67
     1
  8
1
  6
CONTINUOUS
 62
    18
100
AcDbLine
 10
3.52331
 20
7.019755
 30
0.0
 11
3.50116
 21
7.041906
 31
0.0
  0
LINE
  5
BA
330
4E
100
AcDbEntity
 67
     1
  8
1
  6
CONTINUOUS
 62
    18
100
AcDbLine
 10
3.50116
 20
7.041906
 30
0.0
 11
3.476599
 21
7.059474
 31
0.0
  0
LINE
  5
BB
330
4E
100
AcDbEntity
 67
     1
  8
1
  6
CONTINUOUS
 62
    18
100
AcDbLine
 10
0.941965
 20
7.180561
 30
0.0
 11
0.976244
 21
7.180561
 31
0.0
  0
LINE
  5
BC
330
4E
100
AcDbEntity
 67
     1
  8
1
  6
CONTINUOUS
 62
    18
100
AcDbLine
 10
0.941965
 20
7.180561
 30
0.0
 11
0.932444
 21
7.17901
 31
0.0
  0
LINE
  5
BD
330
4E
100
AcDbEntity
 67
     1
  8
1
  6
CONTINUOUS
 62
    18
100
AcDbLine
 10
0.932444
 20
7.17901
 30
0.0
 11
0.923804
 21
7.174439
 31
0.0
  0
LINE
  5
BE
330
4E
100
AcDbEntity
 67
     1
  8
1
  6
CONTINUOUS
 62
    18
100
AcDbLine
 10
0.923804
 20
7.174439
 30
0.0
 11
0.917093
 21
7.167336
 31
0.0
  0
LINE
  5
BF
330
4E
100
AcDbEntity
 67
     1
  8
1
  6
CONTINUOUS
 62
    18
100
AcDbLine
 10
0.917093
 20
7.167336
 30
0.0
 11
0.913029
 21
7.158482
 31
0.0
  0
LINE
  5
C0
330
4E
100
AcDbEntity
 67
     1
  8
1
  6
CONTINUOUS
 62
    18
100
AcDbLine
 10
0.913029
 20
7.158482
 30
0.0
 11
0.911965
 21
7.150561
 31
0.0
  0
LINE
  5
C1
330
4E
100
AcDbEntity
 67
     1
  8
1
  6
CONTINUOUS
 62
    18
100
AcDbLine
 10
1.033052
 20
6.995194
 30
0.0
 11
1.050619
 21
7.019755
 31
0.0
  0
LINE
  5
C2
330
4E
100
AcDbEntity
 67
     1
  8
1
  6
CONTINUOUS
 62
    18
100
AcDbLine
 10
1.050619
 20
7.019755
 30
0.0
 11
1.07277
 21
7.041906
 31
0.0
  0
LINE
  5
C3
330
4E
100
AcDbEntity
 67
     1
  8
1
  6
CONTINUOUS
 62
    18
100
AcDbLine
 10
1.07277
 20
7.041906
 30
0.0
 11
1.097331
 21
7.059474
 31
0.0
  0
LINE
  5
C4
330
4E
100
AcDbEntity
 67
     1
  8
1
  6
CONTINUOUS
 62
    18
100
AcDbLine
 10
1.854465
 20
6.835998
 30
0.0
 11
1.609465
 21
6.835998
 31
0.0
  0
LINE
  5
C5
330
4E
100
AcDbEntity
 67
     1
  8
1
  6
CONTINUOUS
 62
    18
100
AcDbLine
 10
1.609465
 20
6.889998
 30
0.0
 11
1.609465
 21
6.869333
 31
0.0
  0
LINE
  5
C6
330
4E
100
AcDbEntity
 67
     1
  8
1
  6
CONTINUOUS
 62
    18
100
AcDbLine
 10
1.609465
 20
6.869333
 30
0.0
 11
1.609465
 21
6.851814
 31
0.0
  0
LINE
  5
C7
330
4E
100
AcDbEntity
 67
     1
  8
1
  6
CONTINUOUS
 62
    18
100
AcDbLine
 10
1.609465
 20
6.851814
 30
0.0
 11
1.609465
 21
6.840108
 31
0.0
  0
LINE
  5
C8
330
4E
100
AcDbEntity
 67
     1
  8
1
  6
CONTINUOUS
 62
    18
100
AcDbLine
 10
1.609465
 20
6.840108
 30
0.0
 11
1.609465
 21
6.835998
 31
0.0
  0
LINE
  5
C9
330
4E
100
AcDbEntity
 67
     1
  8
1
  6
CONTINUOUS
 62
    18
100
AcDbLine
 10
1.854465
 20
6.889998
 30
0.0
 11
1.854465
 21
6.869333
 31
0.0
  0
LINE
  5
CA
330
4E
100
AcDbEntity
 67
     1
  8
1
  6
CONTINUOUS
 62
    18
100
AcDbLine
 10
1.854465
 20
6.869333
 30
0.0
 11
1.854465
 21
6.851814
 31
0.0
  0
LINE
  5
CB
330
4E
100
AcDbEntity
 67
     1
  8
1
  6
CONTINUOUS
 62
    18
100
AcDbLine
 10
1.854465
 20
6.851814
 30
0.0
 11
1.854465
 21
6.840108
 31
0.0
  0
LINE
  5
CC
330
4E
100
AcDbEntity
 67
     1
  8
1
  6
CONTINUOUS
 62
    18
100
AcDbLine
 10
1.854465
 20
6.840108
 30
0.0
 11
1.854465
 21
6.835998
 31
0.0
  0
LINE
  5
CD
330
4E
100
AcDbEntity
 67
     1
  8
1
  6
CONTINUOUS
 62
    18
100
AcDbLine
 10
2.719465
 20
6.835998
 30
0.0
 11
2.964465
 21
6.835998
 31
0.0
  0
LINE
  5
CE
330
4E
100
AcDbEntity
 67
     1
  8
1
  6
CONTINUOUS
 62
    18
100
AcDbLine
 10
2.719465
 20
6.889998
 30
0.0
 11
2.719465
 21
6.869333
 31
0.0
  0
LINE
  5
CF
330
4E
100
AcDbEntity
 67
     1
  8
1
  6
CONTINUOUS
 62
    18
100
AcDbLine
 10
2.719465
 20
6.869333
 30
0.0
 11
2.719465
 21
6.851814
 31
0.0
  0
LINE
  5
D0
330
4E
100
AcDbEntity
 67
     1
  8
1
  6
CONTINUOUS
 62
    18
100
AcDbLine
 10
2.719465
 20
6.851814
 30
0.0
 11
2.719465
 21
6.840108
 31
0.0
  0
LINE
  5
D1
330
4E
100
AcDbEntity
 67
     1
  8
1
  6
CONTINUOUS
 62
    18
100
AcDbLine
 10
2.719465
 20
6.840108
 30
0.0
 11
2.719465
 21
6.835998
 31
0.0
  0
LINE
  5
D2
330
4E
100
AcDbEntity
 67
     1
  8
1
  6
CONTINUOUS
 62
    18
100
AcDbLine
 10
2.964465
 20
6.889998
 30
0.0
 11
2.964465
 21
6.869333
 31
0.0
  0
LINE
  5
D3
330
4E
100
AcDbEntity
 67
     1
  8
1
  6
CONTINUOUS
 62
    18
100
AcDbLine
 10
2.964465
 20
6.869333
 30
0.0
 11
2.964465
 21
6.851814
 31
0.0
  0
LINE
  5
D4
330
4E
100
AcDbEntity
 67
     1
  8
1
  6
CONTINUOUS
 62
    18
100
AcDbLine
 10
2.964465
 20
6.851814
 30
0.0
 11
2.964465
 21
6.840108
 31
0.0
  0
LINE
  5
D5
330
4E
100
AcDbEntity
 67
     1
  8
1
  6
CONTINUOUS
 62
    18
100
AcDbLine
 10
2.964465
 20
6.840108
 30
0.0
 11
2.964465
 21
6.835998
 31
0.0
  0
LINE
  5
D6
330
4E
100
AcDbEntity
 67
     1
  8
1
  6
CONTINUOUS
 62
    18
100
AcDbLine
 10
2.326965
 20
3.369061
 30
0.0
 11
2.246965
 21
3.369061
 31
0.0
  0
LINE
  5
D7
330
4E
100
AcDbEntity
 67
     1
  8
1
  6
CONTINUOUS
 62
    18
100
AcDbLine
 10
2.356965
 20
3.479061
 30
0.0
 11
2.356965
 21
3.399061
 31
0.0
  0
LINE
  5
D8
330
4E
100
AcDbEntity
 67
     1
  8
1
  6
CONTINUOUS
 62
    18
100
AcDbLine
 10
2.216965
 20
3.479061
 30
0.0
 11
2.216965
 21
3.399061
 31
0.0
  0
LINE
  5
D9
330
4E
100
AcDbEntity
 67
     1
  8
1
  6
CONTINUOUS
 62
    18
100
AcDbLine
 10
2.356965
 20
3.479061
 30
0.0
 11
2.216965
 21
3.479061
 31
0.0
  0
LINE
  5
DA
330
4E
100
AcDbEntity
 67
     1
  8
1
  6
CONTINUOUS
 62
    18
100
AcDbLine
 10
2.356965
 20
3.497061
 30
0.0
 11
2.356965
 21
3.491789
 31
0.0
  0
LINE
  5
DB
330
4E
100
AcDbEntity
 67
     1
  8
1
  6
CONTINUOUS
 62
    18
100
AcDbLine
 10
2.356965
 20
3.491789
 30
0.0
 11
2.356965
 21
3.479061
 31
0.0
  0
LINE
  5
DC
330
4E
100
AcDbEntity
 67
     1
  8
1
  6
CONTINUOUS
 62
    18
100
AcDbLine
 10
2.216965
 20
3.497061
 30
0.0
 11
2.216965
 21
3.491789
 31
0.0
  0
LINE
  5
DD
330
4E
100
AcDbEntity
 67
     1
  8
1
  6
CONTINUOUS
 62
    18
100
AcDbLine
 10
2.216965
 20
3.491789
 30
0.0
 11
2.216965
 21
3.479061
 31
0.0
  0
LINE
  5
DE
330
4E
100
AcDbEntity
 67
     1
  8
1
  6
CONTINUOUS
 62
    18
100
AcDbLine
 10
2.356965
 20
3.497061
 30
0.0
 11
2.216965
 21
3.497061
 31
0.0
  0
LINE
  5
DF
330
4E
100
AcDbEntity
 67
     1
  8
1
  6
CONTINUOUS
 62
    18
100
AcDbLine
 10
2.356965
 20
3.536061
 30
0.0
 11
2.356965
 21
3.51581
 31
0.0
  0
LINE
  5
E0
330
4E
100
AcDbEntity
 67
     1
  8
1
  6
CONTINUOUS
 62
    18
100
AcDbLine
 10
2.356965
 20
3.51581
 30
0.0
 11
2.356965
 21
3.501971
 31
0.0
  0
LINE
  5
E1
330
4E
100
AcDbEntity
 67
     1
  8
1
  6
CONTINUOUS
 62
    18
100
AcDbLine
 10
2.356965
 20
3.501971
 30
0.0
 11
2.356965
 21
3.497061
 31
0.0
  0
LINE
  5
E2
330
4E
100
AcDbEntity
 67
     1
  8
1
  6
CONTINUOUS
 62
    18
100
AcDbLine
 10
2.216965
 20
3.536061
 30
0.0
 11
2.216965
 21
3.51581
 31
0.0
  0
LINE
  5
E3
330
4E
100
AcDbEntity
 67
     1
  8
1
  6
CONTINUOUS
 62
    18
100
AcDbLine
 10
2.216965
 20
3.51581
 30
0.0
 11
2.216965
 21
3.501971
 31
0.0
  0
LINE
  5
E4
330
4E
100
AcDbEntity
 67
     1
  8
1
  6
CONTINUOUS
 62
    18
100
AcDbLine
 10
2.216965
 20
3.501971
 30
0.0
 11
2.216965
 21
3.497061
 31
0.0
  0
LINE
  5
E5
330
4E
100
AcDbEntity
 67
     1
  8
1
  6
CONTINUOUS
 62
    18
100
AcDbLine
 10
2.216965
 20
3.536061
 30
0.0
 11
2.215646
 21
3.544859
 31
0.0
  0
LINE
  5
E6
330
4E
100
AcDbEntity
 67
     1
  8
1
  6
CONTINUOUS
 62
    18
100
AcDbLine
 10
2.215646
 20
3.544859
 30
0.0
 11
2.212945
 21
3.551061
 31
0.0
  0
LINE
  5
E7
330
4E
100
AcDbEntity
 67
     1
  8
1
  6
CONTINUOUS
 62
    18
100
AcDbLine
 10
2.360984
 20
3.551061
 30
0.0
 11
2.357694
 21
3.542634
 31
0.0
  0
LINE
  5
E8
330
4E
100
AcDbEntity
 67
     1
  8
1
  6
CONTINUOUS
 62
    18
100
AcDbLine
 10
2.357694
 20
3.542634
 30
0.0
 11
2.356965
 21
3.536061
 31
0.0
  0
LINE
  5
E9
330
4E
100
AcDbEntity
 67
     1
  8
1
  6
CONTINUOUS
 62
    18
100
AcDbLine
 10
1.097331
 20
2.801648
 30
0.0
 11
3.476599
 21
2.801648
 31
0.0
  0
LINE
  5
EA
330
4E
100
AcDbEntity
 67
     1
  8
1
  6
CONTINUOUS
 62
    18
100
AcDbLine
 10
0.976244
 20
2.680561
 30
0.0
 11
1.097331
 21
2.801648
 31
0.0
  0
LINE
  5
EB
330
4E
100
AcDbEntity
 67
     1
  8
1
  6
CONTINUOUS
 62
    18
100
AcDbLine
 10
0.976244
 20
2.680561
 30
0.0
 11
3.597686
 21
2.680561
 31
0.0
  0
LINE
  5
EC
330
4E
100
AcDbEntity
 67
     1
  8
1
  6
CONTINUOUS
 62
    18
100
AcDbLine
 10
3.476599
 20
2.801648
 30
0.0
 11
3.597686
 21
2.680561
 31
0.0
  0
LINE
  5
ED
330
4E
100
AcDbEntity
 67
     1
  8
1
  6
CONTINUOUS
 62
    18
100
AcDbLine
 10
1.097331
 20
2.865927
 30
0.0
 11
1.097331
 21
2.831725
 31
0.0
  0
LINE
  5
EE
330
4E
100
AcDbEntity
 67
     1
  8
1
  6
CONTINUOUS
 62
    18
100
AcDbLine
 10
1.097331
 20
2.831725
 30
0.0
 11
1.097331
 21
2.801648
 31
0.0
  0
LINE
  5
EF
330
4E
100
AcDbEntity
 67
     1
  8
1
  6
CONTINUOUS
 62
    18
100
AcDbLine
 10
3.476599
 20
2.865927
 30
0.0
 11
3.476599
 21
2.831725
 31
0.0
  0
LINE
  5
F0
330
4E
100
AcDbEntity
 67
     1
  8
1
  6
CONTINUOUS
 62
    18
100
AcDbLine
 10
3.476599
 20
2.831725
 30
0.0
 11
3.476599
 21
2.801648
 31
0.0
  0
LINE
  5
F1
330
4E
100
AcDbEntity
 67
     1
  8
1
  6
CONTINUOUS
 62
    18
100
AcDbLine
 10
3.540877
 20
2.865927
 30
0.0
 11
3.52331
 21
2.841366
 31
0.0
  0
LINE
  5
F2
330
4E
100
AcDbEntity
 67
     1
  8
1
  6
CONTINUOUS
 62
    18
100
AcDbLine
 10
3.52331
 20
2.841366
 30
0.0
 11
3.50116
 21
2.819215
 31
0.0
  0
LINE
  5
F3
330
4E
100
AcDbEntity
 67
     1
  8
1
  6
CONTINUOUS
 62
    18
100
AcDbLine
 10
3.50116
 20
2.819215
 30
0.0
 11
3.476599
 21
2.801648
 31
0.0
  0
LINE
  5
F4
330
4E
100
AcDbEntity
 67
     1
  8
1
  6
CONTINUOUS
 62
    18
100
AcDbLine
 10
3.597686
 20
2.680561
 30
0.0
 11
3.631965
 21
2.680561
 31
0.0
  0
LINE
  5
F5
330
4E
100
AcDbEntity
 67
     1
  8
1
  6
CONTINUOUS
 62
    18
100
AcDbLine
 10
3.661965
 20
2.710561
 30
0.0
 11
3.660414
 21
2.70104
 31
0.0
  0
LINE
  5
F6
330
4E
100
AcDbEntity
 67
     1
  8
1
  6
CONTINUOUS
 62
    18
100
AcDbLine
 10
3.660414
 20
2.70104
 30
0.0
 11
3.655843
 21
2.6924
 31
0.0
  0
LINE
  5
F7
330
4E
100
AcDbEntity
 67
     1
  8
1
  6
CONTINUOUS
 62
    18
100
AcDbLine
 10
3.655843
 20
2.6924
 30
0.0
 11
3.648739
 21
2.685689
 31
0.0
  0
LINE
  5
F8
330
4E
100
AcDbEntity
 67
     1
  8
1
  6
CONTINUOUS
 62
    18
100
AcDbLine
 10
3.648739
 20
2.685689
 30
0.0
 11
3.639886
 21
2.681625
 31
0.0
  0
LINE
  5
F9
330
4E
100
AcDbEntity
 67
     1
  8
1
  6
CONTINUOUS
 62
    18
100
AcDbLine
 10
3.639886
 20
2.681625
 30
0.0
 11
3.631965
 21
2.680561
 31
0.0
  0
LINE
  5
FA
330
4E
100
AcDbEntity
 67
     1
  8
1
  6
CONTINUOUS
 62
    18
100
AcDbLine
 10
0.941965
 20
2.680561
 30
0.0
 11
0.976244
 21
2.680561
 31
0.0
  0
LINE
  5
FB
330
4E
100
AcDbEntity
 67
     1
  8
1
  6
CONTINUOUS
 62
    18
100
AcDbLine
 10
0.941965
 20
2.680561
 30
0.0
 11
0.932444
 21
2.682112
 31
0.0
  0
LINE
  5
FC
330
4E
100
AcDbEntity
 67
     1
  8
1
  6
CONTINUOUS
 62
    18
100
AcDbLine
 10
0.932444
 20
2.682112
 30
0.0
 11
0.923804
 21
2.686682
 31
0.0
  0
LINE
  5
FD
330
4E
100
AcDbEntity
 67
     1
  8
1
  6
CONTINUOUS
 62
    18
100
AcDbLine
 10
0.923804
 20
2.686682
 30
0.0
 11
0.917093
 21
2.693786
 31
0.0
  0
LINE
  5
FE
330
4E
100
AcDbEntity
 67
     1
  8
1
  6
CONTINUOUS
 62
    18
100
AcDbLine
 10
0.917093
 20
2.693786
 30
0.0
 11
0.913029
 21
2.702639
 31
0.0
  0
LINE
  5
FF
330
4E
100
AcDbEntity
 67
     1
  8
1
  6
CONTINUOUS
 62
    18
100
AcDbLine
 10
0.913029
 20
2.702639
 30
0.0
 11
0.911965
 21
2.710561
 31
0.0
  0
LINE
  5
100
330
4E
100
AcDbEntity
 67
     1
  8
1
  6
CONTINUOUS
 62
    18
100
AcDbLine
 10
1.033052
 20
2.865927
 30
0.0
 11
1.050619
 21
2.841366
 31
0.0
  0
LINE
  5
101
330
4E
100
AcDbEntity
 67
     1
  8
1
  6
CONTINUOUS
 62
    18
100
AcDbLine
 10
1.050619
 20
2.841366
 30
0.0
 11
1.07277
 21
2.819215
 31
0.0
  0
LINE
  5
102
330
4E
100
AcDbEntity
 67
     1
  8
1
  6
CONTINUOUS
 62
    18
100
AcDbLine
 10
1.07277
 20
2.819215
 30
0.0
 11
1.097331
 21
2.801648
 31
0.0
  0
LINE
  5
103
330
4E
100
AcDbEntity
 67
     1
  8
1
  6
CONTINUOUS
 62
    18
100
AcDbLine
 10
1.774465
 20
3.025124
 30
0.0
 11
1.529465
 21
3.025124
 31
0.0
  0
LINE
  5
104
330
4E
100
AcDbEntity
 67
     1
  8
1
  6
CONTINUOUS
 62
    18
100
AcDbLine
 10
1.774465
 20
2.971124
 30
0.0
 11
1.774465
 21
2.991789
 31
0.0
  0
LINE
  5
105
330
4E
100
AcDbEntity
 67
     1
  8
1
  6
CONTINUOUS
 62
    18
100
AcDbLine
 10
1.774465
 20
2.991789
 30
0.0
 11
1.774465
 21
3.009308
 31
0.0
  0
LINE
  5
106
330
4E
100
AcDbEntity
 67
     1
  8
1
  6
CONTINUOUS
 62
    18
100
AcDbLine
 10
1.774465
 20
3.009308
 30
0.0
 11
1.774465
 21
3.021013
 31
0.0
  0
LINE
  5
107
330
4E
100
AcDbEntity
 67
     1
  8
1
  6
CONTINUOUS
 62
    18
100
AcDbLine
 10
1.774465
 20
3.021013
 30
0.0
 11
1.774465
 21
3.025124
 31
0.0
  0
LINE
  5
108
330
4E
100
AcDbEntity
 67
     1
  8
1
  6
CONTINUOUS
 62
    18
100
AcDbLine
 10
1.529465
 20
2.971124
 30
0.0
 11
1.529465
 21
2.991789
 31
0.0
  0
LINE
  5
109
330
4E
100
AcDbEntity
 67
     1
  8
1
  6
CONTINUOUS
 62
    18
100
AcDbLine
 10
1.529465
 20
2.991789
 30
0.0
 11
1.529465
 21
3.009308
 31
0.0
  0
LINE
  5
10A
330
4E
100
AcDbEntity
 67
     1
  8
1
  6
CONTINUOUS
 62
    18
100
AcDbLine
 10
1.529465
 20
3.009308
 30
0.0
 11
1.529465
 21
3.021013
 31
0.0
  0
LINE
  5
10B
330
4E
100
AcDbEntity
 67
     1
  8
1
  6
CONTINUOUS
 62
    18
100
AcDbLine
 10
1.529465
 20
3.021013
 30
0.0
 11
1.529465
 21
3.025124
 31
0.0
  0
LINE
  5
10C
330
4E
100
AcDbEntity
 67
     1
  8
1
  6
CONTINUOUS
 62
    18
100
AcDbLine
 10
2.799465
 20
3.025124
 30
0.0
 11
3.044465
 21
3.025124
 31
0.0
  0
LINE
  5
10D
330
4E
100
AcDbEntity
 67
     1
  8
1
  6
CONTINUOUS
 62
    18
100
AcDbLine
 10
3.044465
 20
2.971124
 30
0.0
 11
3.044465
 21
2.991789
 31
0.0
  0
LINE
  5
10E
330
4E
100
AcDbEntity
 67
     1
  8
1
  6
CONTINUOUS
 62
    18
100
AcDbLine
 10
3.044465
 20
2.991789
 30
0.0
 11
3.044465
 21
3.009308
 31
0.0
  0
LINE
  5
10F
330
4E
100
AcDbEntity
 67
     1
  8
1
  6
CONTINUOUS
 62
    18
100
AcDbLine
 10
3.044465
 20
3.009308
 30
0.0
 11
3.044465
 21
3.021013
 31
0.0
  0
LINE
  5
110
330
4E
100
AcDbEntity
 67
     1
  8
1
  6
CONTINUOUS
 62
    18
100
AcDbLine
 10
3.044465
 20
3.021013
 30
0.0
 11
3.044465
 21
3.025124
 31
0.0
  0
LINE
  5
111
330
4E
100
AcDbEntity
 67
     1
  8
1
  6
CONTINUOUS
 62
    18
100
AcDbLine
 10
2.799465
 20
2.971124
 30
0.0
 11
2.799465
 21
2.991789
 31
0.0
  0
LINE
  5
112
330
4E
100
AcDbEntity
 67
     1
  8
1
  6
CONTINUOUS
 62
    18
100
AcDbLine
 10
2.799465
 20
2.991789
 30
0.0
 11
2.799465
 21
3.009308
 31
0.0
  0
LINE
  5
113
330
4E
100
AcDbEntity
 67
     1
  8
1
  6
CONTINUOUS
 62
    18
100
AcDbLine
 10
2.799465
 20
3.009308
 30
0.0
 11
2.799465
 21
3.021013
 31
0.0
  0
LINE
  5
114
330
4E
100
AcDbEntity
 67
     1
  8
1
  6
CONTINUOUS
 62
    18
100
AcDbLine
 10
2.799465
 20
3.021013
 30
0.0
 11
2.799465
 21
3.025124
 31
0.0
  0
LINE
  5
115
330
4E
100
AcDbEntity
 67
     1
  8
1
  6
CONTINUOUS
 62
    18
100
AcDbLine
 10
2.799959
 20
3.027187
 30
0.0
 11
2.851739
 21
3.027187
 31
0.0
  0
LINE
  5
116
330
4E
100
AcDbEntity
 67
     1
  8
1
  6
CONTINUOUS
 62
    18
100
AcDbLine
 10
2.791965
 20
3.019183
 30
0.0
 11
2.794306
 21
3.024843
 31
0.0
  0
LINE
  5
117
330
4E
100
AcDbEntity
 67
     1
  8
1
  6
CONTINUOUS
 62
    18
100
AcDbLine
 10
2.794306
 20
3.024843
 30
0.0
 11
2.799959
 21
3.027187
 31
0.0
  0
LINE
  5
118
330
4E
100
AcDbEntity
 67
     1
  8
1
  6
CONTINUOUS
 62
    18
100
AcDbLine
 10
3.043971
 20
3.027187
 30
0.0
 11
3.049624
 21
3.024843
 31
0.0
  0
LINE
  5
119
330
4E
100
AcDbEntity
 67
     1
  8
1
  6
CONTINUOUS
 62
    18
100
AcDbLine
 10
3.049624
 20
3.024843
 30
0.0
 11
3.051965
 21
3.019183
 31
0.0
  0
LINE
  5
11A
330
4E
100
AcDbEntity
 67
     1
  8
1
  6
CONTINUOUS
 62
    18
100
AcDbLine
 10
2.99219
 20
3.027187
 30
0.0
 11
3.043971
 21
3.027187
 31
0.0
  0
LINE
  5
11B
330
4E
100
AcDbEntity
 67
     1
  8
1
  6
CONTINUOUS
 62
    18
100
AcDbLine
 10
2.364165
 20
3.50301
 30
0.0
 11
2.364165
 21
3.530462
 31
0.0
  0
LINE
  5
11C
330
4E
100
AcDbEntity
 67
     1
  8
1
  6
CONTINUOUS
 62
    18
100
AcDbLine
 10
2.364165
 20
6.33066
 30
0.0
 11
2.364165
 21
6.360312
 31
0.0
  0
LINE
  5
11D
330
4E
100
AcDbEntity
 67
     1
  8
1
  6
CONTINUOUS
 62
    18
100
AcDbLine
 10
2.209765
 20
6.360312
 30
0.0
 11
2.209765
 21
6.33066
 31
0.0
  0
LINE
  5
11E
330
4E
100
AcDbEntity
 67
     1
  8
1
  6
CONTINUOUS
 62
    18
100
AcDbLine
 10
2.209765
 20
3.530462
 30
0.0
 11
2.209765
 21
3.50301
 31
0.0
  0
LINE
  5
11F
330
4E
100
AcDbEntity
 67
     1
  8
1
  6
CONTINUOUS
 62
    18
100
AcDbLine
 10
2.719959
 20
6.833935
 30
0.0
 11
2.771739
 21
6.833935
 31
0.0
  0
LINE
  5
120
330
4E
100
AcDbEntity
 67
     1
  8
1
  6
CONTINUOUS
 62
    18
100
AcDbLine
 10
2.91219
 20
6.833935
 30
0.0
 11
2.963971
 21
6.833935
 31
0.0
  0
LINE
  5
121
330
4E
100
AcDbEntity
 67
     1
  8
1
  6
CONTINUOUS
 62
    18
100
AcDbLine
 10
2.963971
 20
6.833935
 30
0.0
 11
2.969624
 21
6.836278
 31
0.0
  0
LINE
  5
122
330
4E
100
AcDbEntity
 67
     1
  8
1
  6
CONTINUOUS
 62
    18
100
AcDbLine
 10
2.969624
 20
6.836278
 30
0.0
 11
2.971965
 21
6.841938
 31
0.0
  0
LINE
  5
123
330
4E
100
AcDbEntity
 67
     1
  8
1
  6
CONTINUOUS
 62
    18
100
AcDbLine
 10
2.711965
 20
6.841938
 30
0.0
 11
2.714306
 21
6.836278
 31
0.0
  0
LINE
  5
124
330
4E
100
AcDbEntity
 67
     1
  8
1
  6
CONTINUOUS
 62
    18
100
AcDbLine
 10
2.714306
 20
6.836278
 30
0.0
 11
2.719959
 21
6.833935
 31
0.0
  0
LINE
  5
125
330
4E
100
AcDbEntity
 67
     1
  8
1
  6
CONTINUOUS
 62
    18
100
AcDbLine
 10
1.601965
 20
6.841938
 30
0.0
 11
1.604306
 21
6.836278
 31
0.0
  0
LINE
  5
126
330
4E
100
AcDbEntity
 67
     1
  8
1
  6
CONTINUOUS
 62
    18
100
AcDbLine
 10
1.604306
 20
6.836278
 30
0.0
 11
1.609959
 21
6.833935
 31
0.0
  0
LINE
  5
127
330
4E
100
AcDbEntity
 67
     1
  8
1
  6
CONTINUOUS
 62
    18
100
AcDbLine
 10
1.609959
 20
6.833935
 30
0.0
 11
1.661739
 21
6.833935
 31
0.0
  0
LINE
  5
128
330
4E
100
AcDbEntity
 67
     1
  8
1
  6
CONTINUOUS
 62
    18
100
AcDbLine
 10
1.80219
 20
6.833935
 30
0.0
 11
1.853971
 21
6.833935
 31
0.0
  0
LINE
  5
129
330
4E
100
AcDbEntity
 67
     1
  8
1
  6
CONTINUOUS
 62
    18
100
AcDbLine
 10
1.853971
 20
6.833935
 30
0.0
 11
1.859624
 21
6.836278
 31
0.0
  0
LINE
  5
12A
330
4E
100
AcDbEntity
 67
     1
  8
1
  6
CONTINUOUS
 62
    18
100
AcDbLine
 10
1.859624
 20
6.836278
 30
0.0
 11
1.861965
 21
6.841938
 31
0.0
  0
LINE
  5
12B
330
4E
100
AcDbEntity
 67
     1
  8
1
  6
CONTINUOUS
 62
    18
100
AcDbLine
 10
1.529959
 20
3.027187
 30
0.0
 11
1.581739
 21
3.027187
 31
0.0
  0
LINE
  5
12C
330
4E
100
AcDbEntity
 67
     1
  8
1
  6
CONTINUOUS
 62
    18
100
AcDbLine
 10
1.521965
 20
3.019183
 30
0.0
 11
1.524306
 21
3.024843
 31
0.0
  0
LINE
  5
12D
330
4E
100
AcDbEntity
 67
     1
  8
1
  6
CONTINUOUS
 62
    18
100
AcDbLine
 10
1.524306
 20
3.024843
 30
0.0
 11
1.529959
 21
3.027187
 31
0.0
  0
LINE
  5
12E
330
4E
100
AcDbEntity
 67
     1
  8
1
  6
CONTINUOUS
 62
    18
100
AcDbLine
 10
1.773971
 20
3.027187
 30
0.0
 11
1.779624
 21
3.024843
 31
0.0
  0
LINE
  5
12F
330
4E
100
AcDbEntity
 67
     1
  8
1
  6
CONTINUOUS
 62
    18
100
AcDbLine
 10
1.779624
 20
3.024843
 30
0.0
 11
1.781965
 21
3.019183
 31
0.0
  0
LINE
  5
130
330
4E
100
AcDbEntity
 67
     1
  8
1
  6
CONTINUOUS
 62
    18
100
AcDbLine
 10
1.72219
 20
3.027187
 30
0.0
 11
1.773971
 21
3.027187
 31
0.0
  0
LINE
  5
131
330
4E
100
AcDbEntity
 67
     1
  8
1
  6
CONTINUOUS
 62
    18
100
AcDbLine
 10
2.207216
 20
3.440516
 30
0.0
 11
2.207216
 21
3.495013
 31
0.0
  0
LINE
  5
132
330
4E
100
AcDbEntity
 67
     1
  8
1
  6
CONTINUOUS
 62
    18
100
AcDbLine
 10
1.399976
 20
3.495013
 30
0.0
 11
2.207216
 21
3.495013
 31
0.0
  0
LINE
  5
133
330
4E
100
AcDbEntity
 67
     1
  8
1
  6
CONTINUOUS
 62
    18
100
AcDbLine
 10
1.399988
 20
3.494561
 30
0.0
 11
1.399988
 21
3.085561
 31
0.0
  0
LINE
  5
134
330
4E
100
AcDbEntity
 67
     1
  8
1
  6
CONTINUOUS
 62
    18
100
AcDbLine
 10
1.399976
 20
3.085108
 30
0.0
 11
3.173953
 21
3.085108
 31
0.0
  0
LINE
  5
135
330
4E
100
AcDbEntity
 67
     1
  8
1
  6
CONTINUOUS
 62
    18
100
AcDbLine
 10
3.173941
 20
3.085561
 30
0.0
 11
3.173941
 21
3.495013
 31
0.0
  0
LINE
  5
136
330
4E
100
AcDbEntity
 67
     1
  8
1
  6
CONTINUOUS
 62
    18
100
AcDbLine
 10
2.366714
 20
3.495013
 30
0.0
 11
3.173941
 21
3.495013
 31
0.0
  0
LINE
  5
137
330
4E
100
AcDbEntity
 67
     1
  8
1
  6
CONTINUOUS
 62
    18
100
AcDbLine
 10
2.366714
 20
3.495013
 30
0.0
 11
2.366714
 21
3.440516
 31
0.0
  0
LINE
  5
138
330
4E
100
AcDbEntity
 67
     1
  8
1
  6
CONTINUOUS
 62
    18
100
AcDbLine
 10
2.346965
 20
3.138315
 30
0.0
 11
2.226965
 21
3.138315
 31
0.0
  0
LINE
  5
139
330
4E
100
AcDbEntity
 67
     1
  8
1
  6
CONTINUOUS
 62
    18
100
AcDbLine
 10
1.349465
 20
3.486061
 30
0.0
 11
1.349465
 21
3.094061
 31
0.0
  0
LINE
  5
13A
330
4E
100
AcDbEntity
 67
     1
  8
1
  6
CONTINUOUS
 62
    18
100
AcDbLine
 10
1.349465
 20
3.094061
 30
0.0
 11
1.349988
 21
3.094061
 31
0.0
  0
LINE
  5
13B
330
4E
100
AcDbEntity
 67
     1
  8
1
  6
CONTINUOUS
 62
    18
100
AcDbLine
 10
1.349988
 20
3.094061
 30
0.0
 11
1.349988
 21
3.486061
 31
0.0
  0
LINE
  5
13C
330
4E
100
AcDbEntity
 67
     1
  8
1
  6
CONTINUOUS
 62
    18
100
AcDbLine
 10
1.349465
 20
3.486061
 30
0.0
 11
1.349988
 21
3.486061
 31
0.0
  0
LINE
  5
13D
330
4E
100
AcDbEntity
 67
     1
  8
1
  6
CONTINUOUS
 62
    18
100
AcDbLine
 10
1.359465
 20
3.084061
 30
0.0
 11
1.359465
 21
3.084584
 31
0.0
  0
LINE
  5
13E
330
4E
100
AcDbEntity
 67
     1
  8
1
  6
CONTINUOUS
 62
    18
100
AcDbLine
 10
1.359465
 20
3.084061
 30
0.0
 11
3.214465
 21
3.084061
 31
0.0
  0
LINE
  5
13F
330
4E
100
AcDbEntity
 67
     1
  8
1
  6
CONTINUOUS
 62
    18
100
AcDbLine
 10
3.214465
 20
3.084061
 30
0.0
 11
3.214465
 21
3.084584
 31
0.0
  0
LINE
  5
140
330
4E
100
AcDbEntity
 67
     1
  8
1
  6
CONTINUOUS
 62
    18
100
AcDbLine
 10
3.174525
 20
3.084584
 30
0.0
 11
3.214465
 21
3.084584
 31
0.0
  0
LINE
  5
141
330
4E
100
AcDbEntity
 67
     1
  8
1
  6
CONTINUOUS
 62
    18
100
AcDbLine
 10
3.173953
 20
3.085108
 30
0.0
 11
3.174267
 21
3.084816
 31
0.0
  0
LINE
  5
142
330
4E
100
AcDbEntity
 67
     1
  8
1
  6
CONTINUOUS
 62
    18
100
AcDbLine
 10
3.174267
 20
3.084816
 30
0.0
 11
3.174525
 21
3.084584
 31
0.0
  0
LINE
  5
143
330
4E
100
AcDbEntity
 67
     1
  8
1
  6
CONTINUOUS
 62
    18
100
AcDbLine
 10
1.399405
 20
3.084584
 30
0.0
 11
1.399709
 21
3.084859
 31
0.0
  0
LINE
  5
144
330
4E
100
AcDbEntity
 67
     1
  8
1
  6
CONTINUOUS
 62
    18
100
AcDbLine
 10
1.399709
 20
3.084859
 30
0.0
 11
1.399976
 21
3.085108
 31
0.0
  0
LINE
  5
145
330
4E
100
AcDbEntity
 67
     1
  8
1
  6
CONTINUOUS
 62
    18
100
AcDbLine
 10
1.359465
 20
3.084584
 30
0.0
 11
1.399405
 21
3.084584
 31
0.0
  0
LINE
  5
146
330
4E
100
AcDbEntity
 67
     1
  8
1
  6
CONTINUOUS
 62
    18
100
AcDbLine
 10
3.224465
 20
3.094061
 30
0.0
 11
3.223941
 21
3.094061
 31
0.0
  0
LINE
  5
147
330
4E
100
AcDbEntity
 67
     1
  8
1
  6
CONTINUOUS
 62
    18
100
AcDbLine
 10
3.223941
 20
3.486061
 30
0.0
 11
3.223941
 21
3.094061
 31
0.0
  0
LINE
  5
148
330
4E
100
AcDbEntity
 67
     1
  8
1
  6
CONTINUOUS
 62
    18
100
AcDbLine
 10
3.224465
 20
3.486061
 30
0.0
 11
3.224465
 21
3.094061
 31
0.0
  0
LINE
  5
149
330
4E
100
AcDbEntity
 67
     1
  8
1
  6
CONTINUOUS
 62
    18
100
AcDbLine
 10
3.224465
 20
3.486061
 30
0.0
 11
3.223941
 21
3.486061
 31
0.0
  0
LINE
  5
14A
330
4E
100
AcDbEntity
 67
     1
  8
1
  6
CONTINUOUS
 62
    18
100
AcDbLine
 10
1.266468
 20
3.074059
 30
0.0
 11
1.270486
 21
3.059061
 31
0.0
  0
LINE
  5
14B
330
4E
100
AcDbEntity
 67
     1
  8
1
  6
CONTINUOUS
 62
    18
100
AcDbLine
 10
1.270486
 20
3.059061
 30
0.0
 11
1.281465
 21
3.048082
 31
0.0
  0
LINE
  5
14C
330
4E
100
AcDbEntity
 67
     1
  8
1
  6
CONTINUOUS
 62
    18
100
AcDbLine
 10
1.281465
 20
3.048082
 30
0.0
 11
1.296463
 21
3.044064
 31
0.0
  0
LINE
  5
14D
330
4E
100
AcDbEntity
 67
     1
  8
1
  6
CONTINUOUS
 62
    18
100
AcDbLine
 10
1.296463
 20
3.044064
 30
0.0
 11
1.297161
 21
3.044762
 31
0.0
  0
LINE
  5
14E
330
4E
100
AcDbEntity
 67
     1
  8
1
  6
CONTINUOUS
 62
    18
100
AcDbLine
 10
1.297161
 20
3.044762
 30
0.0
 11
1.282163
 21
3.04878
 31
0.0
  0
LINE
  5
14F
330
4E
100
AcDbEntity
 67
     1
  8
1
  6
CONTINUOUS
 62
    18
100
AcDbLine
 10
1.282163
 20
3.04878
 30
0.0
 11
1.271184
 21
3.059759
 31
0.0
  0
LINE
  5
150
330
4E
100
AcDbEntity
 67
     1
  8
1
  6
CONTINUOUS
 62
    18
100
AcDbLine
 10
1.271184
 20
3.059759
 30
0.0
 11
1.267166
 21
3.074757
 31
0.0
  0
LINE
  5
151
330
4E
100
AcDbEntity
 67
     1
  8
1
  6
CONTINUOUS
 62
    18
100
AcDbLine
 10
1.267166
 20
3.074757
 30
0.0
 11
1.266468
 21
3.074059
 31
0.0
  0
LINE
  5
152
330
4E
100
AcDbEntity
 67
     1
  8
1
  6
CONTINUOUS
 62
    18
100
AcDbLine
 10
1.296463
 20
3.044064
 30
0.0
 11
3.277466
 21
3.044064
 31
0.0
  0
LINE
  5
153
330
4E
100
AcDbEntity
 67
     1
  8
1
  6
CONTINUOUS
 62
    18
100
AcDbLine
 10
3.276768
 20
3.044762
 30
0.0
 11
3.277466
 21
3.044064
 31
0.0
  0
LINE
  5
154
330
4E
100
AcDbEntity
 67
     1
  8
1
  6
CONTINUOUS
 62
    18
100
AcDbLine
 10
1.297161
 20
3.044762
 30
0.0
 11
3.276768
 21
3.044762
 31
0.0
  0
LINE
  5
155
330
4E
100
AcDbEntity
 67
     1
  8
1
  6
CONTINUOUS
 62
    18
100
AcDbLine
 10
3.277466
 20
3.044064
 30
0.0
 11
3.292465
 21
3.048082
 31
0.0
  0
LINE
  5
156
330
4E
100
AcDbEntity
 67
     1
  8
1
  6
CONTINUOUS
 62
    18
100
AcDbLine
 10
3.292465
 20
3.048082
 30
0.0
 11
3.303443
 21
3.059061
 31
0.0
  0
LINE
  5
157
330
4E
100
AcDbEntity
 67
     1
  8
1
  6
CONTINUOUS
 62
    18
100
AcDbLine
 10
3.303443
 20
3.059061
 30
0.0
 11
3.307462
 21
3.074059
 31
0.0
  0
LINE
  5
158
330
4E
100
AcDbEntity
 67
     1
  8
1
  6
CONTINUOUS
 62
    18
100
AcDbLine
 10
3.307462
 20
3.074059
 30
0.0
 11
3.306763
 21
3.074757
 31
0.0
  0
LINE
  5
159
330
4E
100
AcDbEntity
 67
     1
  8
1
  6
CONTINUOUS
 62
    18
100
AcDbLine
 10
3.306763
 20
3.074757
 30
0.0
 11
3.302745
 21
3.059759
 31
0.0
  0
LINE
  5
15A
330
4E
100
AcDbEntity
 67
     1
  8
1
  6
CONTINUOUS
 62
    18
100
AcDbLine
 10
3.302745
 20
3.059759
 30
0.0
 11
3.291766
 21
3.04878
 31
0.0
  0
LINE
  5
15B
330
4E
100
AcDbEntity
 67
     1
  8
1
  6
CONTINUOUS
 62
    18
100
AcDbLine
 10
3.291766
 20
3.04878
 30
0.0
 11
3.276768
 21
3.044762
 31
0.0
  0
LINE
  5
15C
330
4E
100
AcDbEntity
 67
     1
  8
1
  6
CONTINUOUS
 62
    18
100
AcDbLine
 10
3.045452
 20
2.985575
 30
0.0
 11
3.045452
 21
2.983183
 31
0.0
  0
LINE
  5
15D
330
4E
100
AcDbEntity
 67
     1
  8
1
  6
CONTINUOUS
 62
    18
100
AcDbLine
 10
3.045452
 20
2.983183
 30
0.0
 11
3.045452
 21
2.977576
 31
0.0
  0
LINE
  5
15E
330
4E
100
AcDbEntity
 67
     1
  8
1
  6
CONTINUOUS
 62
    18
100
AcDbLine
 10
3.045452
 20
2.985575
 30
0.0
 11
3.044464
 21
2.985575
 31
0.0
  0
LINE
  5
15F
330
4E
100
AcDbEntity
 67
     1
  8
1
  6
CONTINUOUS
 62
    18
100
AcDbLine
 10
3.044465
 20
2.977576
 30
0.0
 11
3.045452
 21
2.977576
 31
0.0
  0
LINE
  5
160
330
4E
100
AcDbEntity
 67
     1
  8
1
  6
CONTINUOUS
 62
    18
100
AcDbLine
 10
3.053451
 20
2.993573
 30
0.0
 11
3.055842
 21
2.993573
 31
0.0
  0
LINE
  5
161
330
4E
100
AcDbEntity
 67
     1
  8
1
  6
CONTINUOUS
 62
    18
100
AcDbLine
 10
3.055842
 20
2.993573
 30
0.0
 11
3.06145
 21
2.993573
 31
0.0
  0
LINE
  5
162
330
4E
100
AcDbEntity
 67
     1
  8
1
  6
CONTINUOUS
 62
    18
100
AcDbLine
 10
3.053451
 20
2.993573
 30
0.0
 11
3.051109
 21
2.987916
 31
0.0
  0
LINE
  5
163
330
4E
100
AcDbEntity
 67
     1
  8
1
  6
CONTINUOUS
 62
    18
100
AcDbLine
 10
3.051109
 20
2.987916
 30
0.0
 11
3.045452
 21
2.985575
 31
0.0
  0
LINE
  5
164
330
4E
100
AcDbEntity
 67
     1
  8
1
  6
CONTINUOUS
 62
    18
100
AcDbLine
 10
3.045452
 20
2.977576
 30
0.0
 11
3.056764
 21
2.982261
 31
0.0
  0
LINE
  5
165
330
4E
100
AcDbEntity
 67
     1
  8
1
  6
CONTINUOUS
 62
    18
100
AcDbLine
 10
3.056764
 20
2.982261
 30
0.0
 11
3.06145
 21
2.993573
 31
0.0
  0
LINE
  5
166
330
4E
100
AcDbEntity
 67
     1
  8
1
  6
CONTINUOUS
 62
    18
100
AcDbLine
 10
3.06145
 20
2.993573
 30
0.0
 11
3.06145
 21
3.023645
 31
0.0
  0
LINE
  5
167
330
4E
100
AcDbEntity
 67
     1
  8
1
  6
CONTINUOUS
 62
    18
100
AcDbLine
 10
3.06145
 20
3.023645
 30
0.0
 11
3.055842
 21
3.023645
 31
0.0
  0
LINE
  5
168
330
4E
100
AcDbEntity
 67
     1
  8
1
  6
CONTINUOUS
 62
    18
100
AcDbLine
 10
3.055842
 20
3.023645
 30
0.0
 11
3.053451
 21
3.023645
 31
0.0
  0
LINE
  5
169
330
4E
100
AcDbEntity
 67
     1
  8
1
  6
CONTINUOUS
 62
    18
100
AcDbLine
 10
3.053451
 20
3.023645
 30
0.0
 11
3.053451
 21
2.993573
 31
0.0
  0
LINE
  5
16A
330
4E
100
AcDbEntity
 67
     1
  8
1
  6
CONTINUOUS
 62
    18
100
AcDbLine
 10
3.06145
 20
3.023645
 30
0.0
 11
3.056768
 21
3.034965
 31
0.0
  0
LINE
  5
16B
330
4E
100
AcDbEntity
 67
     1
  8
1
  6
CONTINUOUS
 62
    18
100
AcDbLine
 10
3.056768
 20
3.034965
 30
0.0
 11
3.045462
 21
3.039653
 31
0.0
  0
LINE
  5
16C
330
4E
100
AcDbEntity
 67
     1
  8
1
  6
CONTINUOUS
 62
    18
100
AcDbLine
 10
3.045462
 20
3.039653
 30
0.0
 11
3.045462
 21
3.034146
 31
0.0
  0
LINE
  5
16D
330
4E
100
AcDbEntity
 67
     1
  8
1
  6
CONTINUOUS
 62
    18
100
AcDbLine
 10
3.045462
 20
3.034146
 30
0.0
 11
3.045462
 21
3.031663
 31
0.0
  0
LINE
  5
16E
330
4E
100
AcDbEntity
 67
     1
  8
1
  6
CONTINUOUS
 62
    18
100
AcDbLine
 10
3.045462
 20
3.031663
 30
0.0
 11
3.051114
 21
3.029318
 31
0.0
  0
LINE
  5
16F
330
4E
100
AcDbEntity
 67
     1
  8
1
  6
CONTINUOUS
 62
    18
100
AcDbLine
 10
3.051114
 20
3.029318
 30
0.0
 11
3.053451
 21
3.023645
 31
0.0
  0
LINE
  5
170
330
4E
100
AcDbEntity
 67
     1
  8
1
  6
CONTINUOUS
 62
    18
100
AcDbLine
 10
3.045462
 20
3.039653
 30
0.0
 11
2.798468
 21
3.039653
 31
0.0
  0
LINE
  5
171
330
4E
100
AcDbEntity
 67
     1
  8
1
  6
CONTINUOUS
 62
    18
100
AcDbLine
 10
2.798468
 20
3.039653
 30
0.0
 11
2.798468
 21
3.034146
 31
0.0
  0
LINE
  5
172
330
4E
100
AcDbEntity
 67
     1
  8
1
  6
CONTINUOUS
 62
    18
100
AcDbLine
 10
2.798468
 20
3.034146
 30
0.0
 11
2.798468
 21
3.031663
 31
0.0
  0
LINE
  5
173
330
4E
100
AcDbEntity
 67
     1
  8
1
  6
CONTINUOUS
 62
    18
100
AcDbLine
 10
2.798468
 20
3.031663
 30
0.0
 11
3.045462
 21
3.031663
 31
0.0
  0
LINE
  5
174
330
4E
100
AcDbEntity
 67
     1
  8
1
  6
CONTINUOUS
 62
    18
100
AcDbLine
 10
2.798468
 20
3.039653
 30
0.0
 11
2.787162
 21
3.034965
 31
0.0
  0
LINE
  5
175
330
4E
100
AcDbEntity
 67
     1
  8
1
  6
CONTINUOUS
 62
    18
100
AcDbLine
 10
2.787162
 20
3.034965
 30
0.0
 11
2.78248
 21
3.023645
 31
0.0
  0
LINE
  5
176
330
4E
100
AcDbEntity
 67
     1
  8
1
  6
CONTINUOUS
 62
    18
100
AcDbLine
 10
2.78248
 20
3.023645
 30
0.0
 11
2.788087
 21
3.023645
 31
0.0
  0
LINE
  5
177
330
4E
100
AcDbEntity
 67
     1
  8
1
  6
CONTINUOUS
 62
    18
100
AcDbLine
 10
2.788087
 20
3.023645
 30
0.0
 11
2.790479
 21
3.023645
 31
0.0
  0
LINE
  5
178
330
4E
100
AcDbEntity
 67
     1
  8
1
  6
CONTINUOUS
 62
    18
100
AcDbLine
 10
2.790479
 20
3.023645
 30
0.0
 11
2.792815
 21
3.029318
 31
0.0
  0
LINE
  5
179
330
4E
100
AcDbEntity
 67
     1
  8
1
  6
CONTINUOUS
 62
    18
100
AcDbLine
 10
2.792815
 20
3.029318
 30
0.0
 11
2.798468
 21
3.031663
 31
0.0
  0
LINE
  5
17A
330
4E
100
AcDbEntity
 67
     1
  8
1
  6
CONTINUOUS
 62
    18
100
AcDbLine
 10
2.78248
 20
3.023645
 30
0.0
 11
2.78248
 21
2.993573
 31
0.0
  0
LINE
  5
17B
330
4E
100
AcDbEntity
 67
     1
  8
1
  6
CONTINUOUS
 62
    18
100
AcDbLine
 10
2.78248
 20
2.993573
 30
0.0
 11
2.788087
 21
2.993573
 31
0.0
  0
LINE
  5
17C
330
4E
100
AcDbEntity
 67
     1
  8
1
  6
CONTINUOUS
 62
    18
100
AcDbLine
 10
2.788087
 20
2.993573
 30
0.0
 11
2.790479
 21
2.993573
 31
0.0
  0
LINE
  5
17D
330
4E
100
AcDbEntity
 67
     1
  8
1
  6
CONTINUOUS
 62
    18
100
AcDbLine
 10
2.790479
 20
2.993573
 30
0.0
 11
2.790479
 21
3.023645
 31
0.0
  0
LINE
  5
17E
330
4E
100
AcDbEntity
 67
     1
  8
1
  6
CONTINUOUS
 62
    18
100
AcDbLine
 10
2.78248
 20
2.993573
 30
0.0
 11
2.787165
 21
2.982261
 31
0.0
  0
LINE
  5
17F
330
4E
100
AcDbEntity
 67
     1
  8
1
  6
CONTINUOUS
 62
    18
100
AcDbLine
 10
2.787165
 20
2.982261
 30
0.0
 11
2.798477
 21
2.977576
 31
0.0
  0
LINE
  5
180
330
4E
100
AcDbEntity
 67
     1
  8
1
  6
CONTINUOUS
 62
    18
100
AcDbLine
 10
2.798477
 20
2.977576
 30
0.0
 11
2.798477
 21
2.983183
 31
0.0
  0
LINE
  5
181
330
4E
100
AcDbEntity
 67
     1
  8
1
  6
CONTINUOUS
 62
    18
100
AcDbLine
 10
2.798477
 20
2.983183
 30
0.0
 11
2.798477
 21
2.985575
 31
0.0
  0
LINE
  5
182
330
4E
100
AcDbEntity
 67
     1
  8
1
  6
CONTINUOUS
 62
    18
100
AcDbLine
 10
2.798477
 20
2.985575
 30
0.0
 11
2.79282
 21
2.987916
 31
0.0
  0
LINE
  5
183
330
4E
100
AcDbEntity
 67
     1
  8
1
  6
CONTINUOUS
 62
    18
100
AcDbLine
 10
2.79282
 20
2.987916
 30
0.0
 11
2.790479
 21
2.993573
 31
0.0
  0
LINE
  5
184
330
4E
100
AcDbEntity
 67
     1
  8
1
  6
CONTINUOUS
 62
    18
100
AcDbLine
 10
2.798477
 20
2.977576
 30
0.0
 11
2.799465
 21
2.977576
 31
0.0
  0
LINE
  5
185
330
4E
100
AcDbEntity
 67
     1
  8
1
  6
CONTINUOUS
 62
    18
100
AcDbLine
 10
2.799465
 20
2.985575
 30
0.0
 11
2.798477
 21
2.985575
 31
0.0
  0
LINE
  5
186
330
4E
100
AcDbEntity
 67
     1
  8
1
  6
CONTINUOUS
 62
    18
100
AcDbLine
 10
1.775452
 20
2.985575
 30
0.0
 11
1.775452
 21
2.983183
 31
0.0
  0
LINE
  5
187
330
4E
100
AcDbEntity
 67
     1
  8
1
  6
CONTINUOUS
 62
    18
100
AcDbLine
 10
1.775452
 20
2.983183
 30
0.0
 11
1.775452
 21
2.977576
 31
0.0
  0
LINE
  5
188
330
4E
100
AcDbEntity
 67
     1
  8
1
  6
CONTINUOUS
 62
    18
100
AcDbLine
 10
1.775452
 20
2.985575
 30
0.0
 11
1.774464
 21
2.985575
 31
0.0
  0
LINE
  5
189
330
4E
100
AcDbEntity
 67
     1
  8
1
  6
CONTINUOUS
 62
    18
100
AcDbLine
 10
1.774465
 20
2.977576
 30
0.0
 11
1.775452
 21
2.977576
 31
0.0
  0
LINE
  5
18A
330
4E
100
AcDbEntity
 67
     1
  8
1
  6
CONTINUOUS
 62
    18
100
AcDbLine
 10
1.783451
 20
2.993573
 30
0.0
 11
1.785842
 21
2.993573
 31
0.0
  0
LINE
  5
18B
330
4E
100
AcDbEntity
 67
     1
  8
1
  6
CONTINUOUS
 62
    18
100
AcDbLine
 10
1.785842
 20
2.993573
 30
0.0
 11
1.79145
 21
2.993573
 31
0.0
  0
LINE
  5
18C
330
4E
100
AcDbEntity
 67
     1
  8
1
  6
CONTINUOUS
 62
    18
100
AcDbLine
 10
1.783451
 20
2.993573
 30
0.0
 11
1.781109
 21
2.987916
 31
0.0
  0
LINE
  5
18D
330
4E
100
AcDbEntity
 67
     1
  8
1
  6
CONTINUOUS
 62
    18
100
AcDbLine
 10
1.781109
 20
2.987916
 30
0.0
 11
1.775452
 21
2.985575
 31
0.0
  0
LINE
  5
18E
330
4E
100
AcDbEntity
 67
     1
  8
1
  6
CONTINUOUS
 62
    18
100
AcDbLine
 10
1.775452
 20
2.977576
 30
0.0
 11
1.786764
 21
2.982261
 31
0.0
  0
LINE
  5
18F
330
4E
100
AcDbEntity
 67
     1
  8
1
  6
CONTINUOUS
 62
    18
100
AcDbLine
 10
1.786764
 20
2.982261
 30
0.0
 11
1.79145
 21
2.993573
 31
0.0
  0
LINE
  5
190
330
4E
100
AcDbEntity
 67
     1
  8
1
  6
CONTINUOUS
 62
    18
100
AcDbLine
 10
1.783451
 20
3.023645
 30
0.0
 11
1.785842
 21
3.023645
 31
0.0
  0
LINE
  5
191
330
4E
100
AcDbEntity
 67
     1
  8
1
  6
CONTINUOUS
 62
    18
100
AcDbLine
 10
1.785842
 20
3.023645
 30
0.0
 11
1.79145
 21
3.023645
 31
0.0
  0
LINE
  5
192
330
4E
100
AcDbEntity
 67
     1
  8
1
  6
CONTINUOUS
 62
    18
100
AcDbLine
 10
1.783451
 20
3.023645
 30
0.0
 11
1.783451
 21
2.993573
 31
0.0
  0
LINE
  5
193
330
4E
100
AcDbEntity
 67
     1
  8
1
  6
CONTINUOUS
 62
    18
100
AcDbLine
 10
1.79145
 20
2.993573
 30
0.0
 11
1.79145
 21
3.023645
 31
0.0
  0
LINE
  5
194
330
4E
100
AcDbEntity
 67
     1
  8
1
  6
CONTINUOUS
 62
    18
100
AcDbLine
 10
1.775462
 20
3.031663
 30
0.0
 11
1.775462
 21
3.034146
 31
0.0
  0
LINE
  5
195
330
4E
100
AcDbEntity
 67
     1
  8
1
  6
CONTINUOUS
 62
    18
100
AcDbLine
 10
1.775462
 20
3.034146
 30
0.0
 11
1.775462
 21
3.039653
 31
0.0
  0
LINE
  5
196
330
4E
100
AcDbEntity
 67
     1
  8
1
  6
CONTINUOUS
 62
    18
100
AcDbLine
 10
1.775462
 20
3.031663
 30
0.0
 11
1.781114
 21
3.029318
 31
0.0
  0
LINE
  5
197
330
4E
100
AcDbEntity
 67
     1
  8
1
  6
CONTINUOUS
 62
    18
100
AcDbLine
 10
1.781114
 20
3.029318
 30
0.0
 11
1.783451
 21
3.023645
 31
0.0
  0
LINE
  5
198
330
4E
100
AcDbEntity
 67
     1
  8
1
  6
CONTINUOUS
 62
    18
100
AcDbLine
 10
1.79145
 20
3.023645
 30
0.0
 11
1.786768
 21
3.034965
 31
0.0
  0
LINE
  5
199
330
4E
100
AcDbEntity
 67
     1
  8
1
  6
CONTINUOUS
 62
    18
100
AcDbLine
 10
1.786768
 20
3.034965
 30
0.0
 11
1.775462
 21
3.039653
 31
0.0
  0
LINE
  5
19A
330
4E
100
AcDbEntity
 67
     1
  8
1
  6
CONTINUOUS
 62
    18
100
AcDbLine
 10
1.528468
 20
3.031663
 30
0.0
 11
1.528468
 21
3.034146
 31
0.0
  0
LINE
  5
19B
330
4E
100
AcDbEntity
 67
     1
  8
1
  6
CONTINUOUS
 62
    18
100
AcDbLine
 10
1.528468
 20
3.034146
 30
0.0
 11
1.528468
 21
3.039653
 31
0.0
  0
LINE
  5
19C
330
4E
100
AcDbEntity
 67
     1
  8
1
  6
CONTINUOUS
 62
    18
100
AcDbLine
 10
1.528468
 20
3.031663
 30
0.0
 11
1.775462
 21
3.031663
 31
0.0
  0
LINE
  5
19D
330
4E
100
AcDbEntity
 67
     1
  8
1
  6
CONTINUOUS
 62
    18
100
AcDbLine
 10
1.775462
 20
3.039653
 30
0.0
 11
1.528468
 21
3.039653
 31
0.0
  0
LINE
  5
19E
330
4E
100
AcDbEntity
 67
     1
  8
1
  6
CONTINUOUS
 62
    18
100
AcDbLine
 10
1.520479
 20
3.023645
 30
0.0
 11
1.518087
 21
3.023645
 31
0.0
  0
LINE
  5
19F
330
4E
100
AcDbEntity
 67
     1
  8
1
  6
CONTINUOUS
 62
    18
100
AcDbLine
 10
1.518087
 20
3.023645
 30
0.0
 11
1.51248
 21
3.023645
 31
0.0
  0
LINE
  5
1A0
330
4E
100
AcDbEntity
 67
     1
  8
1
  6
CONTINUOUS
 62
    18
100
AcDbLine
 10
1.520479
 20
3.023645
 30
0.0
 11
1.522815
 21
3.029318
 31
0.0
  0
LINE
  5
1A1
330
4E
100
AcDbEntity
 67
     1
  8
1
  6
CONTINUOUS
 62
    18
100
AcDbLine
 10
1.522815
 20
3.029318
 30
0.0
 11
1.528468
 21
3.031663
 31
0.0
  0
LINE
  5
1A2
330
4E
100
AcDbEntity
 67
     1
  8
1
  6
CONTINUOUS
 62
    18
100
AcDbLine
 10
1.528468
 20
3.039653
 30
0.0
 11
1.517162
 21
3.034965
 31
0.0
  0
LINE
  5
1A3
330
4E
100
AcDbEntity
 67
     1
  8
1
  6
CONTINUOUS
 62
    18
100
AcDbLine
 10
1.517162
 20
3.034965
 30
0.0
 11
1.51248
 21
3.023645
 31
0.0
  0
LINE
  5
1A4
330
4E
100
AcDbEntity
 67
     1
  8
1
  6
CONTINUOUS
 62
    18
100
AcDbLine
 10
1.51248
 20
3.023645
 30
0.0
 11
1.51248
 21
2.993573
 31
0.0
  0
LINE
  5
1A5
330
4E
100
AcDbEntity
 67
     1
  8
1
  6
CONTINUOUS
 62
    18
100
AcDbLine
 10
1.51248
 20
2.993573
 30
0.0
 11
1.518087
 21
2.993573
 31
0.0
  0
LINE
  5
1A6
330
4E
100
AcDbEntity
 67
     1
  8
1
  6
CONTINUOUS
 62
    18
100
AcDbLine
 10
1.518087
 20
2.993573
 30
0.0
 11
1.520479
 21
2.993573
 31
0.0
  0
LINE
  5
1A7
330
4E
100
AcDbEntity
 67
     1
  8
1
  6
CONTINUOUS
 62
    18
100
AcDbLine
 10
1.520479
 20
2.993573
 30
0.0
 11
1.520479
 21
3.023645
 31
0.0
  0
LINE
  5
1A8
330
4E
100
AcDbEntity
 67
     1
  8
1
  6
CONTINUOUS
 62
    18
100
AcDbLine
 10
1.51248
 20
2.993573
 30
0.0
 11
1.517165
 21
2.982261
 31
0.0
  0
LINE
  5
1A9
330
4E
100
AcDbEntity
 67
     1
  8
1
  6
CONTINUOUS
 62
    18
100
AcDbLine
 10
1.517165
 20
2.982261
 30
0.0
 11
1.528477
 21
2.977576
 31
0.0
  0
LINE
  5
1AA
330
4E
100
AcDbEntity
 67
     1
  8
1
  6
CONTINUOUS
 62
    18
100
AcDbLine
 10
1.528477
 20
2.977576
 30
0.0
 11
1.528477
 21
2.983183
 31
0.0
  0
LINE
  5
1AB
330
4E
100
AcDbEntity
 67
     1
  8
1
  6
CONTINUOUS
 62
    18
100
AcDbLine
 10
1.528477
 20
2.983183
 30
0.0
 11
1.528477
 21
2.985575
 31
0.0
  0
LINE
  5
1AC
330
4E
100
AcDbEntity
 67
     1
  8
1
  6
CONTINUOUS
 62
    18
100
AcDbLine
 10
1.528477
 20
2.985575
 30
0.0
 11
1.52282
 21
2.987916
 31
0.0
  0
LINE
  5
1AD
330
4E
100
AcDbEntity
 67
     1
  8
1
  6
CONTINUOUS
 62
    18
100
AcDbLine
 10
1.52282
 20
2.987916
 30
0.0
 11
1.520479
 21
2.993573
 31
0.0
  0
LINE
  5
1AE
330
4E
100
AcDbEntity
 67
     1
  8
1
  6
CONTINUOUS
 62
    18
100
AcDbLine
 10
1.528477
 20
2.977576
 30
0.0
 11
1.529465
 21
2.977576
 31
0.0
  0
LINE
  5
1AF
330
4E
100
AcDbEntity
 67
     1
  8
1
  6
CONTINUOUS
 62
    18
100
AcDbLine
 10
1.529465
 20
2.985575
 30
0.0
 11
1.528477
 21
2.985575
 31
0.0
  0
LINE
  5
1B0
330
4E
100
AcDbEntity
 67
     1
  8
1
  6
CONTINUOUS
 62
    18
100
AcDbLine
 10
3.173941
 20
3.495013
 30
0.0
 11
3.174465
 21
3.495537
 31
0.0
  0
LINE
  5
1B1
330
4E
100
AcDbEntity
 67
     1
  8
1
  6
CONTINUOUS
 62
    18
100
AcDbLine
 10
2.368809
 20
3.496061
 30
0.0
 11
2.366714
 21
3.495013
 31
0.0
  0
LINE
  5
1B2
330
4E
100
AcDbEntity
 67
     1
  8
1
  6
CONTINUOUS
 62
    18
100
AcDbLine
 10
2.368809
 20
3.496061
 30
0.0
 11
2.368809
 21
3.53536
 31
0.0
  0
LINE
  5
1B3
330
4E
100
AcDbEntity
 67
     1
  8
1
  6
CONTINUOUS
 62
    18
100
AcDbLine
 10
2.367412
 20
3.536058
 30
0.0
 11
2.368809
 21
3.53536
 31
0.0
  0
LINE
  5
1B4
330
4E
100
AcDbEntity
 67
     1
  8
1
  6
CONTINUOUS
 62
    18
100
AcDbLine
 10
2.367412
 20
3.54046
 30
0.0
 11
2.367412
 21
3.536058
 31
0.0
  0
LINE
  5
1B5
330
4E
100
AcDbEntity
 67
     1
  8
1
  6
CONTINUOUS
 62
    18
100
AcDbLine
 10
2.367412
 20
3.54046
 30
0.0
 11
2.367308
 21
3.533328
 31
0.0
  0
LINE
  5
1B6
330
4E
100
AcDbEntity
 67
     1
  8
1
  6
CONTINUOUS
 62
    18
100
AcDbLine
 10
2.367308
 20
3.533328
 30
0.0
 11
2.367057
 21
3.530462
 31
0.0
  0
LINE
  5
1B7
330
4E
100
AcDbEntity
 67
     1
  8
1
  6
CONTINUOUS
 62
    18
100
AcDbLine
 10
2.364165
 20
3.50301
 30
0.0
 11
2.364065
 21
3.496001
 31
0.0
  0
LINE
  5
1B8
330
4E
100
AcDbEntity
 67
     1
  8
1
  6
CONTINUOUS
 62
    18
100
AcDbLine
 10
2.364065
 20
3.496001
 30
0.0
 11
2.363822
 21
3.493011
 31
0.0
  0
LINE
  5
1B9
330
4E
100
AcDbEntity
 67
     1
  8
1
  6
CONTINUOUS
 62
    18
100
AcDbLine
 10
2.361965
 20
3.492083
 30
0.0
 11
2.363822
 21
3.493011
 31
0.0
  0
LINE
  5
1BA
330
4E
100
AcDbEntity
 67
     1
  8
1
  6
CONTINUOUS
 62
    18
100
AcDbLine
 10
2.361965
 20
3.36503
 30
0.0
 11
2.361965
 21
3.492083
 31
0.0
  0
LINE
  5
1BB
330
4E
100
AcDbEntity
 67
     1
  8
1
  6
CONTINUOUS
 62
    18
100
AcDbLine
 10
2.363222
 20
3.366054
 30
0.0
 11
2.361965
 21
3.36503
 31
0.0
  0
LINE
  5
1BC
330
4E
100
AcDbEntity
 67
     1
  8
1
  6
CONTINUOUS
 62
    18
100
AcDbLine
 10
2.363222
 20
3.439177
 30
0.0
 11
2.363222
 21
3.366054
 31
0.0
  0
LINE
  5
1BD
330
4E
100
AcDbEntity
 67
     1
  8
1
  6
CONTINUOUS
 62
    18
100
AcDbLine
 10
2.366714
 20
3.440516
 30
0.0
 11
2.363222
 21
3.439177
 31
0.0
  0
LINE
  5
1BE
330
4E
100
AcDbEntity
 67
     1
  8
1
  6
CONTINUOUS
 62
    18
100
AcDbLine
 10
2.346965
 20
3.138315
 30
0.0
 11
2.346965
 21
3.140061
 31
0.0
  0
LINE
  5
1BF
330
4E
100
AcDbEntity
 67
     1
  8
1
  6
CONTINUOUS
 62
    18
100
AcDbLine
 10
2.346965
 20
3.140061
 30
0.0
 11
2.226965
 21
3.140061
 31
0.0
  0
LINE
  5
1C0
330
4E
100
AcDbEntity
 67
     1
  8
1
  6
CONTINUOUS
 62
    18
100
AcDbLine
 10
2.226965
 20
3.140061
 30
0.0
 11
2.226965
 21
3.138315
 31
0.0
  0
LINE
  5
1C1
330
4E
100
AcDbEntity
 67
     1
  8
1
  6
CONTINUOUS
 62
    18
100
AcDbLine
 10
2.210708
 20
3.439177
 30
0.0
 11
2.207216
 21
3.440516
 31
0.0
  0
LINE
  5
1C2
330
4E
100
AcDbEntity
 67
     1
  8
1
  6
CONTINUOUS
 62
    18
100
AcDbLine
 10
2.206872
 20
3.530462
 30
0.0
 11
2.206622
 21
3.533328
 31
0.0
  0
LINE
  5
1C3
330
4E
100
AcDbEntity
 67
     1
  8
1
  6
CONTINUOUS
 62
    18
100
AcDbLine
 10
2.206622
 20
3.533328
 30
0.0
 11
2.206517
 21
3.54046
 31
0.0
  0
LINE
  5
1C4
330
4E
100
AcDbEntity
 67
     1
  8
1
  6
CONTINUOUS
 62
    18
100
AcDbLine
 10
2.206517
 20
3.536058
 30
0.0
 11
2.206517
 21
3.54046
 31
0.0
  0
LINE
  5
1C5
330
4E
100
AcDbEntity
 67
     1
  8
1
  6
CONTINUOUS
 62
    18
100
AcDbLine
 10
2.206517
 20
3.536058
 30
0.0
 11
2.20512
 21
3.53536
 31
0.0
  0
LINE
  5
1C6
330
4E
100
AcDbEntity
 67
     1
  8
1
  6
CONTINUOUS
 62
    18
100
AcDbLine
 10
2.20512
 20
3.496061
 30
0.0
 11
2.20512
 21
3.53536
 31
0.0
  0
LINE
  5
1C7
330
4E
100
AcDbEntity
 67
     1
  8
1
  6
CONTINUOUS
 62
    18
100
AcDbLine
 10
2.207216
 20
3.495013
 30
0.0
 11
2.20512
 21
3.496061
 31
0.0
  0
LINE
  5
1C8
330
4E
100
AcDbEntity
 67
     1
  8
1
  6
CONTINUOUS
 62
    18
100
AcDbLine
 10
2.210708
 20
3.366054
 30
0.0
 11
2.210708
 21
3.439177
 31
0.0
  0
LINE
  5
1C9
330
4E
100
AcDbEntity
 67
     1
  8
1
  6
CONTINUOUS
 62
    18
100
AcDbLine
 10
2.211965
 20
3.36503
 30
0.0
 11
2.210708
 21
3.366054
 31
0.0
  0
LINE
  5
1CA
330
4E
100
AcDbEntity
 67
     1
  8
1
  6
CONTINUOUS
 62
    18
100
AcDbLine
 10
2.211965
 20
3.36503
 30
0.0
 11
2.211965
 21
3.492083
 31
0.0
  0
LINE
  5
1CB
330
4E
100
AcDbEntity
 67
     1
  8
1
  6
CONTINUOUS
 62
    18
100
AcDbLine
 10
2.210108
 20
3.493011
 30
0.0
 11
2.211965
 21
3.492083
 31
0.0
  0
LINE
  5
1CC
330
4E
100
AcDbEntity
 67
     1
  8
1
  6
CONTINUOUS
 62
    18
100
AcDbLine
 10
2.210108
 20
3.493011
 30
0.0
 11
2.209865
 21
3.496001
 31
0.0
  0
LINE
  5
1CD
330
4E
100
AcDbEntity
 67
     1
  8
1
  6
CONTINUOUS
 62
    18
100
AcDbLine
 10
2.209865
 20
3.496001
 30
0.0
 11
2.209765
 21
3.50301
 31
0.0
  0
LINE
  5
1CE
330
4E
100
AcDbEntity
 67
     1
  8
1
  6
CONTINUOUS
 62
    18
100
AcDbLine
 10
1.529959
 20
3.027187
 30
0.0
 11
1.528468
 21
3.031663
 31
0.0
  0
LINE
  5
1CF
330
4E
100
AcDbEntity
 67
     1
  8
1
  6
CONTINUOUS
 62
    18
100
AcDbLine
 10
1.589734
 20
3.026782
 30
0.0
 11
1.587296
 21
3.027069
 31
0.0
  0
LINE
  5
1D0
330
4E
100
AcDbEntity
 67
     1
  8
1
  6
CONTINUOUS
 62
    18
100
AcDbLine
 10
1.587296
 20
3.027069
 30
0.0
 11
1.581739
 21
3.027187
 31
0.0
  0
LINE
  5
1D1
330
4E
100
AcDbEntity
 67
     1
  8
1
  6
CONTINUOUS
 62
    18
100
AcDbLine
 10
1.589734
 20
3.026782
 30
0.0
 11
1.59084
 21
3.025124
 31
0.0
  0
LINE
  5
1D2
330
4E
100
AcDbEntity
 67
     1
  8
1
  6
CONTINUOUS
 62
    18
100
AcDbLine
 10
1.714195
 20
3.026782
 30
0.0
 11
1.71309
 21
3.025124
 31
0.0
  0
LINE
  5
1D3
330
4E
100
AcDbEntity
 67
     1
  8
1
  6
CONTINUOUS
 62
    18
100
AcDbLine
 10
1.72219
 20
3.027187
 30
0.0
 11
1.716633
 21
3.027069
 31
0.0
  0
LINE
  5
1D4
330
4E
100
AcDbEntity
 67
     1
  8
1
  6
CONTINUOUS
 62
    18
100
AcDbLine
 10
1.716633
 20
3.027069
 30
0.0
 11
1.714195
 21
3.026782
 31
0.0
  0
LINE
  5
1D5
330
4E
100
AcDbEntity
 67
     1
  8
1
  6
CONTINUOUS
 62
    18
100
AcDbLine
 10
1.775462
 20
3.031663
 30
0.0
 11
1.773971
 21
3.027187
 31
0.0
  0
LINE
  5
1D6
330
4E
100
AcDbEntity
 67
     1
  8
1
  6
CONTINUOUS
 62
    18
100
AcDbLine
 10
1.781965
 20
3.019183
 30
0.0
 11
1.783451
 21
3.023645
 31
0.0
  0
LINE
  5
1D7
330
4E
100
AcDbEntity
 67
     1
  8
1
  6
CONTINUOUS
 62
    18
100
AcDbLine
 10
1.781965
 20
3.019183
 30
0.0
 11
1.781965
 21
2.995059
 31
0.0
  0
LINE
  5
1D8
330
4E
100
AcDbEntity
 67
     1
  8
1
  6
CONTINUOUS
 62
    18
100
AcDbLine
 10
1.783451
 20
2.993573
 30
0.0
 11
1.781965
 21
2.995059
 31
0.0
  0
LINE
  5
1D9
330
4E
100
AcDbEntity
 67
     1
  8
1
  6
CONTINUOUS
 62
    18
100
AcDbLine
 10
1.773966
 20
2.987061
 30
0.0
 11
1.779622
 21
2.989403
 31
0.0
  0
LINE
  5
1DA
330
4E
100
AcDbEntity
 67
     1
  8
1
  6
CONTINUOUS
 62
    18
100
AcDbLine
 10
1.779622
 20
2.989403
 30
0.0
 11
1.781965
 21
2.995059
 31
0.0
  0
LINE
  5
1DB
330
4E
100
AcDbEntity
 67
     1
  8
1
  6
CONTINUOUS
 62
    18
100
AcDbLine
 10
1.774465
 20
2.986562
 30
0.0
 11
1.775452
 21
2.985575
 31
0.0
  0
LINE
  5
1DC
330
4E
100
AcDbEntity
 67
     1
  8
1
  6
CONTINUOUS
 62
    18
100
AcDbLine
 10
1.528477
 20
2.985575
 30
0.0
 11
1.529465
 21
2.986562
 31
0.0
  0
LINE
  5
1DD
330
4E
100
AcDbEntity
 67
     1
  8
1
  6
CONTINUOUS
 62
    18
100
AcDbLine
 10
1.521965
 20
2.995059
 30
0.0
 11
1.524307
 21
2.989403
 31
0.0
  0
LINE
  5
1DE
330
4E
100
AcDbEntity
 67
     1
  8
1
  6
CONTINUOUS
 62
    18
100
AcDbLine
 10
1.524307
 20
2.989403
 30
0.0
 11
1.529964
 21
2.987061
 31
0.0
  0
LINE
  5
1DF
330
4E
100
AcDbEntity
 67
     1
  8
1
  6
CONTINUOUS
 62
    18
100
AcDbLine
 10
1.521965
 20
2.995059
 30
0.0
 11
1.520479
 21
2.993573
 31
0.0
  0
LINE
  5
1E0
330
4E
100
AcDbEntity
 67
     1
  8
1
  6
CONTINUOUS
 62
    18
100
AcDbLine
 10
1.521965
 20
2.995059
 30
0.0
 11
1.521965
 21
3.019183
 31
0.0
  0
LINE
  5
1E1
330
4E
100
AcDbEntity
 67
     1
  8
1
  6
CONTINUOUS
 62
    18
100
AcDbLine
 10
1.520479
 20
3.023645
 30
0.0
 11
1.521965
 21
3.019183
 31
0.0
  0
LINE
  5
1E2
330
4E
100
AcDbEntity
 67
     1
  8
1
  6
CONTINUOUS
 62
    18
100
AcDbLine
 10
2.799959
 20
3.027187
 30
0.0
 11
2.798468
 21
3.031663
 31
0.0
  0
LINE
  5
1E3
330
4E
100
AcDbEntity
 67
     1
  8
1
  6
CONTINUOUS
 62
    18
100
AcDbLine
 10
2.859734
 20
3.026782
 30
0.0
 11
2.857296
 21
3.027069
 31
0.0
  0
LINE
  5
1E4
330
4E
100
AcDbEntity
 67
     1
  8
1
  6
CONTINUOUS
 62
    18
100
AcDbLine
 10
2.857296
 20
3.027069
 30
0.0
 11
2.851739
 21
3.027187
 31
0.0
  0
LINE
  5
1E5
330
4E
100
AcDbEntity
 67
     1
  8
1
  6
CONTINUOUS
 62
    18
100
AcDbLine
 10
2.859734
 20
3.026782
 30
0.0
 11
2.860839
 21
3.025124
 31
0.0
  0
LINE
  5
1E6
330
4E
100
AcDbEntity
 67
     1
  8
1
  6
CONTINUOUS
 62
    18
100
AcDbLine
 10
2.984195
 20
3.026782
 30
0.0
 11
2.98309
 21
3.025124
 31
0.0
  0
LINE
  5
1E7
330
4E
100
AcDbEntity
 67
     1
  8
1
  6
CONTINUOUS
 62
    18
100
AcDbLine
 10
2.99219
 20
3.027187
 30
0.0
 11
2.986633
 21
3.027069
 31
0.0
  0
LINE
  5
1E8
330
4E
100
AcDbEntity
 67
     1
  8
1
  6
CONTINUOUS
 62
    18
100
AcDbLine
 10
2.986633
 20
3.027069
 30
0.0
 11
2.984195
 21
3.026782
 31
0.0
  0
LINE
  5
1E9
330
4E
100
AcDbEntity
 67
     1
  8
1
  6
CONTINUOUS
 62
    18
100
AcDbLine
 10
3.045462
 20
3.031663
 30
0.0
 11
3.043971
 21
3.027187
 31
0.0
  0
LINE
  5
1EA
330
4E
100
AcDbEntity
 67
     1
  8
1
  6
CONTINUOUS
 62
    18
100
AcDbLine
 10
3.051965
 20
3.019183
 30
0.0
 11
3.053451
 21
3.023645
 31
0.0
  0
LINE
  5
1EB
330
4E
100
AcDbEntity
 67
     1
  8
1
  6
CONTINUOUS
 62
    18
100
AcDbLine
 10
3.051965
 20
3.019183
 30
0.0
 11
3.051965
 21
2.995059
 31
0.0
  0
LINE
  5
1EC
330
4E
100
AcDbEntity
 67
     1
  8
1
  6
CONTINUOUS
 62
    18
100
AcDbLine
 10
3.053451
 20
2.993573
 30
0.0
 11
3.051965
 21
2.995059
 31
0.0
  0
LINE
  5
1ED
330
4E
100
AcDbEntity
 67
     1
  8
1
  6
CONTINUOUS
 62
    18
100
AcDbLine
 10
3.043966
 20
2.987061
 30
0.0
 11
3.049622
 21
2.989403
 31
0.0
  0
LINE
  5
1EE
330
4E
100
AcDbEntity
 67
     1
  8
1
  6
CONTINUOUS
 62
    18
100
AcDbLine
 10
3.049622
 20
2.989403
 30
0.0
 11
3.051965
 21
2.995059
 31
0.0
  0
LINE
  5
1EF
330
4E
100
AcDbEntity
 67
     1
  8
1
  6
CONTINUOUS
 62
    18
100
AcDbLine
 10
3.044465
 20
2.986562
 30
0.0
 11
3.045452
 21
2.985575
 31
0.0
  0
LINE
  5
1F0
330
4E
100
AcDbEntity
 67
     1
  8
1
  6
CONTINUOUS
 62
    18
100
AcDbLine
 10
2.798477
 20
2.985575
 30
0.0
 11
2.799465
 21
2.986562
 31
0.0
  0
LINE
  5
1F1
330
4E
100
AcDbEntity
 67
     1
  8
1
  6
CONTINUOUS
 62
    18
100
AcDbLine
 10
2.791965
 20
2.995059
 30
0.0
 11
2.794307
 21
2.989403
 31
0.0
  0
LINE
  5
1F2
330
4E
100
AcDbEntity
 67
     1
  8
1
  6
CONTINUOUS
 62
    18
100
AcDbLine
 10
2.794307
 20
2.989403
 30
0.0
 11
2.799963
 21
2.987061
 31
0.0
  0
LINE
  5
1F3
330
4E
100
AcDbEntity
 67
     1
  8
1
  6
CONTINUOUS
 62
    18
100
AcDbLine
 10
2.791965
 20
2.995059
 30
0.0
 11
2.790479
 21
2.993573
 31
0.0
  0
LINE
  5
1F4
330
4E
100
AcDbEntity
 67
     1
  8
1
  6
CONTINUOUS
 62
    18
100
AcDbLine
 10
2.791965
 20
2.995059
 30
0.0
 11
2.791965
 21
3.019183
 31
0.0
  0
LINE
  5
1F5
330
4E
100
AcDbEntity
 67
     1
  8
1
  6
CONTINUOUS
 62
    18
100
AcDbLine
 10
2.790479
 20
3.023645
 30
0.0
 11
2.791965
 21
3.019183
 31
0.0
  0
LINE
  5
1F6
330
4E
100
AcDbEntity
 67
     1
  8
1
  6
CONTINUOUS
 62
    18
100
AcDbLine
 10
3.307462
 20
3.506062
 30
0.0
 11
3.307462
 21
3.074059
 31
0.0
  0
LINE
  5
1F7
330
4E
100
AcDbEntity
 67
     1
  8
1
  6
CONTINUOUS
 62
    18
100
AcDbLine
 10
3.307462
 20
3.506062
 30
0.0
 11
3.306763
 21
3.505364
 31
0.0
  0
LINE
  5
1F8
330
4E
100
AcDbEntity
 67
     1
  8
1
  6
CONTINUOUS
 62
    18
100
AcDbLine
 10
3.306763
 20
3.505364
 30
0.0
 11
3.306763
 21
3.074757
 31
0.0
  0
LINE
  5
1F9
330
4E
100
AcDbEntity
 67
     1
  8
1
  6
CONTINUOUS
 62
    18
100
AcDbLine
 10
3.214465
 20
3.496061
 30
0.0
 11
3.214465
 21
3.495537
 31
0.0
  0
LINE
  5
1FA
330
4E
100
AcDbEntity
 67
     1
  8
1
  6
CONTINUOUS
 62
    18
100
AcDbLine
 10
3.174465
 20
3.495537
 30
0.0
 11
3.214465
 21
3.495537
 31
0.0
  0
LINE
  5
1FB
330
4E
100
AcDbEntity
 67
     1
  8
1
  6
CONTINUOUS
 62
    18
100
AcDbLine
 10
1.359465
 20
3.495537
 30
0.0
 11
1.399405
 21
3.495537
 31
0.0
  0
LINE
  5
1FC
330
4E
100
AcDbEntity
 67
     1
  8
1
  6
CONTINUOUS
 62
    18
100
AcDbLine
 10
1.359465
 20
3.496061
 30
0.0
 11
1.359465
 21
3.495537
 31
0.0
  0
LINE
  5
1FD
330
4E
100
AcDbEntity
 67
     1
  8
1
  6
CONTINUOUS
 62
    18
100
AcDbLine
 10
3.306763
 20
3.505364
 30
0.0
 11
3.302745
 21
3.520363
 31
0.0
  0
LINE
  5
1FE
330
4E
100
AcDbEntity
 67
     1
  8
1
  6
CONTINUOUS
 62
    18
100
AcDbLine
 10
3.302745
 20
3.520363
 30
0.0
 11
3.291766
 21
3.531341
 31
0.0
  0
LINE
  5
1FF
330
4E
100
AcDbEntity
 67
     1
  8
1
  6
CONTINUOUS
 62
    18
100
AcDbLine
 10
3.291766
 20
3.531341
 30
0.0
 11
3.276768
 21
3.53536
 31
0.0
  0
LINE
  5
200
330
4E
100
AcDbEntity
 67
     1
  8
1
  6
CONTINUOUS
 62
    18
100
AcDbLine
 10
2.368809
 20
3.53536
 30
0.0
 11
3.276768
 21
3.53536
 31
0.0
  0
LINE
  5
201
330
4E
100
AcDbEntity
 67
     1
  8
1
  6
CONTINUOUS
 62
    18
100
AcDbLine
 10
2.368809
 20
3.496061
 30
0.0
 11
3.214465
 21
3.496061
 31
0.0
  0
LINE
  5
202
330
4E
100
AcDbEntity
 67
     1
  8
1
  6
CONTINUOUS
 62
    18
100
AcDbLine
 10
1.359465
 20
3.496061
 30
0.0
 11
2.20512
 21
3.496061
 31
0.0
  0
LINE
  5
203
330
4E
100
AcDbEntity
 67
     1
  8
1
  6
CONTINUOUS
 62
    18
100
AcDbLine
 10
1.297161
 20
3.53536
 30
0.0
 11
2.20512
 21
3.53536
 31
0.0
  0
LINE
  5
204
330
4E
100
AcDbEntity
 67
     1
  8
1
  6
CONTINUOUS
 62
    18
100
AcDbLine
 10
1.297161
 20
3.53536
 30
0.0
 11
1.282163
 21
3.531341
 31
0.0
  0
LINE
  5
205
330
4E
100
AcDbEntity
 67
     1
  8
1
  6
CONTINUOUS
 62
    18
100
AcDbLine
 10
1.282163
 20
3.531341
 30
0.0
 11
1.271184
 21
3.520363
 31
0.0
  0
LINE
  5
206
330
4E
100
AcDbEntity
 67
     1
  8
1
  6
CONTINUOUS
 62
    18
100
AcDbLine
 10
1.271184
 20
3.520363
 30
0.0
 11
1.267166
 21
3.505364
 31
0.0
  0
LINE
  5
207
330
4E
100
AcDbEntity
 67
     1
  8
1
  6
CONTINUOUS
 62
    18
100
AcDbLine
 10
1.267166
 20
3.074757
 30
0.0
 11
1.267166
 21
3.505364
 31
0.0
  0
LINE
  5
208
330
4E
100
AcDbEntity
 67
     1
  8
1
  6
CONTINUOUS
 62
    18
100
AcDbLine
 10
1.267166
 20
3.505364
 30
0.0
 11
1.266468
 21
3.506062
 31
0.0
  0
LINE
  5
209
330
4E
100
AcDbEntity
 67
     1
  8
1
  6
CONTINUOUS
 62
    18
100
AcDbLine
 10
1.266468
 20
3.074059
 30
0.0
 11
1.266468
 21
3.506062
 31
0.0
  0
LINE
  5
20A
330
4E
100
AcDbEntity
 67
     1
  8
1
  6
CONTINUOUS
 62
    18
100
AcDbLine
 10
3.277466
 20
3.536058
 30
0.0
 11
3.292465
 21
3.532039
 31
0.0
  0
LINE
  5
20B
330
4E
100
AcDbEntity
 67
     1
  8
1
  6
CONTINUOUS
 62
    18
100
AcDbLine
 10
3.292465
 20
3.532039
 30
0.0
 11
3.303443
 21
3.521061
 31
0.0
  0
LINE
  5
20C
330
4E
100
AcDbEntity
 67
     1
  8
1
  6
CONTINUOUS
 62
    18
100
AcDbLine
 10
3.303443
 20
3.521061
 30
0.0
 11
3.307462
 21
3.506062
 31
0.0
  0
LINE
  5
20D
330
4E
100
AcDbEntity
 67
     1
  8
1
  6
CONTINUOUS
 62
    18
100
AcDbLine
 10
1.266468
 20
3.506062
 30
0.0
 11
1.270486
 21
3.521061
 31
0.0
  0
LINE
  5
20E
330
4E
100
AcDbEntity
 67
     1
  8
1
  6
CONTINUOUS
 62
    18
100
AcDbLine
 10
1.270486
 20
3.521061
 30
0.0
 11
1.281465
 21
3.532039
 31
0.0
  0
LINE
  5
20F
330
4E
100
AcDbEntity
 67
     1
  8
1
  6
CONTINUOUS
 62
    18
100
AcDbLine
 10
1.281465
 20
3.532039
 30
0.0
 11
1.296463
 21
3.536058
 31
0.0
  0
LINE
  5
210
330
4E
100
AcDbEntity
 67
     1
  8
1
  6
CONTINUOUS
 62
    18
100
AcDbLine
 10
1.296463
 20
3.536058
 30
0.0
 11
2.206517
 21
3.536058
 31
0.0
  0
LINE
  5
211
330
4E
100
AcDbEntity
 67
     1
  8
1
  6
CONTINUOUS
 62
    18
100
AcDbLine
 10
2.206517
 20
3.54046
 30
0.0
 11
2.216307
 21
3.54046
 31
0.0
  0
LINE
  5
212
330
4E
100
AcDbEntity
 67
     1
  8
1
  6
CONTINUOUS
 62
    18
100
AcDbLine
 10
2.357452
 20
3.54046
 30
0.0
 11
2.367412
 21
3.54046
 31
0.0
  0
LINE
  5
213
330
4E
100
AcDbEntity
 67
     1
  8
1
  6
CONTINUOUS
 62
    18
100
AcDbLine
 10
2.367412
 20
3.536058
 30
0.0
 11
3.277466
 21
3.536058
 31
0.0
  0
LINE
  5
214
330
4E
100
AcDbEntity
 67
     1
  8
1
  6
CONTINUOUS
 62
    18
100
AcDbLine
 10
2.718477
 20
6.883546
 30
0.0
 11
2.719465
 21
6.883546
 31
0.0
  0
LINE
  5
215
330
4E
100
AcDbEntity
 67
     1
  8
1
  6
CONTINUOUS
 62
    18
100
AcDbLine
 10
2.964465
 20
6.883546
 30
0.0
 11
2.965452
 21
6.883546
 31
0.0
  0
LINE
  5
216
330
4E
100
AcDbEntity
 67
     1
  8
1
  6
CONTINUOUS
 62
    18
100
AcDbLine
 10
2.965452
 20
6.883546
 30
0.0
 11
2.976764
 21
6.87886
 31
0.0
  0
LINE
  5
217
330
4E
100
AcDbEntity
 67
     1
  8
1
  6
CONTINUOUS
 62
    18
100
AcDbLine
 10
2.976764
 20
6.87886
 30
0.0
 11
2.98145
 21
6.867548
 31
0.0
  0
LINE
  5
218
330
4E
100
AcDbEntity
 67
     1
  8
1
  6
CONTINUOUS
 62
    18
100
AcDbLine
 10
2.98145
 20
6.867548
 30
0.0
 11
2.98145
 21
6.837476
 31
0.0
  0
LINE
  5
219
330
4E
100
AcDbEntity
 67
     1
  8
1
  6
CONTINUOUS
 62
    18
100
AcDbLine
 10
2.98145
 20
6.837476
 30
0.0
 11
2.976768
 21
6.826157
 31
0.0
  0
LINE
  5
21A
330
4E
100
AcDbEntity
 67
     1
  8
1
  6
CONTINUOUS
 62
    18
100
AcDbLine
 10
2.976768
 20
6.826157
 30
0.0
 11
2.965462
 21
6.821469
 31
0.0
  0
LINE
  5
21B
330
4E
100
AcDbEntity
 67
     1
  8
1
  6
CONTINUOUS
 62
    18
100
AcDbLine
 10
2.965462
 20
6.821469
 30
0.0
 11
2.718468
 21
6.821469
 31
0.0
  0
LINE
  5
21C
330
4E
100
AcDbEntity
 67
     1
  8
1
  6
CONTINUOUS
 62
    18
100
AcDbLine
 10
2.718468
 20
6.821469
 30
0.0
 11
2.707162
 21
6.826157
 31
0.0
  0
LINE
  5
21D
330
4E
100
AcDbEntity
 67
     1
  8
1
  6
CONTINUOUS
 62
    18
100
AcDbLine
 10
2.707162
 20
6.826157
 30
0.0
 11
2.70248
 21
6.837476
 31
0.0
  0
LINE
  5
21E
330
4E
100
AcDbEntity
 67
     1
  8
1
  6
CONTINUOUS
 62
    18
100
AcDbLine
 10
2.70248
 20
6.837476
 30
0.0
 11
2.70248
 21
6.867548
 31
0.0
  0
LINE
  5
21F
330
4E
100
AcDbEntity
 67
     1
  8
1
  6
CONTINUOUS
 62
    18
100
AcDbLine
 10
2.70248
 20
6.867548
 30
0.0
 11
2.707165
 21
6.87886
 31
0.0
  0
LINE
  5
220
330
4E
100
AcDbEntity
 67
     1
  8
1
  6
CONTINUOUS
 62
    18
100
AcDbLine
 10
2.707165
 20
6.87886
 30
0.0
 11
2.718477
 21
6.883546
 31
0.0
  0
LINE
  5
221
330
4E
100
AcDbEntity
 67
     1
  8
1
  6
CONTINUOUS
 62
    18
100
AcDbLine
 10
1.854465
 20
6.883546
 30
0.0
 11
1.855452
 21
6.883546
 31
0.0
  0
LINE
  5
222
330
4E
100
AcDbEntity
 67
     1
  8
1
  6
CONTINUOUS
 62
    18
100
AcDbLine
 10
1.855452
 20
6.883546
 30
0.0
 11
1.866764
 21
6.87886
 31
0.0
  0
LINE
  5
223
330
4E
100
AcDbEntity
 67
     1
  8
1
  6
CONTINUOUS
 62
    18
100
AcDbLine
 10
1.866764
 20
6.87886
 30
0.0
 11
1.87145
 21
6.867548
 31
0.0
  0
LINE
  5
224
330
4E
100
AcDbEntity
 67
     1
  8
1
  6
CONTINUOUS
 62
    18
100
AcDbLine
 10
1.87145
 20
6.867548
 30
0.0
 11
1.87145
 21
6.837476
 31
0.0
  0
LINE
  5
225
330
4E
100
AcDbEntity
 67
     1
  8
1
  6
CONTINUOUS
 62
    18
100
AcDbLine
 10
1.87145
 20
6.837476
 30
0.0
 11
1.866768
 21
6.826157
 31
0.0
  0
LINE
  5
226
330
4E
100
AcDbEntity
 67
     1
  8
1
  6
CONTINUOUS
 62
    18
100
AcDbLine
 10
1.866768
 20
6.826157
 30
0.0
 11
1.855462
 21
6.821469
 31
0.0
  0
LINE
  5
227
330
4E
100
AcDbEntity
 67
     1
  8
1
  6
CONTINUOUS
 62
    18
100
AcDbLine
 10
1.855462
 20
6.821469
 30
0.0
 11
1.608468
 21
6.821469
 31
0.0
  0
LINE
  5
228
330
4E
100
AcDbEntity
 67
     1
  8
1
  6
CONTINUOUS
 62
    18
100
AcDbLine
 10
1.608468
 20
6.821469
 30
0.0
 11
1.597162
 21
6.826157
 31
0.0
  0
LINE
  5
229
330
4E
100
AcDbEntity
 67
     1
  8
1
  6
CONTINUOUS
 62
    18
100
AcDbLine
 10
1.597162
 20
6.826157
 30
0.0
 11
1.59248
 21
6.837476
 31
0.0
  0
LINE
  5
22A
330
4E
100
AcDbEntity
 67
     1
  8
1
  6
CONTINUOUS
 62
    18
100
AcDbLine
 10
1.59248
 20
6.837476
 30
0.0
 11
1.59248
 21
6.867548
 31
0.0
  0
LINE
  5
22B
330
4E
100
AcDbEntity
 67
     1
  8
1
  6
CONTINUOUS
 62
    18
100
AcDbLine
 10
1.59248
 20
6.867548
 30
0.0
 11
1.597165
 21
6.87886
 31
0.0
  0
LINE
  5
22C
330
4E
100
AcDbEntity
 67
     1
  8
1
  6
CONTINUOUS
 62
    18
100
AcDbLine
 10
1.597165
 20
6.87886
 30
0.0
 11
1.608477
 21
6.883546
 31
0.0
  0
LINE
  5
22D
330
4E
100
AcDbEntity
 67
     1
  8
1
  6
CONTINUOUS
 62
    18
100
AcDbLine
 10
1.608477
 20
6.883546
 30
0.0
 11
1.609465
 21
6.883546
 31
0.0
  0
LINE
  5
22E
330
4E
100
AcDbEntity
 67
     1
  8
1
  6
CONTINUOUS
 62
    18
100
AcDbLine
 10
3.277466
 20
6.817058
 30
0.0
 11
3.292465
 21
6.813039
 31
0.0
  0
LINE
  5
22F
330
4E
100
AcDbEntity
 67
     1
  8
1
  6
CONTINUOUS
 62
    18
100
AcDbLine
 10
3.292465
 20
6.813039
 30
0.0
 11
3.303443
 21
6.802061
 31
0.0
  0
LINE
  5
230
330
4E
100
AcDbEntity
 67
     1
  8
1
  6
CONTINUOUS
 62
    18
100
AcDbLine
 10
3.303443
 20
6.802061
 30
0.0
 11
3.307462
 21
6.787062
 31
0.0
  0
LINE
  5
231
330
4E
100
AcDbEntity
 67
     1
  8
1
  6
CONTINUOUS
 62
    18
100
AcDbLine
 10
3.307462
 20
6.787062
 30
0.0
 11
3.307462
 21
6.355059
 31
0.0
  0
LINE
  5
232
330
4E
100
AcDbEntity
 67
     1
  8
1
  6
CONTINUOUS
 62
    18
100
AcDbLine
 10
3.307462
 20
6.355059
 30
0.0
 11
3.303443
 21
6.340061
 31
0.0
  0
LINE
  5
233
330
4E
100
AcDbEntity
 67
     1
  8
1
  6
CONTINUOUS
 62
    18
100
AcDbLine
 10
3.303443
 20
6.340061
 30
0.0
 11
3.292465
 21
6.329082
 31
0.0
  0
LINE
  5
234
330
4E
100
AcDbEntity
 67
     1
  8
1
  6
CONTINUOUS
 62
    18
100
AcDbLine
 10
3.292465
 20
6.329082
 30
0.0
 11
3.277466
 21
6.325064
 31
0.0
  0
LINE
  5
235
330
4E
100
AcDbEntity
 67
     1
  8
1
  6
CONTINUOUS
 62
    18
100
AcDbLine
 10
2.367412
 20
6.325064
 30
0.0
 11
3.277466
 21
6.325064
 31
0.0
  0
LINE
  5
236
330
4E
100
AcDbEntity
 67
     1
  8
1
  6
CONTINUOUS
 62
    18
100
AcDbLine
 10
2.367412
 20
6.325064
 30
0.0
 11
2.367412
 21
6.320662
 31
0.0
  0
LINE
  5
237
330
4E
100
AcDbEntity
 67
     1
  8
1
  6
CONTINUOUS
 62
    18
100
AcDbLine
 10
2.367412
 20
6.320662
 30
0.0
 11
2.357452
 21
6.320662
 31
0.0
  0
LINE
  5
238
330
4E
100
AcDbEntity
 67
     1
  8
1
  6
CONTINUOUS
 62
    18
100
AcDbLine
 10
2.216307
 20
6.320662
 30
0.0
 11
2.206517
 21
6.320662
 31
0.0
  0
LINE
  5
239
330
4E
100
AcDbEntity
 67
     1
  8
1
  6
CONTINUOUS
 62
    18
100
AcDbLine
 10
2.206517
 20
6.320662
 30
0.0
 11
2.206517
 21
6.325064
 31
0.0
  0
LINE
  5
23A
330
4E
100
AcDbEntity
 67
     1
  8
1
  6
CONTINUOUS
 62
    18
100
AcDbLine
 10
1.296463
 20
6.325064
 30
0.0
 11
2.206517
 21
6.325064
 31
0.0
  0
LINE
  5
23B
330
4E
100
AcDbEntity
 67
     1
  8
1
  6
CONTINUOUS
 62
    18
100
AcDbLine
 10
1.296463
 20
6.325064
 30
0.0
 11
1.281465
 21
6.329082
 31
0.0
  0
LINE
  5
23C
330
4E
100
AcDbEntity
 67
     1
  8
1
  6
CONTINUOUS
 62
    18
100
AcDbLine
 10
1.281465
 20
6.329082
 30
0.0
 11
1.270486
 21
6.340061
 31
0.0
  0
LINE
  5
23D
330
4E
100
AcDbEntity
 67
     1
  8
1
  6
CONTINUOUS
 62
    18
100
AcDbLine
 10
1.270486
 20
6.340061
 30
0.0
 11
1.266468
 21
6.355059
 31
0.0
  0
LINE
  5
23E
330
4E
100
AcDbEntity
 67
     1
  8
1
  6
CONTINUOUS
 62
    18
100
AcDbLine
 10
1.266468
 20
6.355059
 30
0.0
 11
1.266468
 21
6.787062
 31
0.0
  0
LINE
  5
23F
330
4E
100
AcDbEntity
 67
     1
  8
1
  6
CONTINUOUS
 62
    18
100
AcDbLine
 10
1.266468
 20
6.787062
 30
0.0
 11
1.270486
 21
6.802061
 31
0.0
  0
LINE
  5
240
330
4E
100
AcDbEntity
 67
     1
  8
1
  6
CONTINUOUS
 62
    18
100
AcDbLine
 10
1.270486
 20
6.802061
 30
0.0
 11
1.281465
 21
6.813039
 31
0.0
  0
LINE
  5
241
330
4E
100
AcDbEntity
 67
     1
  8
1
  6
CONTINUOUS
 62
    18
100
AcDbLine
 10
1.281465
 20
6.813039
 30
0.0
 11
1.296463
 21
6.817058
 31
0.0
  0
LINE
  5
242
330
4E
100
AcDbEntity
 67
     1
  8
1
  6
CONTINUOUS
 62
    18
100
AcDbLine
 10
1.296463
 20
6.817058
 30
0.0
 11
3.277466
 21
6.817058
 31
0.0
  0
LINE
  5
243
330
4E
100
AcDbEntity
 67
     1
  8
1
  6
CONTINUOUS
 62
    18
100
AcDbLine
 10
3.214465
 20
6.365584
 30
0.0
 11
3.174525
 21
6.365584
 31
0.0
  0
LINE
  5
244
330
4E
100
AcDbEntity
 67
     1
  8
1
  6
CONTINUOUS
 62
    18
100
AcDbLine
 10
3.223941
 20
6.767061
 30
0.0
 11
3.223941
 21
6.375061
 31
0.0
  0
LINE
  5
245
330
4E
100
AcDbEntity
 67
     1
  8
1
  6
CONTINUOUS
 62
    18
100
AcDbLine
 10
3.174525
 20
6.776537
 30
0.0
 11
3.214465
 21
6.776537
 31
0.0
  0
LINE
  5
246
330
4E
100
AcDbEntity
 67
     1
  8
1
  6
CONTINUOUS
 62
    18
100
AcDbLine
 10
3.224465
 20
6.375061
 30
0.0
 11
3.223941
 21
6.375061
 31
0.0
  0
LINE
  5
247
330
4E
100
AcDbEntity
 67
     1
  8
1
  6
CONTINUOUS
 62
    18
100
AcDbLine
 10
3.214465
 20
6.365061
 30
0.0
 11
3.214465
 21
6.365584
 31
0.0
  0
LINE
  5
248
330
4E
100
AcDbEntity
 67
     1
  8
1
  6
CONTINUOUS
 62
    18
100
AcDbLine
 10
3.224465
 20
6.767061
 30
0.0
 11
3.224465
 21
6.375061
 31
0.0
  0
LINE
  5
249
330
4E
100
AcDbEntity
 67
     1
  8
1
  6
CONTINUOUS
 62
    18
100
AcDbLine
 10
3.224465
 20
6.767061
 30
0.0
 11
3.223941
 21
6.767061
 31
0.0
  0
LINE
  5
24A
330
4E
100
AcDbEntity
 67
     1
  8
1
  6
CONTINUOUS
 62
    18
100
AcDbLine
 10
3.214465
 20
6.777061
 30
0.0
 11
3.214465
 21
6.776537
 31
0.0
  0
LINE
  5
24B
330
4E
100
AcDbEntity
 67
     1
  8
1
  6
CONTINUOUS
 62
    18
100
AcDbLine
 10
1.349465
 20
6.767061
 30
0.0
 11
1.349988
 21
6.767061
 31
0.0
  0
LINE
  5
24C
330
4E
100
AcDbEntity
 67
     1
  8
1
  6
CONTINUOUS
 62
    18
100
AcDbLine
 10
1.359465
 20
6.777061
 30
0.0
 11
1.359465
 21
6.776537
 31
0.0
  0
LINE
  5
24D
330
4E
100
AcDbEntity
 67
     1
  8
1
  6
CONTINUOUS
 62
    18
100
AcDbLine
 10
1.349465
 20
6.767061
 30
0.0
 11
1.349465
 21
6.375061
 31
0.0
  0
LINE
  5
24E
330
4E
100
AcDbEntity
 67
     1
  8
1
  6
CONTINUOUS
 62
    18
100
AcDbLine
 10
1.349465
 20
6.375061
 30
0.0
 11
1.349988
 21
6.375061
 31
0.0
  0
LINE
  5
24F
330
4E
100
AcDbEntity
 67
     1
  8
1
  6
CONTINUOUS
 62
    18
100
AcDbLine
 10
1.349988
 20
6.375061
 30
0.0
 11
1.349988
 21
6.767061
 31
0.0
  0
LINE
  5
250
330
4E
100
AcDbEntity
 67
     1
  8
1
  6
CONTINUOUS
 62
    18
100
AcDbLine
 10
1.359465
 20
6.365061
 30
0.0
 11
1.359465
 21
6.365584
 31
0.0
  0
LINE
  5
251
330
4E
100
AcDbEntity
 67
     1
  8
1
  6
CONTINUOUS
 62
    18
100
AcDbLine
 10
1.399405
 20
6.365584
 30
0.0
 11
1.359465
 21
6.365584
 31
0.0
  0
LINE
  5
252
330
4E
100
AcDbEntity
 67
     1
  8
1
  6
CONTINUOUS
 62
    18
100
AcDbLine
 10
1.359465
 20
6.776537
 30
0.0
 11
1.399405
 21
6.776537
 31
0.0
  0
LINE
  5
253
330
4E
100
AcDbEntity
 67
     1
  8
1
  6
CONTINUOUS
 62
    18
100
AcDbLine
 10
1.359465
 20
6.777061
 30
0.0
 11
3.214465
 21
6.777061
 31
0.0
  0
LINE
  5
254
330
4E
100
AcDbEntity
 67
     1
  8
1
  6
CONTINUOUS
 62
    18
100
AcDbLine
 10
1.399405
 20
6.776537
 30
0.0
 11
1.399709
 21
6.776263
 31
0.0
  0
LINE
  5
255
330
4E
100
AcDbEntity
 67
     1
  8
1
  6
CONTINUOUS
 62
    18
100
AcDbLine
 10
1.399709
 20
6.776263
 30
0.0
 11
1.399976
 21
6.776013
 31
0.0
  0
LINE
  5
256
330
4E
100
AcDbEntity
 67
     1
  8
1
  6
CONTINUOUS
 62
    18
100
AcDbLine
 10
1.399976
 20
6.776013
 30
0.0
 11
3.173953
 21
6.776013
 31
0.0
  0
LINE
  5
257
330
4E
100
AcDbEntity
 67
     1
  8
1
  6
CONTINUOUS
 62
    18
100
AcDbLine
 10
3.173953
 20
6.776013
 30
0.0
 11
3.174267
 21
6.776306
 31
0.0
  0
LINE
  5
258
330
4E
100
AcDbEntity
 67
     1
  8
1
  6
CONTINUOUS
 62
    18
100
AcDbLine
 10
3.174267
 20
6.776306
 30
0.0
 11
3.174525
 21
6.776537
 31
0.0
  0
LINE
  5
259
330
4E
100
AcDbEntity
 67
     1
  8
1
  6
CONTINUOUS
 62
    18
100
AcDbLine
 10
1.296463
 20
6.817058
 30
0.0
 11
1.297161
 21
6.81636
 31
0.0
  0
LINE
  5
25A
330
4E
100
AcDbEntity
 67
     1
  8
1
  6
CONTINUOUS
 62
    18
100
AcDbLine
 10
1.297161
 20
6.81636
 30
0.0
 11
3.276768
 21
6.81636
 31
0.0
  0
LINE
  5
25B
330
4E
100
AcDbEntity
 67
     1
  8
1
  6
CONTINUOUS
 62
    18
100
AcDbLine
 10
3.276768
 20
6.81636
 30
0.0
 11
3.277466
 21
6.817058
 31
0.0
  0
LINE
  5
25C
330
4E
100
AcDbEntity
 67
     1
  8
1
  6
CONTINUOUS
 62
    18
100
AcDbLine
 10
1.267166
 20
6.786364
 30
0.0
 11
1.266468
 21
6.787062
 31
0.0
  0
LINE
  5
25D
330
4E
100
AcDbEntity
 67
     1
  8
1
  6
CONTINUOUS
 62
    18
100
AcDbLine
 10
1.297161
 20
6.81636
 30
0.0
 11
1.282163
 21
6.812341
 31
0.0
  0
LINE
  5
25E
330
4E
100
AcDbEntity
 67
     1
  8
1
  6
CONTINUOUS
 62
    18
100
AcDbLine
 10
1.282163
 20
6.812341
 30
0.0
 11
1.271184
 21
6.801363
 31
0.0
  0
LINE
  5
25F
330
4E
100
AcDbEntity
 67
     1
  8
1
  6
CONTINUOUS
 62
    18
100
AcDbLine
 10
1.271184
 20
6.801363
 30
0.0
 11
1.267166
 21
6.786364
 31
0.0
  0
LINE
  5
260
330
4E
100
AcDbEntity
 67
     1
  8
1
  6
CONTINUOUS
 62
    18
100
AcDbLine
 10
1.266468
 20
6.355059
 30
0.0
 11
1.267166
 21
6.355757
 31
0.0
  0
LINE
  5
261
330
4E
100
AcDbEntity
 67
     1
  8
1
  6
CONTINUOUS
 62
    18
100
AcDbLine
 10
1.267166
 20
6.355757
 30
0.0
 11
1.267166
 21
6.786364
 31
0.0
  0
LINE
  5
262
330
4E
100
AcDbEntity
 67
     1
  8
1
  6
CONTINUOUS
 62
    18
100
AcDbLine
 10
1.297161
 20
6.325762
 30
0.0
 11
1.296463
 21
6.325064
 31
0.0
  0
LINE
  5
263
330
4E
100
AcDbEntity
 67
     1
  8
1
  6
CONTINUOUS
 62
    18
100
AcDbLine
 10
1.267166
 20
6.355757
 30
0.0
 11
1.271184
 21
6.340759
 31
0.0
  0
LINE
  5
264
330
4E
100
AcDbEntity
 67
     1
  8
1
  6
CONTINUOUS
 62
    18
100
AcDbLine
 10
1.271184
 20
6.340759
 30
0.0
 11
1.282163
 21
6.32978
 31
0.0
  0
LINE
  5
265
330
4E
100
AcDbEntity
 67
     1
  8
1
  6
CONTINUOUS
 62
    18
100
AcDbLine
 10
1.282163
 20
6.32978
 30
0.0
 11
1.297161
 21
6.325762
 31
0.0
  0
LINE
  5
266
330
4E
100
AcDbEntity
 67
     1
  8
1
  6
CONTINUOUS
 62
    18
100
AcDbLine
 10
3.306763
 20
6.355757
 30
0.0
 11
3.307462
 21
6.355059
 31
0.0
  0
LINE
  5
267
330
4E
100
AcDbEntity
 67
     1
  8
1
  6
CONTINUOUS
 62
    18
100
AcDbLine
 10
3.276768
 20
6.325762
 30
0.0
 11
3.291766
 21
6.32978
 31
0.0
  0
LINE
  5
268
330
4E
100
AcDbEntity
 67
     1
  8
1
  6
CONTINUOUS
 62
    18
100
AcDbLine
 10
3.291766
 20
6.32978
 30
0.0
 11
3.302745
 21
6.340759
 31
0.0
  0
LINE
  5
269
330
4E
100
AcDbEntity
 67
     1
  8
1
  6
CONTINUOUS
 62
    18
100
AcDbLine
 10
3.302745
 20
6.340759
 30
0.0
 11
3.306763
 21
6.355757
 31
0.0
  0
LINE
  5
26A
330
4E
100
AcDbEntity
 67
     1
  8
1
  6
CONTINUOUS
 62
    18
100
AcDbLine
 10
3.277466
 20
6.325064
 30
0.0
 11
3.276768
 21
6.325762
 31
0.0
  0
LINE
  5
26B
330
4E
100
AcDbEntity
 67
     1
  8
1
  6
CONTINUOUS
 62
    18
100
AcDbLine
 10
3.306763
 20
6.786364
 30
0.0
 11
3.306763
 21
6.355757
 31
0.0
  0
LINE
  5
26C
330
4E
100
AcDbEntity
 67
     1
  8
1
  6
CONTINUOUS
 62
    18
100
AcDbLine
 10
3.307462
 20
6.787062
 30
0.0
 11
3.306763
 21
6.786364
 31
0.0
  0
LINE
  5
26D
330
4E
100
AcDbEntity
 67
     1
  8
1
  6
CONTINUOUS
 62
    18
100
AcDbLine
 10
3.306763
 20
6.786364
 30
0.0
 11
3.302745
 21
6.801363
 31
0.0
  0
LINE
  5
26E
330
4E
100
AcDbEntity
 67
     1
  8
1
  6
CONTINUOUS
 62
    18
100
AcDbLine
 10
3.302745
 20
6.801363
 30
0.0
 11
3.291766
 21
6.812341
 31
0.0
  0
LINE
  5
26F
330
4E
100
AcDbEntity
 67
     1
  8
1
  6
CONTINUOUS
 62
    18
100
AcDbLine
 10
3.291766
 20
6.812341
 30
0.0
 11
3.276768
 21
6.81636
 31
0.0
  0
LINE
  5
270
330
4E
100
AcDbEntity
 67
     1
  8
1
  6
CONTINUOUS
 62
    18
100
AcDbLine
 10
1.608477
 20
6.883546
 30
0.0
 11
1.608477
 21
6.877938
 31
0.0
  0
LINE
  5
271
330
4E
100
AcDbEntity
 67
     1
  8
1
  6
CONTINUOUS
 62
    18
100
AcDbLine
 10
1.608477
 20
6.877938
 30
0.0
 11
1.608477
 21
6.875547
 31
0.0
  0
LINE
  5
272
330
4E
100
AcDbEntity
 67
     1
  8
1
  6
CONTINUOUS
 62
    18
100
AcDbLine
 10
1.609465
 20
6.875547
 30
0.0
 11
1.608477
 21
6.875547
 31
0.0
  0
LINE
  5
273
330
4E
100
AcDbEntity
 67
     1
  8
1
  6
CONTINUOUS
 62
    18
100
AcDbLine
 10
1.59248
 20
6.867548
 30
0.0
 11
1.598087
 21
6.867548
 31
0.0
  0
LINE
  5
274
330
4E
100
AcDbEntity
 67
     1
  8
1
  6
CONTINUOUS
 62
    18
100
AcDbLine
 10
1.598087
 20
6.867548
 30
0.0
 11
1.600479
 21
6.867548
 31
0.0
  0
LINE
  5
275
330
4E
100
AcDbEntity
 67
     1
  8
1
  6
CONTINUOUS
 62
    18
100
AcDbLine
 10
1.608477
 20
6.875547
 30
0.0
 11
1.60282
 21
6.873205
 31
0.0
  0
LINE
  5
276
330
4E
100
AcDbEntity
 67
     1
  8
1
  6
CONTINUOUS
 62
    18
100
AcDbLine
 10
1.60282
 20
6.873205
 30
0.0
 11
1.600479
 21
6.867548
 31
0.0
  0
LINE
  5
277
330
4E
100
AcDbEntity
 67
     1
  8
1
  6
CONTINUOUS
 62
    18
100
AcDbLine
 10
1.600479
 20
6.837476
 30
0.0
 11
1.598087
 21
6.837476
 31
0.0
  0
LINE
  5
278
330
4E
100
AcDbEntity
 67
     1
  8
1
  6
CONTINUOUS
 62
    18
100
AcDbLine
 10
1.598087
 20
6.837476
 30
0.0
 11
1.59248
 21
6.837476
 31
0.0
  0
LINE
  5
279
330
4E
100
AcDbEntity
 67
     1
  8
1
  6
CONTINUOUS
 62
    18
100
AcDbLine
 10
1.600479
 20
6.867548
 30
0.0
 11
1.600479
 21
6.837476
 31
0.0
  0
LINE
  5
27A
330
4E
100
AcDbEntity
 67
     1
  8
1
  6
CONTINUOUS
 62
    18
100
AcDbLine
 10
1.608468
 20
6.829458
 30
0.0
 11
1.608468
 21
6.826976
 31
0.0
  0
LINE
  5
27B
330
4E
100
AcDbEntity
 67
     1
  8
1
  6
CONTINUOUS
 62
    18
100
AcDbLine
 10
1.608468
 20
6.826976
 30
0.0
 11
1.608468
 21
6.821469
 31
0.0
  0
LINE
  5
27C
330
4E
100
AcDbEntity
 67
     1
  8
1
  6
CONTINUOUS
 62
    18
100
AcDbLine
 10
1.600479
 20
6.837476
 30
0.0
 11
1.602815
 21
6.831803
 31
0.0
  0
LINE
  5
27D
330
4E
100
AcDbEntity
 67
     1
  8
1
  6
CONTINUOUS
 62
    18
100
AcDbLine
 10
1.602815
 20
6.831803
 30
0.0
 11
1.608468
 21
6.829458
 31
0.0
  0
LINE
  5
27E
330
4E
100
AcDbEntity
 67
     1
  8
1
  6
CONTINUOUS
 62
    18
100
AcDbLine
 10
1.855462
 20
6.829458
 30
0.0
 11
1.855462
 21
6.826976
 31
0.0
  0
LINE
  5
27F
330
4E
100
AcDbEntity
 67
     1
  8
1
  6
CONTINUOUS
 62
    18
100
AcDbLine
 10
1.855462
 20
6.826976
 30
0.0
 11
1.855462
 21
6.821469
 31
0.0
  0
LINE
  5
280
330
4E
100
AcDbEntity
 67
     1
  8
1
  6
CONTINUOUS
 62
    18
100
AcDbLine
 10
1.608468
 20
6.829458
 30
0.0
 11
1.855462
 21
6.829458
 31
0.0
  0
LINE
  5
281
330
4E
100
AcDbEntity
 67
     1
  8
1
  6
CONTINUOUS
 62
    18
100
AcDbLine
 10
1.863451
 20
6.837476
 30
0.0
 11
1.865842
 21
6.837476
 31
0.0
  0
LINE
  5
282
330
4E
100
AcDbEntity
 67
     1
  8
1
  6
CONTINUOUS
 62
    18
100
AcDbLine
 10
1.865842
 20
6.837476
 30
0.0
 11
1.87145
 21
6.837476
 31
0.0
  0
LINE
  5
283
330
4E
100
AcDbEntity
 67
     1
  8
1
  6
CONTINUOUS
 62
    18
100
AcDbLine
 10
1.855462
 20
6.829458
 30
0.0
 11
1.861114
 21
6.831803
 31
0.0
  0
LINE
  5
284
330
4E
100
AcDbEntity
 67
     1
  8
1
  6
CONTINUOUS
 62
    18
100
AcDbLine
 10
1.861114
 20
6.831803
 30
0.0
 11
1.863451
 21
6.837476
 31
0.0
  0
LINE
  5
285
330
4E
100
AcDbEntity
 67
     1
  8
1
  6
CONTINUOUS
 62
    18
100
AcDbLine
 10
1.863451
 20
6.867548
 30
0.0
 11
1.865842
 21
6.867548
 31
0.0
  0
LINE
  5
286
330
4E
100
AcDbEntity
 67
     1
  8
1
  6
CONTINUOUS
 62
    18
100
AcDbLine
 10
1.865842
 20
6.867548
 30
0.0
 11
1.87145
 21
6.867548
 31
0.0
  0
LINE
  5
287
330
4E
100
AcDbEntity
 67
     1
  8
1
  6
CONTINUOUS
 62
    18
100
AcDbLine
 10
1.863451
 20
6.837476
 30
0.0
 11
1.863451
 21
6.867548
 31
0.0
  0
LINE
  5
288
330
4E
100
AcDbEntity
 67
     1
  8
1
  6
CONTINUOUS
 62
    18
100
AcDbLine
 10
1.855452
 20
6.875547
 30
0.0
 11
1.855452
 21
6.877938
 31
0.0
  0
LINE
  5
289
330
4E
100
AcDbEntity
 67
     1
  8
1
  6
CONTINUOUS
 62
    18
100
AcDbLine
 10
1.855452
 20
6.877938
 30
0.0
 11
1.855452
 21
6.883546
 31
0.0
  0
LINE
  5
28A
330
4E
100
AcDbEntity
 67
     1
  8
1
  6
CONTINUOUS
 62
    18
100
AcDbLine
 10
1.863451
 20
6.867548
 30
0.0
 11
1.861109
 21
6.873205
 31
0.0
  0
LINE
  5
28B
330
4E
100
AcDbEntity
 67
     1
  8
1
  6
CONTINUOUS
 62
    18
100
AcDbLine
 10
1.861109
 20
6.873205
 30
0.0
 11
1.855452
 21
6.875547
 31
0.0
  0
LINE
  5
28C
330
4E
100
AcDbEntity
 67
     1
  8
1
  6
CONTINUOUS
 62
    18
100
AcDbLine
 10
1.855452
 20
6.875547
 30
0.0
 11
1.854464
 21
6.875547
 31
0.0
  0
LINE
  5
28D
330
4E
100
AcDbEntity
 67
     1
  8
1
  6
CONTINUOUS
 62
    18
100
AcDbLine
 10
2.70248
 20
6.867548
 30
0.0
 11
2.708087
 21
6.867548
 31
0.0
  0
LINE
  5
28E
330
4E
100
AcDbEntity
 67
     1
  8
1
  6
CONTINUOUS
 62
    18
100
AcDbLine
 10
2.708087
 20
6.867548
 30
0.0
 11
2.710479
 21
6.867548
 31
0.0
  0
LINE
  5
28F
330
4E
100
AcDbEntity
 67
     1
  8
1
  6
CONTINUOUS
 62
    18
100
AcDbLine
 10
2.718477
 20
6.875547
 30
0.0
 11
2.71282
 21
6.873205
 31
0.0
  0
LINE
  5
290
330
4E
100
AcDbEntity
 67
     1
  8
1
  6
CONTINUOUS
 62
    18
100
AcDbLine
 10
2.71282
 20
6.873205
 30
0.0
 11
2.710479
 21
6.867548
 31
0.0
  0
LINE
  5
291
330
4E
100
AcDbEntity
 67
     1
  8
1
  6
CONTINUOUS
 62
    18
100
AcDbLine
 10
2.718477
 20
6.883546
 30
0.0
 11
2.718477
 21
6.877938
 31
0.0
  0
LINE
  5
292
330
4E
100
AcDbEntity
 67
     1
  8
1
  6
CONTINUOUS
 62
    18
100
AcDbLine
 10
2.718477
 20
6.877938
 30
0.0
 11
2.718477
 21
6.875547
 31
0.0
  0
LINE
  5
293
330
4E
100
AcDbEntity
 67
     1
  8
1
  6
CONTINUOUS
 62
    18
100
AcDbLine
 10
2.70248
 20
6.837476
 30
0.0
 11
2.708087
 21
6.837476
 31
0.0
  0
LINE
  5
294
330
4E
100
AcDbEntity
 67
     1
  8
1
  6
CONTINUOUS
 62
    18
100
AcDbLine
 10
2.708087
 20
6.837476
 30
0.0
 11
2.710479
 21
6.837476
 31
0.0
  0
LINE
  5
295
330
4E
100
AcDbEntity
 67
     1
  8
1
  6
CONTINUOUS
 62
    18
100
AcDbLine
 10
2.710479
 20
6.867548
 30
0.0
 11
2.710479
 21
6.837476
 31
0.0
  0
LINE
  5
296
330
4E
100
AcDbEntity
 67
     1
  8
1
  6
CONTINUOUS
 62
    18
100
AcDbLine
 10
2.718468
 20
6.821469
 30
0.0
 11
2.718468
 21
6.826976
 31
0.0
  0
LINE
  5
297
330
4E
100
AcDbEntity
 67
     1
  8
1
  6
CONTINUOUS
 62
    18
100
AcDbLine
 10
2.718468
 20
6.826976
 30
0.0
 11
2.718468
 21
6.829458
 31
0.0
  0
LINE
  5
298
330
4E
100
AcDbEntity
 67
     1
  8
1
  6
CONTINUOUS
 62
    18
100
AcDbLine
 10
2.710479
 20
6.837476
 30
0.0
 11
2.712815
 21
6.831803
 31
0.0
  0
LINE
  5
299
330
4E
100
AcDbEntity
 67
     1
  8
1
  6
CONTINUOUS
 62
    18
100
AcDbLine
 10
2.712815
 20
6.831803
 30
0.0
 11
2.718468
 21
6.829458
 31
0.0
  0
LINE
  5
29A
330
4E
100
AcDbEntity
 67
     1
  8
1
  6
CONTINUOUS
 62
    18
100
AcDbLine
 10
2.965462
 20
6.821469
 30
0.0
 11
2.965462
 21
6.826976
 31
0.0
  0
LINE
  5
29B
330
4E
100
AcDbEntity
 67
     1
  8
1
  6
CONTINUOUS
 62
    18
100
AcDbLine
 10
2.965462
 20
6.826976
 30
0.0
 11
2.965462
 21
6.829458
 31
0.0
  0
LINE
  5
29C
330
4E
100
AcDbEntity
 67
     1
  8
1
  6
CONTINUOUS
 62
    18
100
AcDbLine
 10
2.718468
 20
6.829458
 30
0.0
 11
2.965462
 21
6.829458
 31
0.0
  0
LINE
  5
29D
330
4E
100
AcDbEntity
 67
     1
  8
1
  6
CONTINUOUS
 62
    18
100
AcDbLine
 10
2.98145
 20
6.837476
 30
0.0
 11
2.975842
 21
6.837476
 31
0.0
  0
LINE
  5
29E
330
4E
100
AcDbEntity
 67
     1
  8
1
  6
CONTINUOUS
 62
    18
100
AcDbLine
 10
2.975842
 20
6.837476
 30
0.0
 11
2.973451
 21
6.837476
 31
0.0
  0
LINE
  5
29F
330
4E
100
AcDbEntity
 67
     1
  8
1
  6
CONTINUOUS
 62
    18
100
AcDbLine
 10
2.965462
 20
6.829458
 30
0.0
 11
2.971114
 21
6.831803
 31
0.0
  0
LINE
  5
2A0
330
4E
100
AcDbEntity
 67
     1
  8
1
  6
CONTINUOUS
 62
    18
100
AcDbLine
 10
2.971114
 20
6.831803
 30
0.0
 11
2.973451
 21
6.837476
 31
0.0
  0
LINE
  5
2A1
330
4E
100
AcDbEntity
 67
     1
  8
1
  6
CONTINUOUS
 62
    18
100
AcDbLine
 10
2.973451
 20
6.867548
 30
0.0
 11
2.975842
 21
6.867548
 31
0.0
  0
LINE
  5
2A2
330
4E
100
AcDbEntity
 67
     1
  8
1
  6
CONTINUOUS
 62
    18
100
AcDbLine
 10
2.975842
 20
6.867548
 30
0.0
 11
2.98145
 21
6.867548
 31
0.0
  0
LINE
  5
2A3
330
4E
100
AcDbEntity
 67
     1
  8
1
  6
CONTINUOUS
 62
    18
100
AcDbLine
 10
2.973451
 20
6.837476
 30
0.0
 11
2.973451
 21
6.867548
 31
0.0
  0
LINE
  5
2A4
330
4E
100
AcDbEntity
 67
     1
  8
1
  6
CONTINUOUS
 62
    18
100
AcDbLine
 10
2.965452
 20
6.875547
 30
0.0
 11
2.965452
 21
6.877938
 31
0.0
  0
LINE
  5
2A5
330
4E
100
AcDbEntity
 67
     1
  8
1
  6
CONTINUOUS
 62
    18
100
AcDbLine
 10
2.965452
 20
6.877938
 30
0.0
 11
2.965452
 21
6.883546
 31
0.0
  0
LINE
  5
2A6
330
4E
100
AcDbEntity
 67
     1
  8
1
  6
CONTINUOUS
 62
    18
100
AcDbLine
 10
2.973451
 20
6.867548
 30
0.0
 11
2.971109
 21
6.873205
 31
0.0
  0
LINE
  5
2A7
330
4E
100
AcDbEntity
 67
     1
  8
1
  6
CONTINUOUS
 62
    18
100
AcDbLine
 10
2.971109
 20
6.873205
 30
0.0
 11
2.965452
 21
6.875547
 31
0.0
  0
LINE
  5
2A8
330
4E
100
AcDbEntity
 67
     1
  8
1
  6
CONTINUOUS
 62
    18
100
AcDbLine
 10
2.965452
 20
6.875547
 30
0.0
 11
2.964464
 21
6.875547
 31
0.0
  0
LINE
  5
2A9
330
4E
100
AcDbEntity
 67
     1
  8
1
  6
CONTINUOUS
 62
    18
100
AcDbLine
 10
2.719465
 20
6.875547
 30
0.0
 11
2.718477
 21
6.875547
 31
0.0
  0
LINE
  5
2AA
330
4E
100
AcDbEntity
 67
     1
  8
1
  6
CONTINUOUS
 62
    18
100
AcDbLine
 10
3.276768
 20
3.53536
 30
0.0
 11
3.277466
 21
3.536058
 31
0.0
  0
LINE
  5
2AB
330
4E
100
AcDbEntity
 67
     1
  8
1
  6
CONTINUOUS
 62
    18
100
AcDbLine
 10
1.296463
 20
3.536058
 30
0.0
 11
1.297161
 21
3.53536
 31
0.0
  0
LINE
  5
2AC
330
4E
100
AcDbEntity
 67
     1
  8
1
  6
CONTINUOUS
 62
    18
100
AcDbLine
 10
1.399405
 20
3.495537
 30
0.0
 11
1.399709
 21
3.495263
 31
0.0
  0
LINE
  5
2AD
330
4E
100
AcDbEntity
 67
     1
  8
1
  6
CONTINUOUS
 62
    18
100
AcDbLine
 10
1.399709
 20
3.495263
 30
0.0
 11
1.399976
 21
3.495013
 31
0.0
  0
LINE
  5
2AE
330
4E
100
AcDbEntity
 67
     1
  8
1
  6
CONTINUOUS
 62
    18
100
AcDbLine
 10
2.367057
 20
3.530462
 30
0.0
 11
2.356963
 21
3.530462
 31
0.0
  0
LINE
  5
2AF
330
4E
100
AcDbEntity
 67
     1
  8
1
  6
CONTINUOUS
 62
    18
100
AcDbLine
 10
2.216967
 20
3.530462
 30
0.0
 11
2.206872
 21
3.530462
 31
0.0
  0
LINE
  5
2B0
330
4E
100
AcDbEntity
 67
     1
  8
1
  6
CONTINUOUS
 62
    18
100
AcDbLine
 10
3.174525
 20
6.365584
 30
0.0
 11
3.17422
 21
6.365859
 31
0.0
  0
LINE
  5
2B1
330
4E
100
AcDbEntity
 67
     1
  8
1
  6
CONTINUOUS
 62
    18
100
AcDbLine
 10
3.17422
 20
6.365859
 30
0.0
 11
3.173953
 21
6.366108
 31
0.0
  0
LINE
  5
2B2
330
4E
100
AcDbEntity
 67
     1
  8
1
  6
CONTINUOUS
 62
    18
100
AcDbLine
 10
3.173941
 20
6.366561
 30
0.0
 11
3.173941
 21
6.775561
 31
0.0
  0
LINE
  5
2B3
330
4E
100
AcDbEntity
 67
     1
  8
1
  6
CONTINUOUS
 62
    18
100
AcDbLine
 10
1.399988
 20
6.775561
 30
0.0
 11
1.399988
 21
6.366561
 31
0.0
  0
LINE
  5
2B4
330
4E
100
AcDbEntity
 67
     1
  8
1
  6
CONTINUOUS
 62
    18
100
AcDbLine
 10
1.399976
 20
6.366108
 30
0.0
 11
1.399662
 21
6.365816
 31
0.0
  0
LINE
  5
2B5
330
4E
100
AcDbEntity
 67
     1
  8
1
  6
CONTINUOUS
 62
    18
100
AcDbLine
 10
1.399662
 20
6.365816
 30
0.0
 11
1.399405
 21
6.365584
 31
0.0
  0
LINE
  5
2B6
330
4E
100
AcDbEntity
 67
     1
  8
1
  6
CONTINUOUS
 62
    18
100
AcDbLine
 10
1.609959
 20
6.833935
 30
0.0
 11
1.608468
 21
6.829458
 31
0.0
  0
LINE
  5
2B7
330
4E
100
AcDbEntity
 67
     1
  8
1
  6
CONTINUOUS
 62
    18
100
AcDbLine
 10
1.855462
 20
6.829458
 30
0.0
 11
1.853971
 21
6.833935
 31
0.0
  0
LINE
  5
2B8
330
4E
100
AcDbEntity
 67
     1
  8
1
  6
CONTINUOUS
 62
    18
100
AcDbLine
 10
1.80219
 20
6.833935
 30
0.0
 11
1.796633
 21
6.834053
 31
0.0
  0
LINE
  5
2B9
330
4E
100
AcDbEntity
 67
     1
  8
1
  6
CONTINUOUS
 62
    18
100
AcDbLine
 10
1.796633
 20
6.834053
 30
0.0
 11
1.794195
 21
6.834339
 31
0.0
  0
LINE
  5
2BA
330
4E
100
AcDbEntity
 67
     1
  8
1
  6
CONTINUOUS
 62
    18
100
AcDbLine
 10
1.794195
 20
6.834339
 30
0.0
 11
1.79309
 21
6.835998
 31
0.0
  0
LINE
  5
2BB
330
4E
100
AcDbEntity
 67
     1
  8
1
  6
CONTINUOUS
 62
    18
100
AcDbLine
 10
1.669734
 20
6.834339
 30
0.0
 11
1.670839
 21
6.835998
 31
0.0
  0
LINE
  5
2BC
330
4E
100
AcDbEntity
 67
     1
  8
1
  6
CONTINUOUS
 62
    18
100
AcDbLine
 10
1.669734
 20
6.834339
 30
0.0
 11
1.667297
 21
6.834053
 31
0.0
  0
LINE
  5
2BD
330
4E
100
AcDbEntity
 67
     1
  8
1
  6
CONTINUOUS
 62
    18
100
AcDbLine
 10
1.667297
 20
6.834053
 30
0.0
 11
1.661739
 21
6.833935
 31
0.0
  0
LINE
  5
2BE
330
4E
100
AcDbEntity
 67
     1
  8
1
  6
CONTINUOUS
 62
    18
100
AcDbLine
 10
1.600479
 20
6.837476
 30
0.0
 11
1.601965
 21
6.841938
 31
0.0
  0
LINE
  5
2BF
330
4E
100
AcDbEntity
 67
     1
  8
1
  6
CONTINUOUS
 62
    18
100
AcDbLine
 10
1.601965
 20
6.866062
 30
0.0
 11
1.600479
 21
6.867548
 31
0.0
  0
LINE
  5
2C0
330
4E
100
AcDbEntity
 67
     1
  8
1
  6
CONTINUOUS
 62
    18
100
AcDbLine
 10
1.601965
 20
6.866062
 30
0.0
 11
1.601965
 21
6.841938
 31
0.0
  0
LINE
  5
2C1
330
4E
100
AcDbEntity
 67
     1
  8
1
  6
CONTINUOUS
 62
    18
100
AcDbLine
 10
1.608477
 20
6.875547
 30
0.0
 11
1.609465
 21
6.874559
 31
0.0
  0
LINE
  5
2C2
330
4E
100
AcDbEntity
 67
     1
  8
1
  6
CONTINUOUS
 62
    18
100
AcDbLine
 10
1.609963
 20
6.874061
 30
0.0
 11
1.604307
 21
6.871718
 31
0.0
  0
LINE
  5
2C3
330
4E
100
AcDbEntity
 67
     1
  8
1
  6
CONTINUOUS
 62
    18
100
AcDbLine
 10
1.604307
 20
6.871718
 30
0.0
 11
1.601965
 21
6.866062
 31
0.0
  0
LINE
  5
2C4
330
4E
100
AcDbEntity
 67
     1
  8
1
  6
CONTINUOUS
 62
    18
100
AcDbLine
 10
1.854465
 20
6.874559
 30
0.0
 11
1.855452
 21
6.875547
 31
0.0
  0
LINE
  5
2C5
330
4E
100
AcDbEntity
 67
     1
  8
1
  6
CONTINUOUS
 62
    18
100
AcDbLine
 10
1.863451
 20
6.867548
 30
0.0
 11
1.861965
 21
6.866062
 31
0.0
  0
LINE
  5
2C6
330
4E
100
AcDbEntity
 67
     1
  8
1
  6
CONTINUOUS
 62
    18
100
AcDbLine
 10
1.861965
 20
6.866062
 30
0.0
 11
1.859622
 21
6.871718
 31
0.0
  0
LINE
  5
2C7
330
4E
100
AcDbEntity
 67
     1
  8
1
  6
CONTINUOUS
 62
    18
100
AcDbLine
 10
1.859622
 20
6.871718
 30
0.0
 11
1.853966
 21
6.874061
 31
0.0
  0
LINE
  5
2C8
330
4E
100
AcDbEntity
 67
     1
  8
1
  6
CONTINUOUS
 62
    18
100
AcDbLine
 10
1.861965
 20
6.841938
 30
0.0
 11
1.863451
 21
6.837476
 31
0.0
  0
LINE
  5
2C9
330
4E
100
AcDbEntity
 67
     1
  8
1
  6
CONTINUOUS
 62
    18
100
AcDbLine
 10
1.861965
 20
6.841938
 30
0.0
 11
1.861965
 21
6.866062
 31
0.0
  0
LINE
  5
2CA
330
4E
100
AcDbEntity
 67
     1
  8
1
  6
CONTINUOUS
 62
    18
100
AcDbLine
 10
2.719959
 20
6.833935
 30
0.0
 11
2.718468
 21
6.829458
 31
0.0
  0
LINE
  5
2CB
330
4E
100
AcDbEntity
 67
     1
  8
1
  6
CONTINUOUS
 62
    18
100
AcDbLine
 10
2.965462
 20
6.829458
 30
0.0
 11
2.963971
 21
6.833935
 31
0.0
  0
LINE
  5
2CC
330
4E
100
AcDbEntity
 67
     1
  8
1
  6
CONTINUOUS
 62
    18
100
AcDbLine
 10
2.91219
 20
6.833935
 30
0.0
 11
2.906633
 21
6.834053
 31
0.0
  0
LINE
  5
2CD
330
4E
100
AcDbEntity
 67
     1
  8
1
  6
CONTINUOUS
 62
    18
100
AcDbLine
 10
2.906633
 20
6.834053
 30
0.0
 11
2.904195
 21
6.834339
 31
0.0
  0
LINE
  5
2CE
330
4E
100
AcDbEntity
 67
     1
  8
1
  6
CONTINUOUS
 62
    18
100
AcDbLine
 10
2.904195
 20
6.834339
 30
0.0
 11
2.90309
 21
6.835998
 31
0.0
  0
LINE
  5
2CF
330
4E
100
AcDbEntity
 67
     1
  8
1
  6
CONTINUOUS
 62
    18
100
AcDbLine
 10
2.779734
 20
6.834339
 30
0.0
 11
2.780839
 21
6.835998
 31
0.0
  0
LINE
  5
2D0
330
4E
100
AcDbEntity
 67
     1
  8
1
  6
CONTINUOUS
 62
    18
100
AcDbLine
 10
2.779734
 20
6.834339
 30
0.0
 11
2.777297
 21
6.834053
 31
0.0
  0
LINE
  5
2D1
330
4E
100
AcDbEntity
 67
     1
  8
1
  6
CONTINUOUS
 62
    18
100
AcDbLine
 10
2.777297
 20
6.834053
 30
0.0
 11
2.771739
 21
6.833935
 31
0.0
  0
LINE
  5
2D2
330
4E
100
AcDbEntity
 67
     1
  8
1
  6
CONTINUOUS
 62
    18
100
AcDbLine
 10
2.710479
 20
6.837476
 30
0.0
 11
2.711965
 21
6.841938
 31
0.0
  0
LINE
  5
2D3
330
4E
100
AcDbEntity
 67
     1
  8
1
  6
CONTINUOUS
 62
    18
100
AcDbLine
 10
2.711965
 20
6.866062
 30
0.0
 11
2.710479
 21
6.867548
 31
0.0
  0
LINE
  5
2D4
330
4E
100
AcDbEntity
 67
     1
  8
1
  6
CONTINUOUS
 62
    18
100
AcDbLine
 10
2.711965
 20
6.866062
 30
0.0
 11
2.711965
 21
6.841938
 31
0.0
  0
LINE
  5
2D5
330
4E
100
AcDbEntity
 67
     1
  8
1
  6
CONTINUOUS
 62
    18
100
AcDbLine
 10
2.718477
 20
6.875547
 30
0.0
 11
2.719465
 21
6.874559
 31
0.0
  0
LINE
  5
2D6
330
4E
100
AcDbEntity
 67
     1
  8
1
  6
CONTINUOUS
 62
    18
100
AcDbLine
 10
2.719964
 20
6.874061
 30
0.0
 11
2.714307
 21
6.871718
 31
0.0
  0
LINE
  5
2D7
330
4E
100
AcDbEntity
 67
     1
  8
1
  6
CONTINUOUS
 62
    18
100
AcDbLine
 10
2.714307
 20
6.871718
 30
0.0
 11
2.711965
 21
6.866062
 31
0.0
  0
LINE
  5
2D8
330
4E
100
AcDbEntity
 67
     1
  8
1
  6
CONTINUOUS
 62
    18
100
AcDbLine
 10
2.964465
 20
6.874559
 30
0.0
 11
2.965452
 21
6.875547
 31
0.0
  0
LINE
  5
2D9
330
4E
100
AcDbEntity
 67
     1
  8
1
  6
CONTINUOUS
 62
    18
100
AcDbLine
 10
2.973451
 20
6.867548
 30
0.0
 11
2.971965
 21
6.866062
 31
0.0
  0
LINE
  5
2DA
330
4E
100
AcDbEntity
 67
     1
  8
1
  6
CONTINUOUS
 62
    18
100
AcDbLine
 10
2.971965
 20
6.866062
 30
0.0
 11
2.969622
 21
6.871718
 31
0.0
  0
LINE
  5
2DB
330
4E
100
AcDbEntity
 67
     1
  8
1
  6
CONTINUOUS
 62
    18
100
AcDbLine
 10
2.969622
 20
6.871718
 30
0.0
 11
2.963966
 21
6.874061
 31
0.0
  0
LINE
  5
2DC
330
4E
100
AcDbEntity
 67
     1
  8
1
  6
CONTINUOUS
 62
    18
100
AcDbLine
 10
2.971965
 20
6.841938
 30
0.0
 11
2.973451
 21
6.837476
 31
0.0
  0
LINE
  5
2DD
330
4E
100
AcDbEntity
 67
     1
  8
1
  6
CONTINUOUS
 62
    18
100
AcDbLine
 10
2.971965
 20
6.841938
 30
0.0
 11
2.971965
 21
6.866062
 31
0.0
  0
LINE
  5
2DE
330
4E
100
AcDbEntity
 67
     1
  8
1
  6
CONTINUOUS
 62
    18
100
AcDbLine
 10
2.368809
 20
6.365061
 30
0.0
 11
3.214465
 21
6.365061
 31
0.0
  0
LINE
  5
2DF
330
4E
100
AcDbEntity
 67
     1
  8
1
  6
CONTINUOUS
 62
    18
100
AcDbLine
 10
2.366714
 20
6.366108
 30
0.0
 11
3.173953
 21
6.366108
 31
0.0
  0
LINE
  5
2E0
330
4E
100
AcDbEntity
 67
     1
  8
1
  6
CONTINUOUS
 62
    18
100
AcDbLine
 10
2.366714
 20
6.366108
 30
0.0
 11
2.368809
 21
6.365061
 31
0.0
  0
LINE
  5
2E1
330
4E
100
AcDbEntity
 67
     1
  8
1
  6
CONTINUOUS
 62
    18
100
AcDbLine
 10
3.276768
 20
6.325762
 30
0.0
 11
2.368809
 21
6.325762
 31
0.0
  0
LINE
  5
2E2
330
4E
100
AcDbEntity
 67
     1
  8
1
  6
CONTINUOUS
 62
    18
100
AcDbLine
 10
2.367412
 20
6.325064
 30
0.0
 11
2.368809
 21
6.325762
 31
0.0
  0
LINE
  5
2E3
330
4E
100
AcDbEntity
 67
     1
  8
1
  6
CONTINUOUS
 62
    18
100
AcDbLine
 10
2.367057
 20
6.33066
 30
0.0
 11
2.367308
 21
6.327794
 31
0.0
  0
LINE
  5
2E4
330
4E
100
AcDbEntity
 67
     1
  8
1
  6
CONTINUOUS
 62
    18
100
AcDbLine
 10
2.367308
 20
6.327794
 30
0.0
 11
2.367412
 21
6.320662
 31
0.0
  0
LINE
  5
2E5
330
4E
100
AcDbEntity
 67
     1
  8
1
  6
CONTINUOUS
 62
    18
100
AcDbLine
 10
2.206872
 20
6.33066
 30
0.0
 11
2.216967
 21
6.33066
 31
0.0
  0
LINE
  5
2E6
330
4E
100
AcDbEntity
 67
     1
  8
1
  6
CONTINUOUS
 62
    18
100
AcDbLine
 10
2.356963
 20
6.33066
 30
0.0
 11
2.367057
 21
6.33066
 31
0.0
  0
LINE
  5
2E7
330
4E
100
AcDbEntity
 67
     1
  8
1
  6
CONTINUOUS
 62
    18
100
AcDbLine
 10
2.206517
 20
6.320662
 30
0.0
 11
2.206622
 21
6.327794
 31
0.0
  0
LINE
  5
2E8
330
4E
100
AcDbEntity
 67
     1
  8
1
  6
CONTINUOUS
 62
    18
100
AcDbLine
 10
2.206622
 20
6.327794
 30
0.0
 11
2.206872
 21
6.33066
 31
0.0
  0
LINE
  5
2E9
330
4E
100
AcDbEntity
 67
     1
  8
1
  6
CONTINUOUS
 62
    18
100
AcDbLine
 10
2.206517
 20
6.325064
 30
0.0
 11
2.20512
 21
6.325762
 31
0.0
  0
LINE
  5
2EA
330
4E
100
AcDbEntity
 67
     1
  8
1
  6
CONTINUOUS
 62
    18
100
AcDbLine
 10
2.20512
 20
6.325762
 30
0.0
 11
1.297161
 21
6.325762
 31
0.0
  0
LINE
  5
2EB
330
4E
100
AcDbEntity
 67
     1
  8
1
  6
CONTINUOUS
 62
    18
100
AcDbLine
 10
2.20512
 20
6.365061
 30
0.0
 11
2.20512
 21
6.325762
 31
0.0
  0
LINE
  5
2EC
330
4E
100
AcDbEntity
 67
     1
  8
1
  6
CONTINUOUS
 62
    18
100
AcDbLine
 10
1.359465
 20
6.365061
 30
0.0
 11
2.20512
 21
6.365061
 31
0.0
  0
LINE
  5
2ED
330
4E
100
AcDbEntity
 67
     1
  8
1
  6
CONTINUOUS
 62
    18
100
AcDbLine
 10
2.368809
 20
6.365061
 30
0.0
 11
2.368809
 21
6.325762
 31
0.0
  0
LINE
  5
2EE
330
4E
100
AcDbEntity
 67
     1
  8
1
  6
CONTINUOUS
 62
    18
100
AcDbLine
 10
1.399976
 20
6.366108
 30
0.0
 11
2.207216
 21
6.366108
 31
0.0
  0
LINE
  5
2EF
330
4E
100
AcDbEntity
 67
     1
  8
1
  6
CONTINUOUS
 62
    18
100
AcDbLine
 10
2.20512
 20
6.365061
 30
0.0
 11
2.207216
 21
6.366108
 31
0.0
  0
LINE
  5
2F0
330
4E
100
AcDbEntity
 67
     1
  8
1
  6
CONTINUOUS
 62
    18
100
AcDbLine
 10
2.207216
 20
6.366108
 30
0.0
 11
2.207216
 21
6.420606
 31
0.0
  0
LINE
  5
2F1
330
4E
100
AcDbEntity
 67
     1
  8
1
  6
CONTINUOUS
 62
    18
100
AcDbLine
 10
2.346965
 20
6.722806
 30
0.0
 11
2.226965
 21
6.722806
 31
0.0
  0
LINE
  5
2F2
330
4E
100
AcDbEntity
 67
     1
  8
1
  6
CONTINUOUS
 62
    18
100
AcDbLine
 10
2.366714
 20
6.420606
 30
0.0
 11
2.366714
 21
6.366108
 31
0.0
  0
LINE
  5
2F3
330
4E
100
AcDbEntity
 67
     1
  8
1
  6
CONTINUOUS
 62
    18
100
AcDbLine
 10
2.209765
 20
6.360312
 30
0.0
 11
2.209867
 21
6.367383
 31
0.0
  0
LINE
  5
2F4
330
4E
100
AcDbEntity
 67
     1
  8
1
  6
CONTINUOUS
 62
    18
100
AcDbLine
 10
2.209867
 20
6.367383
 30
0.0
 11
2.210114
 21
6.370313
 31
0.0
  0
LINE
  5
2F5
330
4E
100
AcDbEntity
 67
     1
  8
1
  6
CONTINUOUS
 62
    18
100
AcDbLine
 10
2.210114
 20
6.370313
 30
0.0
 11
2.211965
 21
6.370313
 31
0.0
  0
LINE
  5
2F6
330
4E
100
AcDbEntity
 67
     1
  8
1
  6
CONTINUOUS
 62
    18
100
AcDbLine
 10
2.211965
 20
6.496091
 30
0.0
 11
2.211965
 21
6.370313
 31
0.0
  0
LINE
  5
2F7
330
4E
100
AcDbEntity
 67
     1
  8
1
  6
CONTINUOUS
 62
    18
100
AcDbLine
 10
2.210708
 20
6.495068
 30
0.0
 11
2.211965
 21
6.496091
 31
0.0
  0
LINE
  5
2F8
330
4E
100
AcDbEntity
 67
     1
  8
1
  6
CONTINUOUS
 62
    18
100
AcDbLine
 10
2.210708
 20
6.421944
 30
0.0
 11
2.210708
 21
6.495068
 31
0.0
  0
LINE
  5
2F9
330
4E
100
AcDbEntity
 67
     1
  8
1
  6
CONTINUOUS
 62
    18
100
AcDbLine
 10
2.207216
 20
6.420606
 30
0.0
 11
2.210708
 21
6.421944
 31
0.0
  0
LINE
  5
2FA
330
4E
100
AcDbEntity
 67
     1
  8
1
  6
CONTINUOUS
 62
    18
100
AcDbLine
 10
2.226965
 20
6.721061
 30
0.0
 11
2.226965
 21
6.722806
 31
0.0
  0
LINE
  5
2FB
330
4E
100
AcDbEntity
 67
     1
  8
1
  6
CONTINUOUS
 62
    18
100
AcDbLine
 10
2.363222
 20
6.421944
 30
0.0
 11
2.366714
 21
6.420606
 31
0.0
  0
LINE
  5
2FC
330
4E
100
AcDbEntity
 67
     1
  8
1
  6
CONTINUOUS
 62
    18
100
AcDbLine
 10
2.363222
 20
6.495068
 30
0.0
 11
2.363222
 21
6.421944
 31
0.0
  0
LINE
  5
2FD
330
4E
100
AcDbEntity
 67
     1
  8
1
  6
CONTINUOUS
 62
    18
100
AcDbLine
 10
2.361965
 20
6.496091
 30
0.0
 11
2.363222
 21
6.495068
 31
0.0
  0
LINE
  5
2FE
330
4E
100
AcDbEntity
 67
     1
  8
1
  6
CONTINUOUS
 62
    18
100
AcDbLine
 10
2.361965
 20
6.496091
 30
0.0
 11
2.361965
 21
6.370313
 31
0.0
  0
LINE
  5
2FF
330
4E
100
AcDbEntity
 67
     1
  8
1
  6
CONTINUOUS
 62
    18
100
AcDbLine
 10
2.361965
 20
6.370313
 30
0.0
 11
2.363816
 21
6.370313
 31
0.0
  0
LINE
  5
300
330
4E
100
AcDbEntity
 67
     1
  8
1
  6
CONTINUOUS
 62
    18
100
AcDbLine
 10
2.363816
 20
6.370313
 30
0.0
 11
2.364063
 21
6.367383
 31
0.0
  0
LINE
  5
301
330
4E
100
AcDbEntity
 67
     1
  8
1
  6
CONTINUOUS
 62
    18
100
AcDbLine
 10
2.364063
 20
6.367383
 30
0.0
 11
2.364165
 21
6.360312
 31
0.0
  0
LINE
  5
302
330
4E
100
AcDbEntity
 67
     1
  8
1
  6
CONTINUOUS
 62
    18
100
AcDbLine
 10
2.346965
 20
6.722806
 30
0.0
 11
2.346965
 21
6.721061
 31
0.0
  0
LINE
  5
303
330
4E
100
AcDbEntity
 67
     1
  8
1
  6
CONTINUOUS
 62
    18
100
AcDbLine
 10
2.346965
 20
6.721061
 30
0.0
 11
2.226965
 21
6.721061
 31
0.0
  0
LINE
  5
304
330
4E
100
AcDbEntity
 67
     1
  8
1
  6
CONTINUOUS
 62
    18
100
AcDbLine
 10
2.211965
 20
3.492083
 30
0.0
 11
2.216966
 21
3.492083
 31
0.0
  0
LINE
  5
305
330
4E
100
AcDbEntity
 67
     1
  8
1
  6
CONTINUOUS
 62
    18
100
AcDbLine
 10
2.356963
 20
3.492083
 30
0.0
 11
2.361965
 21
3.492083
 31
0.0
  0
LINE
  5
306
330
4E
100
AcDbEntity
 67
     1
  8
1
  6
CONTINUOUS
 62
    18
100
AcDbLine
 10
2.346965
 20
3.366516
 30
0.0
 11
2.226965
 21
3.366516
 31
0.0
  0
LINE
  5
307
330
4E
100
AcDbEntity
 67
     1
  8
1
  6
CONTINUOUS
 62
    18
100
AcDbLine
 10
2.346965
 20
3.365759
 30
0.0
 11
2.226965
 21
3.365759
 31
0.0
  0
LINE
  5
308
330
4E
100
AcDbEntity
 67
     1
  8
1
  6
CONTINUOUS
 62
    18
100
AcDbLine
 10
2.346965
 20
3.214362
 30
0.0
 11
2.226965
 21
3.214362
 31
0.0
  0
LINE
  5
309
330
4E
100
AcDbEntity
 67
     1
  8
1
  6
CONTINUOUS
 62
    18
100
AcDbLine
 10
2.346965
 20
3.366516
 30
0.0
 11
2.346965
 21
3.365759
 31
0.0
  0
LINE
  5
30A
330
4E
100
AcDbEntity
 67
     1
  8
1
  6
CONTINUOUS
 62
    18
100
AcDbLine
 10
2.226965
 20
3.366516
 30
0.0
 11
2.226965
 21
3.365759
 31
0.0
  0
LINE
  5
30B
330
4E
100
AcDbEntity
 67
     1
  8
1
  6
CONTINUOUS
 62
    18
100
AcDbLine
 10
2.226965
 20
3.212348
 30
0.0
 11
2.226965
 21
3.214362
 31
0.0
  0
LINE
  5
30C
330
4E
100
AcDbEntity
 67
     1
  8
1
  6
CONTINUOUS
 62
    18
100
AcDbLine
 10
2.346965
 20
3.212348
 30
0.0
 11
2.226965
 21
3.212348
 31
0.0
  0
LINE
  5
30D
330
4E
100
AcDbEntity
 67
     1
  8
1
  6
CONTINUOUS
 62
    18
100
AcDbLine
 10
2.346965
 20
3.212348
 30
0.0
 11
2.346965
 21
3.214362
 31
0.0
  0
LINE
  5
30E
330
4E
100
AcDbEntity
 67
     1
  8
1
  6
CONTINUOUS
 62
    18
100
AcDbLine
 10
0.938993
 20
7.183528
 30
0.0
 11
0.94196
 21
7.180561
 31
0.0
  0
LINE
  5
30F
330
4E
100
AcDbEntity
 67
     1
  8
1
  6
CONTINUOUS
 62
    18
100
AcDbLine
 10
0.908997
 20
7.153533
 30
0.0
 11
0.913016
 21
7.168531
 31
0.0
  0
LINE
  5
310
330
4E
100
AcDbEntity
 67
     1
  8
1
  6
CONTINUOUS
 62
    18
100
AcDbLine
 10
0.913016
 20
7.168531
 30
0.0
 11
0.923994
 21
7.17951
 31
0.0
  0
LINE
  5
311
330
4E
100
AcDbEntity
 67
     1
  8
1
  6
CONTINUOUS
 62
    18
100
AcDbLine
 10
0.923994
 20
7.17951
 30
0.0
 11
0.938993
 21
7.183528
 31
0.0
  0
LINE
  5
312
330
4E
100
AcDbEntity
 67
     1
  8
1
  6
CONTINUOUS
 62
    18
100
AcDbLine
 10
0.911965
 20
7.150565
 30
0.0
 11
0.908997
 21
7.153533
 31
0.0
  0
LINE
  5
313
330
4E
100
AcDbEntity
 67
     1
  8
1
  6
CONTINUOUS
 62
    18
100
AcDbLine
 10
0.938993
 20
7.183528
 30
0.0
 11
3.634937
 21
7.183528
 31
0.0
  0
LINE
  5
314
330
4E
100
AcDbEntity
 67
     1
  8
1
  6
CONTINUOUS
 62
    18
100
AcDbLine
 10
3.631969
 20
7.180561
 30
0.0
 11
3.634937
 21
7.183528
 31
0.0
  0
LINE
  5
315
330
4E
100
AcDbEntity
 67
     1
  8
1
  6
CONTINUOUS
 62
    18
100
AcDbLine
 10
3.664932
 20
7.153533
 30
0.0
 11
3.661965
 21
7.150565
 31
0.0
  0
LINE
  5
316
330
4E
100
AcDbEntity
 67
     1
  8
1
  6
CONTINUOUS
 62
    18
100
AcDbLine
 10
3.634937
 20
7.183528
 30
0.0
 11
3.649935
 21
7.17951
 31
0.0
  0
LINE
  5
317
330
4E
100
AcDbEntity
 67
     1
  8
1
  6
CONTINUOUS
 62
    18
100
AcDbLine
 10
3.649935
 20
7.17951
 30
0.0
 11
3.660914
 21
7.168531
 31
0.0
  0
LINE
  5
318
330
4E
100
AcDbEntity
 67
     1
  8
1
  6
CONTINUOUS
 62
    18
100
AcDbLine
 10
3.660914
 20
7.168531
 30
0.0
 11
3.664932
 21
7.153533
 31
0.0
  0
LINE
  5
319
330
4E
100
AcDbEntity
 67
     1
  8
1
  6
CONTINUOUS
 62
    18
100
AcDbLine
 10
3.664932
 20
2.707589
 30
0.0
 11
3.661965
 21
2.710556
 31
0.0
  0
LINE
  5
31A
330
4E
100
AcDbEntity
 67
     1
  8
1
  6
CONTINUOUS
 62
    18
100
AcDbLine
 10
3.664932
 20
7.153533
 30
0.0
 11
3.664932
 21
2.707589
 31
0.0
  0
LINE
  5
31B
330
4E
100
AcDbEntity
 67
     1
  8
1
  6
CONTINUOUS
 62
    18
100
AcDbLine
 10
0.908997
 20
2.707589
 30
0.0
 11
0.913016
 21
2.69259
 31
0.0
  0
LINE
  5
31C
330
4E
100
AcDbEntity
 67
     1
  8
1
  6
CONTINUOUS
 62
    18
100
AcDbLine
 10
0.913016
 20
2.69259
 30
0.0
 11
0.923994
 21
2.681612
 31
0.0
  0
LINE
  5
31D
330
4E
100
AcDbEntity
 67
     1
  8
1
  6
CONTINUOUS
 62
    18
100
AcDbLine
 10
0.923994
 20
2.681612
 30
0.0
 11
0.938993
 21
2.677593
 31
0.0
  0
LINE
  5
31E
330
4E
100
AcDbEntity
 67
     1
  8
1
  6
CONTINUOUS
 62
    18
100
AcDbLine
 10
0.908997
 20
7.153533
 30
0.0
 11
0.908997
 21
2.707589
 31
0.0
  0
LINE
  5
31F
330
4E
100
AcDbEntity
 67
     1
  8
1
  6
CONTINUOUS
 62
    18
100
AcDbLine
 10
3.634937
 20
2.677593
 30
0.0
 11
3.649935
 21
2.681612
 31
0.0
  0
LINE
  5
320
330
4E
100
AcDbEntity
 67
     1
  8
1
  6
CONTINUOUS
 62
    18
100
AcDbLine
 10
3.649935
 20
2.681612
 30
0.0
 11
3.660914
 21
2.69259
 31
0.0
  0
LINE
  5
321
330
4E
100
AcDbEntity
 67
     1
  8
1
  6
CONTINUOUS
 62
    18
100
AcDbLine
 10
3.660914
 20
2.69259
 30
0.0
 11
3.664932
 21
2.707589
 31
0.0
  0
LINE
  5
322
330
4E
100
AcDbEntity
 67
     1
  8
1
  6
CONTINUOUS
 62
    18
100
AcDbLine
 10
0.938993
 20
2.677593
 30
0.0
 11
3.634937
 21
2.677593
 31
0.0
  0
LINE
  5
323
330
4E
100
AcDbEntity
 67
     1
  8
1
  6
CONTINUOUS
 62
    18
100
AcDbLine
 10
0.911965
 20
2.710556
 30
0.0
 11
0.908997
 21
2.707589
 31
0.0
  0
LINE
  5
324
330
4E
100
AcDbEntity
 67
     1
  8
1
  6
CONTINUOUS
 62
    18
100
AcDbLine
 10
0.938993
 20
2.677593
 30
0.0
 11
0.94196
 21
2.680561
 31
0.0
  0
LINE
  5
325
330
4E
100
AcDbEntity
 67
     1
  8
1
  6
CONTINUOUS
 62
    18
100
AcDbLine
 10
3.631969
 20
2.680561
 30
0.0
 11
3.634937
 21
2.677593
 31
0.0
  0
LINE
  5
326
330
4E
100
AcDbEntity
 67
     1
  8
1
  6
CONTINUOUS
 62
    18
100
AcDbLine
 10
2.346965
 20
6.646759
 30
0.0
 11
2.226965
 21
6.646759
 31
0.0
  0
LINE
  5
327
330
4E
100
AcDbEntity
 67
     1
  8
1
  6
CONTINUOUS
 62
    18
100
AcDbLine
 10
2.346965
 20
6.495362
 30
0.0
 11
2.226965
 21
6.495362
 31
0.0
  0
LINE
  5
328
330
4E
100
AcDbEntity
 67
     1
  8
1
  6
CONTINUOUS
 62
    18
100
AcDbLine
 10
2.226965
 20
6.648773
 30
0.0
 11
2.226965
 21
6.646759
 31
0.0
  0
LINE
  5
329
330
4E
100
AcDbEntity
 67
     1
  8
1
  6
CONTINUOUS
 62
    18
100
AcDbLine
 10
2.346965
 20
6.648773
 30
0.0
 11
2.346965
 21
6.646759
 31
0.0
  0
LINE
  5
32A
330
4E
100
AcDbEntity
 67
     1
  8
1
  6
CONTINUOUS
 62
    18
100
AcDbLine
 10
2.346965
 20
6.648773
 30
0.0
 11
2.226965
 21
6.648773
 31
0.0
  0
LINE
  5
32B
330
4E
100
AcDbEntity
 67
     1
  8
1
  6
CONTINUOUS
 62
    18
100
AcDbLine
 10
2.226965
 20
6.495362
 30
0.0
 11
2.226965
 21
6.494606
 31
0.0
  0
LINE
  5
32C
330
4E
100
AcDbEntity
 67
     1
  8
1
  6
CONTINUOUS
 62
    18
100
AcDbLine
 10
2.226965
 20
6.494606
 30
0.0
 11
2.346965
 21
6.494606
 31
0.0
  0
LINE
  5
32D
330
4E
100
AcDbEntity
 67
     1
  8
1
  6
CONTINUOUS
 62
    18
100
AcDbLine
 10
2.346965
 20
6.495362
 30
0.0
 11
2.346965
 21
6.494606
 31
0.0
  0
LINE
  5
32E
330
4E
100
AcDbEntity
 67
     1
  8
1
  6
CONTINUOUS
 62
    18
100
AcDbLine
 10
2.211965
 20
6.370313
 30
0.0
 11
2.216966
 21
6.370313
 31
0.0
  0
LINE
  5
32F
330
4E
100
AcDbEntity
 67
     1
  8
1
  6
CONTINUOUS
 62
    18
100
AcDbLine
 10
2.356963
 20
6.370313
 30
0.0
 11
2.361965
 21
6.370313
 31
0.0
  0
LINE
  5
330
330
4E
100
AcDbEntity
 67
     1
  8
1
  6
CONTINUOUS
 62
    18
100
AcDbLine
 10
1.655965
 20
5.221584
 30
0.0
 11
1.656965
 21
5.251096
 31
0.0
  0
LINE
  5
331
330
4E
100
AcDbEntity
 67
     1
  8
1
  6
CONTINUOUS
 62
    18
100
AcDbLine
 10
1.656965
 20
5.251096
 30
0.0
 11
1.656965
 21
5.790733
 31
0.0
  0
LINE
  5
332
330
4E
100
AcDbEntity
 67
     1
  8
1
  6
CONTINUOUS
 62
    18
100
AcDbLine
 10
1.656065
 20
5.882164
 30
0.0
 11
1.656065
 21
5.790741
 31
0.0
  0
LINE
  5
333
330
4E
100
AcDbEntity
 67
     1
  8
1
  6
CONTINUOUS
 62
    18
100
AcDbLine
 10
1.664964
 20
5.244169
 30
0.0
 11
1.657144
 21
5.013407
 31
0.0
  0
LINE
  5
334
330
4E
100
AcDbEntity
 67
     1
  8
1
  6
CONTINUOUS
 62
    18
100
AcDbLine
 10
1.664844
 20
5.244167
 30
0.0
 11
1.664964
 21
5.244169
 31
0.0
  0
LINE
  5
335
330
4E
100
AcDbEntity
 67
     1
  8
1
  6
CONTINUOUS
 62
    18
100
AcDbLine
 10
1.656966
 20
5.25099
 30
0.0
 11
1.659303
 21
5.246067
 31
0.0
  0
LINE
  5
336
330
4E
100
AcDbEntity
 67
     1
  8
1
  6
CONTINUOUS
 62
    18
100
AcDbLine
 10
1.659303
 20
5.246067
 30
0.0
 11
1.664844
 21
5.244167
 31
0.0
  0
LINE
  5
337
330
4E
100
AcDbEntity
 67
     1
  8
1
  6
CONTINUOUS
 62
    18
100
AcDbLine
 10
1.656965
 20
5.251096
 30
0.0
 11
1.656966
 21
5.25099
 31
0.0
  0
LINE
  5
338
330
4E
100
AcDbEntity
 67
     1
  8
1
  6
CONTINUOUS
 62
    18
100
AcDbLine
 10
1.657537
 20
5.258558
 30
0.0
 11
1.881965
 21
5.258558
 31
0.0
  0
LINE
  5
339
330
4E
100
AcDbEntity
 67
     1
  8
1
  6
CONTINUOUS
 62
    18
100
AcDbLine
 10
2.056965
 20
5.258558
 30
0.0
 11
2.516965
 21
5.258558
 31
0.0
  0
LINE
  5
33A
330
4E
100
AcDbEntity
 67
     1
  8
1
  6
CONTINUOUS
 62
    18
100
AcDbLine
 10
2.691965
 20
5.258558
 30
0.0
 11
2.916392
 21
5.258558
 31
0.0
  0
LINE
  5
33B
330
4E
100
AcDbEntity
 67
     1
  8
1
  6
CONTINUOUS
 62
    18
100
AcDbLine
 10
1.659968
 20
5.892169
 30
0.0
 11
2.913961
 21
5.892169
 31
0.0
  0
LINE
  5
33C
330
4E
100
AcDbEntity
 67
     1
  8
1
  6
CONTINUOUS
 62
    18
100
AcDbLine
 10
2.916965
 20
5.251096
 30
0.0
 11
2.917965
 21
5.221584
 31
0.0
  0
LINE
  5
33D
330
4E
100
AcDbEntity
 67
     1
  8
1
  6
CONTINUOUS
 62
    18
100
AcDbLine
 10
2.917865
 20
5.790741
 30
0.0
 11
2.917865
 21
5.882164
 31
0.0
  0
LINE
  5
33E
330
4E
100
AcDbEntity
 67
     1
  8
1
  6
CONTINUOUS
 62
    18
100
AcDbLine
 10
2.916965
 20
5.251096
 30
0.0
 11
2.916965
 21
5.790733
 31
0.0
  0
LINE
  5
33F
330
4E
100
AcDbEntity
 67
     1
  8
1
  6
CONTINUOUS
 62
    18
100
AcDbLine
 10
2.916785
 20
5.013407
 30
0.0
 11
2.908966
 21
5.244169
 31
0.0
  0
LINE
  5
340
330
4E
100
AcDbEntity
 67
     1
  8
1
  6
CONTINUOUS
 62
    18
100
AcDbLine
 10
2.691965
 20
5.244169
 30
0.0
 11
2.908966
 21
5.244169
 31
0.0
  0
LINE
  5
341
330
4E
100
AcDbEntity
 67
     1
  8
1
  6
CONTINUOUS
 62
    18
100
AcDbLine
 10
2.691965
 20
5.244169
 30
0.0
 11
2.516965
 21
5.244169
 31
0.0
  0
LINE
  5
342
330
4E
100
AcDbEntity
 67
     1
  8
1
  6
CONTINUOUS
 62
    18
100
AcDbLine
 10
2.056965
 20
5.244169
 30
0.0
 11
2.516965
 21
5.244169
 31
0.0
  0
LINE
  5
343
330
4E
100
AcDbEntity
 67
     1
  8
1
  6
CONTINUOUS
 62
    18
100
AcDbLine
 10
2.056965
 20
5.244169
 30
0.0
 11
1.881965
 21
5.244169
 31
0.0
  0
LINE
  5
344
330
4E
100
AcDbEntity
 67
     1
  8
1
  6
CONTINUOUS
 62
    18
100
AcDbLine
 10
1.664964
 20
5.244169
 30
0.0
 11
1.881965
 21
5.244169
 31
0.0
  0
LINE
  5
345
330
4E
100
AcDbEntity
 67
     1
  8
1
  6
CONTINUOUS
 62
    18
100
AcDbLine
 10
2.916964
 20
5.25099
 30
0.0
 11
2.916965
 21
5.251096
 31
0.0
  0
LINE
  5
346
330
4E
100
AcDbEntity
 67
     1
  8
1
  6
CONTINUOUS
 62
    18
100
AcDbLine
 10
2.909086
 20
5.244167
 30
0.0
 11
2.914627
 21
5.246067
 31
0.0
  0
LINE
  5
347
330
4E
100
AcDbEntity
 67
     1
  8
1
  6
CONTINUOUS
 62
    18
100
AcDbLine
 10
2.914627
 20
5.246067
 30
0.0
 11
2.916964
 21
5.25099
 31
0.0
  0
LINE
  5
348
330
4E
100
AcDbEntity
 67
     1
  8
1
  6
CONTINUOUS
 62
    18
100
AcDbLine
 10
2.908966
 20
5.244169
 30
0.0
 11
2.909086
 21
5.244167
 31
0.0
  0
LINE
  5
349
330
4E
100
AcDbEntity
 67
     1
  8
1
  6
CONTINUOUS
 62
    18
100
AcDbLine
 10
1.656065
 20
5.790741
 30
0.0
 11
1.723565
 21
5.790741
 31
0.0
  0
LINE
  5
34A
330
4E
100
AcDbEntity
 67
     1
  8
1
  6
CONTINUOUS
 62
    18
100
AcDbLine
 10
1.723565
 20
5.790741
 30
0.0
 11
1.723565
 21
5.847677
 31
0.0
  0
LINE
  5
34B
330
4E
100
AcDbEntity
 67
     1
  8
1
  6
CONTINUOUS
 62
    18
100
AcDbLine
 10
1.723565
 20
5.847677
 30
0.0
 11
2.215365
 21
5.847677
 31
0.0
  0
LINE
  5
34C
330
4E
100
AcDbEntity
 67
     1
  8
1
  6
CONTINUOUS
 62
    18
100
AcDbLine
 10
2.215365
 20
5.847677
 30
0.0
 11
2.215365
 21
5.790741
 31
0.0
  0
LINE
  5
34D
330
4E
100
AcDbEntity
 67
     1
  8
1
  6
CONTINUOUS
 62
    18
100
AcDbLine
 10
2.215365
 20
5.790741
 30
0.0
 11
2.358565
 21
5.790741
 31
0.0
  0
LINE
  5
34E
330
4E
100
AcDbEntity
 67
     1
  8
1
  6
CONTINUOUS
 62
    18
100
AcDbLine
 10
2.358565
 20
5.790741
 30
0.0
 11
2.358565
 21
5.847677
 31
0.0
  0
LINE
  5
34F
330
4E
100
AcDbEntity
 67
     1
  8
1
  6
CONTINUOUS
 62
    18
100
AcDbLine
 10
2.358565
 20
5.847677
 30
0.0
 11
2.850365
 21
5.847677
 31
0.0
  0
LINE
  5
350
330
4E
100
AcDbEntity
 67
     1
  8
1
  6
CONTINUOUS
 62
    18
100
AcDbLine
 10
2.850365
 20
5.847677
 30
0.0
 11
2.850365
 21
5.790741
 31
0.0
  0
LINE
  5
351
330
4E
100
AcDbEntity
 67
     1
  8
1
  6
CONTINUOUS
 62
    18
100
AcDbLine
 10
2.850365
 20
5.790741
 30
0.0
 11
2.917865
 21
5.790741
 31
0.0
  0
LINE
  5
352
330
4E
100
AcDbEntity
 67
     1
  8
1
  6
CONTINUOUS
 62
    18
100
AcDbLine
 10
1.724465
 20
5.815745
 30
0.0
 11
1.723565
 21
5.790741
 31
0.0
  0
LINE
  5
353
330
4E
100
AcDbEntity
 67
     1
  8
1
  6
CONTINUOUS
 62
    18
100
AcDbLine
 10
1.724465
 20
5.815745
 30
0.0
 11
1.724465
 21
5.847677
 31
0.0
  0
LINE
  5
354
330
4E
100
AcDbEntity
 67
     1
  8
1
  6
CONTINUOUS
 62
    18
100
AcDbLine
 10
2.214465
 20
5.847677
 30
0.0
 11
2.214465
 21
5.815745
 31
0.0
  0
LINE
  5
355
330
4E
100
AcDbEntity
 67
     1
  8
1
  6
CONTINUOUS
 62
    18
100
AcDbLine
 10
2.215365
 20
5.790741
 30
0.0
 11
2.214465
 21
5.815745
 31
0.0
  0
LINE
  5
356
330
4E
100
AcDbEntity
 67
     1
  8
1
  6
CONTINUOUS
 62
    18
100
AcDbLine
 10
2.359465
 20
5.815745
 30
0.0
 11
2.358565
 21
5.790741
 31
0.0
  0
LINE
  5
357
330
4E
100
AcDbEntity
 67
     1
  8
1
  6
CONTINUOUS
 62
    18
100
AcDbLine
 10
2.359465
 20
5.815745
 30
0.0
 11
2.359465
 21
5.847677
 31
0.0
  0
LINE
  5
358
330
4E
100
AcDbEntity
 67
     1
  8
1
  6
CONTINUOUS
 62
    18
100
AcDbLine
 10
2.849465
 20
5.847677
 30
0.0
 11
2.849465
 21
5.815745
 31
0.0
  0
LINE
  5
359
330
4E
100
AcDbEntity
 67
     1
  8
1
  6
CONTINUOUS
 62
    18
100
AcDbLine
 10
2.850365
 20
5.790741
 30
0.0
 11
2.849465
 21
5.815745
 31
0.0
  0
LINE
  5
35A
330
4E
100
AcDbEntity
 67
     1
  8
1
  6
CONTINUOUS
 62
    18
100
AcDbLine
 10
2.056965
 20
5.244169
 30
0.0
 11
2.056965
 21
5.277687
 31
0.0
  0
LINE
  5
35B
330
4E
100
AcDbEntity
 67
     1
  8
1
  6
CONTINUOUS
 62
    18
100
AcDbLine
 10
2.056965
 20
5.308814
 30
0.0
 11
2.056965
 21
5.308495
 31
0.0
  0
LINE
  5
35C
330
4E
100
AcDbEntity
 67
     1
  8
1
  6
CONTINUOUS
 62
    18
100
AcDbLine
 10
2.056965
 20
5.308495
 30
0.0
 11
2.056965
 21
5.30756
 31
0.0
  0
LINE
  5
35D
330
4E
100
AcDbEntity
 67
     1
  8
1
  6
CONTINUOUS
 62
    18
100
AcDbLine
 10
2.056965
 20
5.30756
 30
0.0
 11
2.056965
 21
5.277687
 31
0.0
  0
LINE
  5
35E
330
4E
100
AcDbEntity
 67
     1
  8
1
  6
CONTINUOUS
 62
    18
100
AcDbLine
 10
2.056965
 20
5.277687
 30
0.0
 11
1.881965
 21
5.277687
 31
0.0
  0
LINE
  5
35F
330
4E
100
AcDbEntity
 67
     1
  8
1
  6
CONTINUOUS
 62
    18
100
AcDbLine
 10
1.881965
 20
5.244169
 30
0.0
 11
1.881965
 21
5.277687
 31
0.0
  0
LINE
  5
360
330
4E
100
AcDbEntity
 67
     1
  8
1
  6
CONTINUOUS
 62
    18
100
AcDbLine
 10
1.881965
 20
5.30756
 30
0.0
 11
1.881965
 21
5.277687
 31
0.0
  0
LINE
  5
361
330
4E
100
AcDbEntity
 67
     1
  8
1
  6
CONTINUOUS
 62
    18
100
AcDbLine
 10
1.881965
 20
5.30756
 30
0.0
 11
1.881965
 21
5.308495
 31
0.0
  0
LINE
  5
362
330
4E
100
AcDbEntity
 67
     1
  8
1
  6
CONTINUOUS
 62
    18
100
AcDbLine
 10
1.881965
 20
5.308495
 30
0.0
 11
1.881965
 21
5.308814
 31
0.0
  0
LINE
  5
363
330
4E
100
AcDbEntity
 67
     1
  8
1
  6
CONTINUOUS
 62
    18
100
AcDbLine
 10
2.056965
 20
5.30756
 30
0.0
 11
1.881965
 21
5.30756
 31
0.0
  0
LINE
  5
364
330
4E
100
AcDbEntity
 67
     1
  8
1
  6
CONTINUOUS
 62
    18
100
AcDbLine
 10
1.657537
 20
5.258558
 30
0.0
 11
1.664844
 21
5.244167
 31
0.0
  0
LINE
  5
365
330
4E
100
AcDbEntity
 67
     1
  8
1
  6
CONTINUOUS
 62
    18
100
AcDbLine
 10
2.691965
 20
5.244169
 30
0.0
 11
2.691965
 21
5.277687
 31
0.0
  0
LINE
  5
366
330
4E
100
AcDbEntity
 67
     1
  8
1
  6
CONTINUOUS
 62
    18
100
AcDbLine
 10
2.691965
 20
5.308814
 30
0.0
 11
2.691965
 21
5.308495
 31
0.0
  0
LINE
  5
367
330
4E
100
AcDbEntity
 67
     1
  8
1
  6
CONTINUOUS
 62
    18
100
AcDbLine
 10
2.691965
 20
5.308495
 30
0.0
 11
2.691965
 21
5.30756
 31
0.0
  0
LINE
  5
368
330
4E
100
AcDbEntity
 67
     1
  8
1
  6
CONTINUOUS
 62
    18
100
AcDbLine
 10
2.691965
 20
5.30756
 30
0.0
 11
2.691965
 21
5.277687
 31
0.0
  0
LINE
  5
369
330
4E
100
AcDbEntity
 67
     1
  8
1
  6
CONTINUOUS
 62
    18
100
AcDbLine
 10
2.691965
 20
5.277687
 30
0.0
 11
2.516965
 21
5.277687
 31
0.0
  0
LINE
  5
36A
330
4E
100
AcDbEntity
 67
     1
  8
1
  6
CONTINUOUS
 62
    18
100
AcDbLine
 10
2.516965
 20
5.244169
 30
0.0
 11
2.516965
 21
5.277687
 31
0.0
  0
LINE
  5
36B
330
4E
100
AcDbEntity
 67
     1
  8
1
  6
CONTINUOUS
 62
    18
100
AcDbLine
 10
2.516965
 20
5.30756
 30
0.0
 11
2.516965
 21
5.277687
 31
0.0
  0
LINE
  5
36C
330
4E
100
AcDbEntity
 67
     1
  8
1
  6
CONTINUOUS
 62
    18
100
AcDbLine
 10
2.516965
 20
5.30756
 30
0.0
 11
2.516965
 21
5.308495
 31
0.0
  0
LINE
  5
36D
330
4E
100
AcDbEntity
 67
     1
  8
1
  6
CONTINUOUS
 62
    18
100
AcDbLine
 10
2.516965
 20
5.308495
 30
0.0
 11
2.516965
 21
5.308814
 31
0.0
  0
LINE
  5
36E
330
4E
100
AcDbEntity
 67
     1
  8
1
  6
CONTINUOUS
 62
    18
100
AcDbLine
 10
2.691965
 20
5.30756
 30
0.0
 11
2.516965
 21
5.30756
 31
0.0
  0
LINE
  5
36F
330
4E
100
AcDbEntity
 67
     1
  8
1
  6
CONTINUOUS
 62
    18
100
AcDbLine
 10
2.909086
 20
5.244167
 30
0.0
 11
2.916392
 21
5.258558
 31
0.0
  0
LINE
  5
370
330
4E
100
AcDbEntity
 67
     1
  8
1
  6
CONTINUOUS
 62
    18
100
AcDbLine
 10
1.655965
 20
3.886583
 30
0.0
 11
1.656965
 21
3.916095
 31
0.0
  0
LINE
  5
371
330
4E
100
AcDbEntity
 67
     1
  8
1
  6
CONTINUOUS
 62
    18
100
AcDbLine
 10
1.656965
 20
3.916095
 30
0.0
 11
1.656965
 21
4.455732
 31
0.0
  0
LINE
  5
372
330
4E
100
AcDbEntity
 67
     1
  8
1
  6
CONTINUOUS
 62
    18
100
AcDbLine
 10
1.656065
 20
4.522039
 30
0.0
 11
1.656065
 21
4.45574
 31
0.0
  0
LINE
  5
373
330
4E
100
AcDbEntity
 67
     1
  8
1
  6
CONTINUOUS
 62
    18
100
AcDbLine
 10
1.664964
 20
3.909168
 30
0.0
 11
1.656384
 21
3.655972
 31
0.0
  0
LINE
  5
374
330
4E
100
AcDbEntity
 67
     1
  8
1
  6
CONTINUOUS
 62
    18
100
AcDbLine
 10
1.664844
 20
3.909166
 30
0.0
 11
1.664964
 21
3.909168
 31
0.0
  0
LINE
  5
375
330
4E
100
AcDbEntity
 67
     1
  8
1
  6
CONTINUOUS
 62
    18
100
AcDbLine
 10
1.656966
 20
3.915989
 30
0.0
 11
1.659303
 21
3.911065
 31
0.0
  0
LINE
  5
376
330
4E
100
AcDbEntity
 67
     1
  8
1
  6
CONTINUOUS
 62
    18
100
AcDbLine
 10
1.659303
 20
3.911065
 30
0.0
 11
1.664844
 21
3.909166
 31
0.0
  0
LINE
  5
377
330
4E
100
AcDbEntity
 67
     1
  8
1
  6
CONTINUOUS
 62
    18
100
AcDbLine
 10
1.656965
 20
3.916095
 30
0.0
 11
1.656966
 21
3.915989
 31
0.0
  0
LINE
  5
378
330
4E
100
AcDbEntity
 67
     1
  8
1
  6
CONTINUOUS
 62
    18
100
AcDbLine
 10
1.657537
 20
3.923557
 30
0.0
 11
1.881965
 21
3.923557
 31
0.0
  0
LINE
  5
379
330
4E
100
AcDbEntity
 67
     1
  8
1
  6
CONTINUOUS
 62
    18
100
AcDbLine
 10
2.056965
 20
3.923557
 30
0.0
 11
2.516965
 21
3.923557
 31
0.0
  0
LINE
  5
37A
330
4E
100
AcDbEntity
 67
     1
  8
1
  6
CONTINUOUS
 62
    18
100
AcDbLine
 10
2.691965
 20
3.923557
 30
0.0
 11
2.916392
 21
3.923557
 31
0.0
  0
LINE
  5
37B
330
4E
100
AcDbEntity
 67
     1
  8
1
  6
CONTINUOUS
 62
    18
100
AcDbLine
 10
2.914346
 20
3.648594
 30
0.0
 11
1.659584
 21
3.648594
 31
0.0
  0
LINE
  5
37C
330
4E
100
AcDbEntity
 67
     1
  8
1
  6
CONTINUOUS
 62
    18
100
AcDbLine
 10
2.916965
 20
3.916095
 30
0.0
 11
2.917965
 21
3.886583
 31
0.0
  0
LINE
  5
37D
330
4E
100
AcDbEntity
 67
     1
  8
1
  6
CONTINUOUS
 62
    18
100
AcDbLine
 10
2.917865
 20
4.45574
 30
0.0
 11
2.917865
 21
4.522039
 31
0.0
  0
LINE
  5
37E
330
4E
100
AcDbEntity
 67
     1
  8
1
  6
CONTINUOUS
 62
    18
100
AcDbLine
 10
2.916965
 20
3.916095
 30
0.0
 11
2.916965
 21
4.455732
 31
0.0
  0
LINE
  5
37F
330
4E
100
AcDbEntity
 67
     1
  8
1
  6
CONTINUOUS
 62
    18
100
AcDbLine
 10
2.917546
 20
3.655972
 30
0.0
 11
2.908966
 21
3.909168
 31
0.0
  0
LINE
  5
380
330
4E
100
AcDbEntity
 67
     1
  8
1
  6
CONTINUOUS
 62
    18
100
AcDbLine
 10
2.691965
 20
3.909168
 30
0.0
 11
2.908966
 21
3.909168
 31
0.0
  0
LINE
  5
381
330
4E
100
AcDbEntity
 67
     1
  8
1
  6
CONTINUOUS
 62
    18
100
AcDbLine
 10
2.691965
 20
3.909168
 30
0.0
 11
2.516965
 21
3.909168
 31
0.0
  0
LINE
  5
382
330
4E
100
AcDbEntity
 67
     1
  8
1
  6
CONTINUOUS
 62
    18
100
AcDbLine
 10
2.056965
 20
3.909168
 30
0.0
 11
2.516965
 21
3.909168
 31
0.0
  0
LINE
  5
383
330
4E
100
AcDbEntity
 67
     1
  8
1
  6
CONTINUOUS
 62
    18
100
AcDbLine
 10
2.056965
 20
3.909168
 30
0.0
 11
1.881965
 21
3.909168
 31
0.0
  0
LINE
  5
384
330
4E
100
AcDbEntity
 67
     1
  8
1
  6
CONTINUOUS
 62
    18
100
AcDbLine
 10
1.664964
 20
3.909168
 30
0.0
 11
1.881965
 21
3.909168
 31
0.0
  0
LINE
  5
385
330
4E
100
AcDbEntity
 67
     1
  8
1
  6
CONTINUOUS
 62
    18
100
AcDbLine
 10
2.916964
 20
3.915989
 30
0.0
 11
2.916965
 21
3.916095
 31
0.0
  0
LINE
  5
386
330
4E
100
AcDbEntity
 67
     1
  8
1
  6
CONTINUOUS
 62
    18
100
AcDbLine
 10
2.909086
 20
3.909166
 30
0.0
 11
2.914627
 21
3.911065
 31
0.0
  0
LINE
  5
387
330
4E
100
AcDbEntity
 67
     1
  8
1
  6
CONTINUOUS
 62
    18
100
AcDbLine
 10
2.914627
 20
3.911065
 30
0.0
 11
2.916964
 21
3.915989
 31
0.0
  0
LINE
  5
388
330
4E
100
AcDbEntity
 67
     1
  8
1
  6
CONTINUOUS
 62
    18
100
AcDbLine
 10
2.908966
 20
3.909168
 30
0.0
 11
2.909086
 21
3.909166
 31
0.0
  0
LINE
  5
389
330
4E
100
AcDbEntity
 67
     1
  8
1
  6
CONTINUOUS
 62
    18
100
AcDbLine
 10
1.656065
 20
4.45574
 30
0.0
 11
1.723565
 21
4.45574
 31
0.0
  0
LINE
  5
38A
330
4E
100
AcDbEntity
 67
     1
  8
1
  6
CONTINUOUS
 62
    18
100
AcDbLine
 10
1.723565
 20
4.45574
 30
0.0
 11
1.723565
 21
4.512676
 31
0.0
  0
LINE
  5
38B
330
4E
100
AcDbEntity
 67
     1
  8
1
  6
CONTINUOUS
 62
    18
100
AcDbLine
 10
1.723565
 20
4.512676
 30
0.0
 11
2.215365
 21
4.512676
 31
0.0
  0
LINE
  5
38C
330
4E
100
AcDbEntity
 67
     1
  8
1
  6
CONTINUOUS
 62
    18
100
AcDbLine
 10
2.215365
 20
4.512676
 30
0.0
 11
2.215365
 21
4.45574
 31
0.0
  0
LINE
  5
38D
330
4E
100
AcDbEntity
 67
     1
  8
1
  6
CONTINUOUS
 62
    18
100
AcDbLine
 10
2.215365
 20
4.45574
 30
0.0
 11
2.358565
 21
4.45574
 31
0.0
  0
LINE
  5
38E
330
4E
100
AcDbEntity
 67
     1
  8
1
  6
CONTINUOUS
 62
    18
100
AcDbLine
 10
2.358565
 20
4.45574
 30
0.0
 11
2.358565
 21
4.512676
 31
0.0
  0
LINE
  5
38F
330
4E
100
AcDbEntity
 67
     1
  8
1
  6
CONTINUOUS
 62
    18
100
AcDbLine
 10
2.358565
 20
4.512676
 30
0.0
 11
2.850365
 21
4.512676
 31
0.0
  0
LINE
  5
390
330
4E
100
AcDbEntity
 67
     1
  8
1
  6
CONTINUOUS
 62
    18
100
AcDbLine
 10
2.850365
 20
4.512676
 30
0.0
 11
2.850365
 21
4.45574
 31
0.0
  0
LINE
  5
391
330
4E
100
AcDbEntity
 67
     1
  8
1
  6
CONTINUOUS
 62
    18
100
AcDbLine
 10
2.850365
 20
4.45574
 30
0.0
 11
2.917865
 21
4.45574
 31
0.0
  0
LINE
  5
392
330
4E
100
AcDbEntity
 67
     1
  8
1
  6
CONTINUOUS
 62
    18
100
AcDbLine
 10
1.724465
 20
4.480744
 30
0.0
 11
1.723565
 21
4.45574
 31
0.0
  0
LINE
  5
393
330
4E
100
AcDbEntity
 67
     1
  8
1
  6
CONTINUOUS
 62
    18
100
AcDbLine
 10
1.724465
 20
4.480744
 30
0.0
 11
1.724465
 21
4.512676
 31
0.0
  0
LINE
  5
394
330
4E
100
AcDbEntity
 67
     1
  8
1
  6
CONTINUOUS
 62
    18
100
AcDbLine
 10
2.214465
 20
4.512676
 30
0.0
 11
2.214465
 21
4.480744
 31
0.0
  0
LINE
  5
395
330
4E
100
AcDbEntity
 67
     1
  8
1
  6
CONTINUOUS
 62
    18
100
AcDbLine
 10
2.215365
 20
4.45574
 30
0.0
 11
2.214465
 21
4.480744
 31
0.0
  0
LINE
  5
396
330
4E
100
AcDbEntity
 67
     1
  8
1
  6
CONTINUOUS
 62
    18
100
AcDbLine
 10
2.359465
 20
4.480744
 30
0.0
 11
2.358565
 21
4.45574
 31
0.0
  0
LINE
  5
397
330
4E
100
AcDbEntity
 67
     1
  8
1
  6
CONTINUOUS
 62
    18
100
AcDbLine
 10
2.359465
 20
4.480744
 30
0.0
 11
2.359465
 21
4.512676
 31
0.0
  0
LINE
  5
398
330
4E
100
AcDbEntity
 67
     1
  8
1
  6
CONTINUOUS
 62
    18
100
AcDbLine
 10
2.849465
 20
4.512676
 30
0.0
 11
2.849465
 21
4.480744
 31
0.0
  0
LINE
  5
399
330
4E
100
AcDbEntity
 67
     1
  8
1
  6
CONTINUOUS
 62
    18
100
AcDbLine
 10
2.850365
 20
4.45574
 30
0.0
 11
2.849465
 21
4.480744
 31
0.0
  0
LINE
  5
39A
330
4E
100
AcDbEntity
 67
     1
  8
1
  6
CONTINUOUS
 62
    18
100
AcDbLine
 10
2.056965
 20
3.909168
 30
0.0
 11
2.056965
 21
3.942686
 31
0.0
  0
LINE
  5
39B
330
4E
100
AcDbEntity
 67
     1
  8
1
  6
CONTINUOUS
 62
    18
100
AcDbLine
 10
2.056965
 20
3.973812
 30
0.0
 11
2.056965
 21
3.973494
 31
0.0
  0
LINE
  5
39C
330
4E
100
AcDbEntity
 67
     1
  8
1
  6
CONTINUOUS
 62
    18
100
AcDbLine
 10
2.056965
 20
3.973494
 30
0.0
 11
2.056965
 21
3.972558
 31
0.0
  0
LINE
  5
39D
330
4E
100
AcDbEntity
 67
     1
  8
1
  6
CONTINUOUS
 62
    18
100
AcDbLine
 10
2.056965
 20
3.972558
 30
0.0
 11
2.056965
 21
3.942686
 31
0.0
  0
LINE
  5
39E
330
4E
100
AcDbEntity
 67
     1
  8
1
  6
CONTINUOUS
 62
    18
100
AcDbLine
 10
2.056965
 20
3.942686
 30
0.0
 11
1.881965
 21
3.942686
 31
0.0
  0
LINE
  5
39F
330
4E
100
AcDbEntity
 67
     1
  8
1
  6
CONTINUOUS
 62
    18
100
AcDbLine
 10
1.881965
 20
3.909168
 30
0.0
 11
1.881965
 21
3.942686
 31
0.0
  0
LINE
  5
3A0
330
4E
100
AcDbEntity
 67
     1
  8
1
  6
CONTINUOUS
 62
    18
100
AcDbLine
 10
1.881965
 20
3.972558
 30
0.0
 11
1.881965
 21
3.942686
 31
0.0
  0
LINE
  5
3A1
330
4E
100
AcDbEntity
 67
     1
  8
1
  6
CONTINUOUS
 62
    18
100
AcDbLine
 10
1.881965
 20
3.972558
 30
0.0
 11
1.881965
 21
3.973494
 31
0.0
  0
LINE
  5
3A2
330
4E
100
AcDbEntity
 67
     1
  8
1
  6
CONTINUOUS
 62
    18
100
AcDbLine
 10
1.881965
 20
3.973494
 30
0.0
 11
1.881965
 21
3.973812
 31
0.0
  0
LINE
  5
3A3
330
4E
100
AcDbEntity
 67
     1
  8
1
  6
CONTINUOUS
 62
    18
100
AcDbLine
 10
2.056965
 20
3.972558
 30
0.0
 11
1.881965
 21
3.972558
 31
0.0
  0
LINE
  5
3A4
330
4E
100
AcDbEntity
 67
     1
  8
1
  6
CONTINUOUS
 62
    18
100
AcDbLine
 10
1.657537
 20
3.923557
 30
0.0
 11
1.664844
 21
3.909166
 31
0.0
  0
LINE
  5
3A5
330
4E
100
AcDbEntity
 67
     1
  8
1
  6
CONTINUOUS
 62
    18
100
AcDbLine
 10
2.691965
 20
3.909168
 30
0.0
 11
2.691965
 21
3.942686
 31
0.0
  0
LINE
  5
3A6
330
4E
100
AcDbEntity
 67
     1
  8
1
  6
CONTINUOUS
 62
    18
100
AcDbLine
 10
2.691965
 20
3.973812
 30
0.0
 11
2.691965
 21
3.973494
 31
0.0
  0
LINE
  5
3A7
330
4E
100
AcDbEntity
 67
     1
  8
1
  6
CONTINUOUS
 62
    18
100
AcDbLine
 10
2.691965
 20
3.973494
 30
0.0
 11
2.691965
 21
3.972558
 31
0.0
  0
LINE
  5
3A8
330
4E
100
AcDbEntity
 67
     1
  8
1
  6
CONTINUOUS
 62
    18
100
AcDbLine
 10
2.691965
 20
3.972558
 30
0.0
 11
2.691965
 21
3.942686
 31
0.0
  0
LINE
  5
3A9
330
4E
100
AcDbEntity
 67
     1
  8
1
  6
CONTINUOUS
 62
    18
100
AcDbLine
 10
2.691965
 20
3.942686
 30
0.0
 11
2.516965
 21
3.942686
 31
0.0
  0
LINE
  5
3AA
330
4E
100
AcDbEntity
 67
     1
  8
1
  6
CONTINUOUS
 62
    18
100
AcDbLine
 10
2.516965
 20
3.909168
 30
0.0
 11
2.516965
 21
3.942686
 31
0.0
  0
LINE
  5
3AB
330
4E
100
AcDbEntity
 67
     1
  8
1
  6
CONTINUOUS
 62
    18
100
AcDbLine
 10
2.516965
 20
3.972558
 30
0.0
 11
2.516965
 21
3.942686
 31
0.0
  0
LINE
  5
3AC
330
4E
100
AcDbEntity
 67
     1
  8
1
  6
CONTINUOUS
 62
    18
100
AcDbLine
 10
2.516965
 20
3.972558
 30
0.0
 11
2.516965
 21
3.973494
 31
0.0
  0
LINE
  5
3AD
330
4E
100
AcDbEntity
 67
     1
  8
1
  6
CONTINUOUS
 62
    18
100
AcDbLine
 10
2.516965
 20
3.973494
 30
0.0
 11
2.516965
 21
3.973812
 31
0.0
  0
LINE
  5
3AE
330
4E
100
AcDbEntity
 67
     1
  8
1
  6
CONTINUOUS
 62
    18
100
AcDbLine
 10
2.691965
 20
3.972558
 30
0.0
 11
2.516965
 21
3.972558
 31
0.0
  0
LINE
  5
3AF
330
4E
100
AcDbEntity
 67
     1
  8
1
  6
CONTINUOUS
 62
    18
100
AcDbLine
 10
2.909086
 20
3.909166
 30
0.0
 11
2.916392
 21
3.923557
 31
0.0
  0
LINE
  5
3B0
330
4E
100
AcDbEntity
 67
     1
  8
1
  6
CONTINUOUS
 62
    18
100
AcDbLine
 10
4.659896
 20
2.893591
 30
0.0
 11
4.659896
 21
7.022859
 31
0.0
  0
LINE
  5
3B1
330
4E
100
AcDbEntity
 67
     1
  8
1
  6
CONTINUOUS
 62
    18
100
AcDbLine
 10
4.659896
 20
2.893591
 30
0.0
 11
4.665927
 21
2.893591
 31
0.0
  0
LINE
  5
3B2
330
4E
100
AcDbEntity
 67
     1
  8
1
  6
CONTINUOUS
 62
    18
100
AcDbLine
 10
4.665927
 20
2.893591
 30
0.0
 11
4.683292
 21
2.893591
 31
0.0
  0
LINE
  5
3B3
330
4E
100
AcDbEntity
 67
     1
  8
1
  6
CONTINUOUS
 62
    18
100
AcDbLine
 10
4.683292
 20
7.022859
 30
0.0
 11
4.683292
 21
2.893591
 31
0.0
  0
LINE
  5
3B4
330
4E
100
AcDbEntity
 67
     1
  8
1
  6
CONTINUOUS
 62
    18
100
AcDbLine
 10
4.659896
 20
7.022859
 30
0.0
 11
4.665927
 21
7.022859
 31
0.0
  0
LINE
  5
3B5
330
4E
100
AcDbEntity
 67
     1
  8
1
  6
CONTINUOUS
 62
    18
100
AcDbLine
 10
4.665927
 20
7.022859
 30
0.0
 11
4.683292
 21
7.022859
 31
0.0
  0
LINE
  5
3B6
330
4E
100
AcDbEntity
 67
     1
  8
1
  6
CONTINUOUS
 62
    18
100
AcDbLine
 10
4.819896
 20
7.208225
 30
0.0
 11
4.819896
 21
7.204206
 31
0.0
  0
LINE
  5
3B7
330
4E
100
AcDbEntity
 67
     1
  8
1
  6
CONTINUOUS
 62
    18
100
AcDbLine
 10
4.819896
 20
7.204206
 30
0.0
 11
4.819896
 21
7.193224
 31
0.0
  0
LINE
  5
3B8
330
4E
100
AcDbEntity
 67
     1
  8
1
  6
CONTINUOUS
 62
    18
100
AcDbLine
 10
4.819896
 20
7.193224
 30
0.0
 11
4.819896
 21
7.178225
 31
0.0
  0
LINE
  5
3B9
330
4E
100
AcDbEntity
 67
     1
  8
1
  6
CONTINUOUS
 62
    18
100
AcDbLine
 10
4.819896
 20
2.738225
 30
0.0
 11
4.819896
 21
7.178225
 31
0.0
  0
LINE
  5
3BA
330
4E
100
AcDbEntity
 67
     1
  8
1
  6
CONTINUOUS
 62
    18
100
AcDbLine
 10
4.819896
 20
2.708225
 30
0.0
 11
4.819896
 21
2.712244
 31
0.0
  0
LINE
  5
3BB
330
4E
100
AcDbEntity
 67
     1
  8
1
  6
CONTINUOUS
 62
    18
100
AcDbLine
 10
4.819896
 20
2.712244
 30
0.0
 11
4.819896
 21
2.723225
 31
0.0
  0
LINE
  5
3BC
330
4E
100
AcDbEntity
 67
     1
  8
1
  6
CONTINUOUS
 62
    18
100
AcDbLine
 10
4.819896
 20
2.723225
 30
0.0
 11
4.819896
 21
2.738225
 31
0.0
  0
LINE
  5
3BD
330
4E
100
AcDbEntity
 67
     1
  8
1
  6
CONTINUOUS
 62
    18
100
AcDbLine
 10
4.784896
 20
7.143946
 30
0.0
 11
4.784896
 21
2.772503
 31
0.0
  0
LINE
  5
3BE
330
4E
100
AcDbEntity
 67
     1
  8
1
  6
CONTINUOUS
 62
    18
100
AcDbLine
 10
4.789219
 20
2.738225
 30
0.0
 11
4.784896
 21
2.772503
 31
0.0
  0
LINE
  5
3BF
330
4E
100
AcDbEntity
 67
     1
  8
1
  6
CONTINUOUS
 62
    18
100
AcDbLine
 10
4.819896
 20
2.738225
 30
0.0
 11
4.789219
 21
2.738225
 31
0.0
  0
LINE
  5
3C0
330
4E
100
AcDbEntity
 67
     1
  8
1
  6
CONTINUOUS
 62
    18
100
AcDbLine
 10
4.819896
 20
7.178225
 30
0.0
 11
4.789219
 21
7.178225
 31
0.0
  0
LINE
  5
3C1
330
4E
100
AcDbEntity
 67
     1
  8
1
  6
CONTINUOUS
 62
    18
100
AcDbLine
 10
4.789219
 20
7.178225
 30
0.0
 11
4.784896
 21
7.143946
 31
0.0
  0
LINE
  5
3C2
330
4E
100
AcDbEntity
 67
     1
  8
1
  6
CONTINUOUS
 62
    18
100
AcDbLine
 10
4.784896
 20
2.772503
 30
0.0
 11
4.683292
 21
2.893591
 31
0.0
  0
LINE
  5
3C3
330
4E
100
AcDbEntity
 67
     1
  8
1
  6
CONTINUOUS
 62
    18
100
AcDbLine
 10
4.784896
 20
7.143946
 30
0.0
 11
4.683292
 21
7.022859
 31
0.0
  0
LINE
  5
3C4
330
4E
100
AcDbEntity
 67
     1
  8
1
  6
CONTINUOUS
 62
    18
100
AcDbLine
 10
4.683292
 20
7.087137
 30
0.0
 11
4.784896
 21
7.208225
 31
0.0
  0
LINE
  5
3C5
330
4E
100
AcDbEntity
 67
     1
  8
1
  6
CONTINUOUS
 62
    18
100
AcDbLine
 10
4.789219
 20
7.178225
 30
0.0
 11
4.790963
 21
7.187745
 31
0.0
  0
LINE
  5
3C6
330
4E
100
AcDbEntity
 67
     1
  8
1
  6
CONTINUOUS
 62
    18
100
AcDbLine
 10
4.790963
 20
7.187745
 30
0.0
 11
4.791719
 21
7.196385
 31
0.0
  0
LINE
  5
3C7
330
4E
100
AcDbEntity
 67
     1
  8
1
  6
CONTINUOUS
 62
    18
100
AcDbLine
 10
4.791719
 20
7.196385
 30
0.0
 11
4.79165
 21
7.203096
 31
0.0
  0
LINE
  5
3C8
330
4E
100
AcDbEntity
 67
     1
  8
1
  6
CONTINUOUS
 62
    18
100
AcDbLine
 10
4.79165
 20
7.203096
 30
0.0
 11
4.79074
 21
7.20716
 31
0.0
  0
LINE
  5
3C9
330
4E
100
AcDbEntity
 67
     1
  8
1
  6
CONTINUOUS
 62
    18
100
AcDbLine
 10
4.79074
 20
7.20716
 30
0.0
 11
4.789219
 21
7.208225
 31
0.0
  0
LINE
  5
3CA
330
4E
100
AcDbEntity
 67
     1
  8
1
  6
CONTINUOUS
 62
    18
100
AcDbLine
 10
4.784896
 20
7.208225
 30
0.0
 11
4.789219
 21
7.208225
 31
0.0
  0
LINE
  5
3CB
330
4E
100
AcDbEntity
 67
     1
  8
1
  6
CONTINUOUS
 62
    18
100
AcDbLine
 10
4.683292
 20
7.022859
 30
0.0
 11
4.674957
 21
7.04742
 31
0.0
  0
LINE
  5
3CC
330
4E
100
AcDbEntity
 67
     1
  8
1
  6
CONTINUOUS
 62
    18
100
AcDbLine
 10
4.674957
 20
7.04742
 30
0.0
 11
4.674957
 21
7.06957
 31
0.0
  0
LINE
  5
3CD
330
4E
100
AcDbEntity
 67
     1
  8
1
  6
CONTINUOUS
 62
    18
100
AcDbLine
 10
4.674957
 20
7.06957
 30
0.0
 11
4.683292
 21
7.087137
 31
0.0
  0
LINE
  5
3CE
330
4E
100
AcDbEntity
 67
     1
  8
1
  6
CONTINUOUS
 62
    18
100
AcDbLine
 10
4.789219
 20
7.208225
 30
0.0
 11
4.819896
 21
7.208225
 31
0.0
  0
LINE
  5
3CF
330
4E
100
AcDbEntity
 67
     1
  8
1
  6
CONTINUOUS
 62
    18
100
AcDbLine
 10
4.683292
 20
2.829312
 30
0.0
 11
4.784896
 21
2.708225
 31
0.0
  0
LINE
  5
3D0
330
4E
100
AcDbEntity
 67
     1
  8
1
  6
CONTINUOUS
 62
    18
100
AcDbLine
 10
4.683292
 20
2.893591
 30
0.0
 11
4.674957
 21
2.86903
 31
0.0
  0
LINE
  5
3D1
330
4E
100
AcDbEntity
 67
     1
  8
1
  6
CONTINUOUS
 62
    18
100
AcDbLine
 10
4.674957
 20
2.86903
 30
0.0
 11
4.674957
 21
2.846879
 31
0.0
  0
LINE
  5
3D2
330
4E
100
AcDbEntity
 67
     1
  8
1
  6
CONTINUOUS
 62
    18
100
AcDbLine
 10
4.674957
 20
2.846879
 30
0.0
 11
4.683292
 21
2.829312
 31
0.0
  0
LINE
  5
3D3
330
4E
100
AcDbEntity
 67
     1
  8
1
  6
CONTINUOUS
 62
    18
100
AcDbLine
 10
4.784896
 20
2.708225
 30
0.0
 11
4.789219
 21
2.708225
 31
0.0
  0
LINE
  5
3D4
330
4E
100
AcDbEntity
 67
     1
  8
1
  6
CONTINUOUS
 62
    18
100
AcDbLine
 10
4.789219
 20
2.738225
 30
0.0
 11
4.790963
 21
2.728704
 31
0.0
  0
LINE
  5
3D5
330
4E
100
AcDbEntity
 67
     1
  8
1
  6
CONTINUOUS
 62
    18
100
AcDbLine
 10
4.790963
 20
2.728704
 30
0.0
 11
4.791719
 21
2.720064
 31
0.0
  0
LINE
  5
3D6
330
4E
100
AcDbEntity
 67
     1
  8
1
  6
CONTINUOUS
 62
    18
100
AcDbLine
 10
4.791719
 20
2.720064
 30
0.0
 11
4.79165
 21
2.713353
 31
0.0
  0
LINE
  5
3D7
330
4E
100
AcDbEntity
 67
     1
  8
1
  6
CONTINUOUS
 62
    18
100
AcDbLine
 10
4.79165
 20
2.713353
 30
0.0
 11
4.79074
 21
2.709289
 31
0.0
  0
LINE
  5
3D8
330
4E
100
AcDbEntity
 67
     1
  8
1
  6
CONTINUOUS
 62
    18
100
AcDbLine
 10
4.79074
 20
2.709289
 30
0.0
 11
4.789219
 21
2.708225
 31
0.0
  0
LINE
  5
3D9
330
4E
100
AcDbEntity
 67
     1
  8
1
  6
CONTINUOUS
 62
    18
100
AcDbLine
 10
4.789219
 20
2.708225
 30
0.0
 11
4.819896
 21
2.708225
 31
0.0
  0
LINE
  5
3DA
330
4E
100
AcDbEntity
 67
     1
  8
1
  6
CONTINUOUS
 62
    18
100
AcDbLine
 10
5.064242
 20
3.56429
 30
0.0
 11
4.989898
 21
3.562992
 31
0.0
  0
LINE
  5
3DB
330
4E
100
AcDbEntity
 67
     1
  8
1
  6
CONTINUOUS
 62
    18
100
AcDbLine
 10
4.989898
 20
6.353457
 30
0.0
 11
5.064242
 21
6.352159
 31
0.0
  0
LINE
  5
3DC
330
4E
100
AcDbEntity
 67
     1
  8
1
  6
CONTINUOUS
 62
    18
100
AcDbLine
 10
5.064242
 20
4.517074
 30
0.0
 11
5.064242
 21
4.717144
 31
0.0
  0
LINE
  5
3DD
330
4E
100
AcDbEntity
 67
     1
  8
1
  6
CONTINUOUS
 62
    18
100
AcDbLine
 10
5.064242
 20
5.399375
 30
0.0
 11
5.064242
 21
5.199306
 31
0.0
  0
LINE
  5
3DE
330
4E
100
AcDbEntity
 67
     1
  8
1
  6
CONTINUOUS
 62
    18
100
AcDbLine
 10
5.064242
 20
6.081164
 30
0.0
 11
4.989898
 21
6.082462
 31
0.0
  0
LINE
  5
3DF
330
4E
100
AcDbEntity
 67
     1
  8
1
  6
CONTINUOUS
 62
    18
100
AcDbLine
 10
4.989898
 20
5.398077
 30
0.0
 11
5.064242
 21
5.399375
 31
0.0
  0
LINE
  5
3E0
330
4E
100
AcDbEntity
 67
     1
  8
1
  6
CONTINUOUS
 62
    18
100
AcDbLine
 10
5.064242
 20
5.199306
 30
0.0
 11
4.989898
 21
5.200603
 31
0.0
  0
LINE
  5
3E1
330
4E
100
AcDbEntity
 67
     1
  8
1
  6
CONTINUOUS
 62
    18
100
AcDbLine
 10
4.989898
 20
4.715846
 30
0.0
 11
5.064242
 21
4.717144
 31
0.0
  0
LINE
  5
3E2
330
4E
100
AcDbEntity
 67
     1
  8
1
  6
CONTINUOUS
 62
    18
100
AcDbLine
 10
5.064242
 20
4.517074
 30
0.0
 11
4.989898
 21
4.518372
 31
0.0
  0
LINE
  5
3E3
330
4E
100
AcDbEntity
 67
     1
  8
1
  6
CONTINUOUS
 62
    18
100
AcDbLine
 10
5.064242
 20
3.835285
 30
0.0
 11
4.989898
 21
3.833987
 31
0.0
  0
LINE
  5
3E4
330
4E
100
AcDbEntity
 67
     1
  8
1
  6
CONTINUOUS
 62
    18
100
AcDbLine
 10
5.064242
 20
6.352159
 30
0.0
 11
5.064242
 21
6.081164
 31
0.0
  0
LINE
  5
3E5
330
4E
100
AcDbEntity
 67
     1
  8
1
  6
CONTINUOUS
 62
    18
100
AcDbLine
 10
5.064242
 20
3.835285
 30
0.0
 11
5.064242
 21
3.56429
 31
0.0
  0
LINE
  5
3E6
330
4E
100
AcDbEntity
 67
     1
  8
1
  6
CONTINUOUS
 62
    18
100
AcDbLine
 10
5.064242
 20
4.517074
 30
0.0
 11
5.064242
 21
3.835285
 31
0.0
  0
LINE
  5
3E7
330
4E
100
AcDbEntity
 67
     1
  8
1
  6
CONTINUOUS
 62
    18
100
AcDbLine
 10
5.064242
 20
5.199306
 30
0.0
 11
5.064242
 21
4.717144
 31
0.0
  0
LINE
  5
3E8
330
4E
100
AcDbEntity
 67
     1
  8
1
  6
CONTINUOUS
 62
    18
100
AcDbLine
 10
5.064242
 20
6.081164
 30
0.0
 11
5.064242
 21
5.399375
 31
0.0
  0
LINE
  5
3E9
330
4E
100
AcDbEntity
 67
     1
  8
1
  6
CONTINUOUS
 62
    18
100
AcDbLine
 10
4.819896
 20
7.208225
 30
0.0
 11
4.989896
 21
7.211192
 31
0.0
  0
LINE
  5
3EA
330
4E
100
AcDbEntity
 67
     1
  8
1
  6
CONTINUOUS
 62
    18
100
AcDbLine
 10
4.819896
 20
7.178229
 30
0.0
 11
4.819896
 21
7.193228
 31
0.0
  0
LINE
  5
3EB
330
4E
100
AcDbEntity
 67
     1
  8
1
  6
CONTINUOUS
 62
    18
100
AcDbLine
 10
4.819896
 20
7.193228
 30
0.0
 11
4.819896
 21
7.204206
 31
0.0
  0
LINE
  5
3EC
330
4E
100
AcDbEntity
 67
     1
  8
1
  6
CONTINUOUS
 62
    18
100
AcDbLine
 10
4.819896
 20
7.204206
 30
0.0
 11
4.819896
 21
7.208225
 31
0.0
  0
LINE
  5
3ED
330
4E
100
AcDbEntity
 67
     1
  8
1
  6
CONTINUOUS
 62
    18
100
AcDbLine
 10
4.989896
 20
7.181197
 30
0.0
 11
4.819896
 21
7.178229
 31
0.0
  0
LINE
  5
3EE
330
4E
100
AcDbEntity
 67
     1
  8
1
  6
CONTINUOUS
 62
    18
100
AcDbLine
 10
4.989896
 20
7.211192
 30
0.0
 11
4.989896
 21
7.207174
 31
0.0
  0
LINE
  5
3EF
330
4E
100
AcDbEntity
 67
     1
  8
1
  6
CONTINUOUS
 62
    18
100
AcDbLine
 10
4.989896
 20
7.207174
 30
0.0
 11
4.989896
 21
7.196195
 31
0.0
  0
LINE
  5
3F0
330
4E
100
AcDbEntity
 67
     1
  8
1
  6
CONTINUOUS
 62
    18
100
AcDbLine
 10
4.989896
 20
7.196195
 30
0.0
 11
4.989896
 21
7.181197
 31
0.0
  0
LINE
  5
3F1
330
4E
100
AcDbEntity
 67
     1
  8
1
  6
CONTINUOUS
 62
    18
100
AcDbLine
 10
4.819896
 20
2.73822
 30
0.0
 11
4.819896
 21
7.178229
 31
0.0
  0
LINE
  5
3F2
330
4E
100
AcDbEntity
 67
     1
  8
1
  6
CONTINUOUS
 62
    18
100
AcDbLine
 10
4.989896
 20
2.735253
 30
0.0
 11
4.819896
 21
2.73822
 31
0.0
  0
LINE
  5
3F3
330
4E
100
AcDbEntity
 67
     1
  8
1
  6
CONTINUOUS
 62
    18
100
AcDbLine
 10
4.989896
 20
7.181197
 30
0.0
 11
4.989896
 21
2.735253
 31
0.0
  0
LINE
  5
3F4
330
4E
100
AcDbEntity
 67
     1
  8
1
  6
CONTINUOUS
 62
    18
100
AcDbLine
 10
4.989896
 20
2.705257
 30
0.0
 11
4.989896
 21
2.709275
 31
0.0
  0
LINE
  5
3F5
330
4E
100
AcDbEntity
 67
     1
  8
1
  6
CONTINUOUS
 62
    18
100
AcDbLine
 10
4.989896
 20
2.709275
 30
0.0
 11
4.989896
 21
2.720254
 31
0.0
  0
LINE
  5
3F6
330
4E
100
AcDbEntity
 67
     1
  8
1
  6
CONTINUOUS
 62
    18
100
AcDbLine
 10
4.989896
 20
2.720254
 30
0.0
 11
4.989896
 21
2.735253
 31
0.0
  0
LINE
  5
3F7
330
4E
100
AcDbEntity
 67
     1
  8
1
  6
CONTINUOUS
 62
    18
100
AcDbLine
 10
4.819896
 20
2.73822
 30
0.0
 11
4.819896
 21
2.723222
 31
0.0
  0
LINE
  5
3F8
330
4E
100
AcDbEntity
 67
     1
  8
1
  6
CONTINUOUS
 62
    18
100
AcDbLine
 10
4.819896
 20
2.723222
 30
0.0
 11
4.819896
 21
2.712243
 31
0.0
  0
LINE
  5
3F9
330
4E
100
AcDbEntity
 67
     1
  8
1
  6
CONTINUOUS
 62
    18
100
AcDbLine
 10
4.819896
 20
2.712243
 30
0.0
 11
4.819896
 21
2.708225
 31
0.0
  0
LINE
  5
3FA
330
4E
100
AcDbEntity
 67
     1
  8
1
  6
CONTINUOUS
 62
    18
100
AcDbLine
 10
4.819896
 20
2.708225
 30
0.0
 11
4.989896
 21
2.705257
 31
0.0
  0
LINE
  5
3FB
330
4E
100
AcDbEntity
 67
     1
  8
1
  6
CONTINUOUS
 62
    18
100
AcDbLine
 10
5.064241
 20
5.125177
 30
0.0
 11
5.167166
 21
5.18223
 31
0.0
  0
LINE
  5
3FC
330
4E
100
AcDbEntity
 67
     1
  8
1
  6
CONTINUOUS
 62
    18
100
AcDbLine
 10
5.217902
 20
5.210352
 30
0.0
 11
5.313198
 21
5.267612
 31
0.0
  0
LINE
  5
3FD
330
4E
100
AcDbEntity
 67
     1
  8
1
  6
CONTINUOUS
 62
    18
100
AcDbLine
 10
5.224895
 20
5.198239
 30
0.0
 11
5.217902
 21
5.210352
 31
0.0
  0
LINE
  5
3FE
330
4E
100
AcDbEntity
 67
     1
  8
1
  6
CONTINUOUS
 62
    18
100
AcDbLine
 10
5.224895
 20
5.198239
 30
0.0
 11
5.236376
 21
5.178354
 31
0.0
  0
LINE
  5
3FF
330
4E
100
AcDbEntity
 67
     1
  8
1
  6
CONTINUOUS
 62
    18
100
AcDbLine
 10
5.236376
 20
5.178354
 30
0.0
 11
5.246109
 21
5.161497
 31
0.0
  0
LINE
  5
400
330
4E
100
AcDbEntity
 67
     1
  8
1
  6
CONTINUOUS
 62
    18
100
AcDbLine
 10
5.246109
 20
5.161497
 30
0.0
 11
5.252612
 21
5.150233
 31
0.0
  0
LINE
  5
401
330
4E
100
AcDbEntity
 67
     1
  8
1
  6
CONTINUOUS
 62
    18
100
AcDbLine
 10
5.252612
 20
5.150233
 30
0.0
 11
5.254896
 21
5.146277
 31
0.0
  0
LINE
  5
402
330
4E
100
AcDbEntity
 67
     1
  8
1
  6
CONTINUOUS
 62
    18
100
AcDbLine
 10
5.174666
 20
5.169239
 30
0.0
 11
5.167166
 21
5.18223
 31
0.0
  0
LINE
  5
403
330
4E
100
AcDbEntity
 67
     1
  8
1
  6
CONTINUOUS
 62
    18
100
AcDbLine
 10
5.174666
 20
5.169239
 30
0.0
 11
5.224895
 21
5.198239
 31
0.0
  0
LINE
  5
404
330
4E
100
AcDbEntity
 67
     1
  8
1
  6
CONTINUOUS
 62
    18
100
AcDbLine
 10
5.332596
 20
5.878501
 30
0.0
 11
5.332596
 21
5.301899
 31
0.0
  0
LINE
  5
405
330
4E
100
AcDbEntity
 67
     1
  8
1
  6
CONTINUOUS
 62
    18
100
AcDbLine
 10
5.064245
 20
5.918501
 30
0.0
 11
5.292596
 21
5.918501
 31
0.0
  0
LINE
  5
406
330
4E
100
AcDbEntity
 67
     1
  8
1
  6
CONTINUOUS
 62
    18
100
AcDbLine
 10
5.064236
 20
5.790225
 30
0.0
 11
5.219242
 21
5.790225
 31
0.0
  0
LINE
  5
407
330
4E
100
AcDbEntity
 67
     1
  8
1
  6
CONTINUOUS
 62
    18
100
AcDbLine
 10
5.150992
 20
5.730225
 30
0.0
 11
5.219242
 21
5.730225
 31
0.0
  0
LINE
  5
408
330
4E
100
AcDbEntity
 67
     1
  8
1
  6
CONTINUOUS
 62
    18
100
AcDbLine
 10
5.150992
 20
5.730225
 30
0.0
 11
5.150992
 21
5.672725
 31
0.0
  0
LINE
  5
409
330
4E
100
AcDbEntity
 67
     1
  8
1
  6
CONTINUOUS
 62
    18
100
AcDbLine
 10
5.150992
 20
5.672725
 30
0.0
 11
5.219242
 21
5.672725
 31
0.0
  0
LINE
  5
40A
330
4E
100
AcDbEntity
 67
     1
  8
1
  6
CONTINUOUS
 62
    18
100
AcDbLine
 10
5.150992
 20
5.612725
 30
0.0
 11
5.219242
 21
5.612725
 31
0.0
  0
LINE
  5
40B
330
4E
100
AcDbEntity
 67
     1
  8
1
  6
CONTINUOUS
 62
    18
100
AcDbLine
 10
5.150992
 20
5.555224
 30
0.0
 11
5.150992
 21
5.612725
 31
0.0
  0
LINE
  5
40C
330
4E
100
AcDbEntity
 67
     1
  8
1
  6
CONTINUOUS
 62
    18
100
AcDbLine
 10
5.150992
 20
5.555224
 30
0.0
 11
5.219242
 21
5.555224
 31
0.0
  0
LINE
  5
40D
330
4E
100
AcDbEntity
 67
     1
  8
1
  6
CONTINUOUS
 62
    18
100
AcDbLine
 10
5.064236
 20
5.495224
 30
0.0
 11
5.219242
 21
5.495224
 31
0.0
  0
LINE
  5
40E
330
4E
100
AcDbEntity
 67
     1
  8
1
  6
CONTINUOUS
 62
    18
100
AcDbLine
 10
5.064241
 20
5.672725
 30
0.0
 11
5.070242
 21
5.672725
 31
0.0
  0
LINE
  5
40F
330
4E
100
AcDbEntity
 67
     1
  8
1
  6
CONTINUOUS
 62
    18
100
AcDbLine
 10
5.064239
 20
5.730225
 30
0.0
 11
5.070242
 21
5.730225
 31
0.0
  0
LINE
  5
410
330
4E
100
AcDbEntity
 67
     1
  8
1
  6
CONTINUOUS
 62
    18
100
AcDbLine
 10
5.064239
 20
5.555224
 30
0.0
 11
5.070242
 21
5.555224
 31
0.0
  0
LINE
  5
411
330
4E
100
AcDbEntity
 67
     1
  8
1
  6
CONTINUOUS
 62
    18
100
AcDbLine
 10
5.064241
 20
5.612725
 30
0.0
 11
5.070242
 21
5.612725
 31
0.0
  0
LINE
  5
412
330
4E
100
AcDbEntity
 67
     1
  8
1
  6
CONTINUOUS
 62
    18
100
AcDbLine
 10
5.064241
 20
6.058674
 30
0.0
 11
5.174836
 21
6.118722
 31
0.0
  0
LINE
  5
413
330
4E
100
AcDbEntity
 67
     1
  8
1
  6
CONTINUOUS
 62
    18
100
AcDbLine
 10
5.364048
 20
6.29589
 30
0.0
 11
5.064246
 21
6.149667
 31
0.0
  0
LINE
  5
414
330
4E
100
AcDbEntity
 67
     1
  8
1
  6
CONTINUOUS
 62
    18
100
AcDbLine
 10
5.174836
 20
6.118722
 30
0.0
 11
5.186065
 21
6.119977
 31
0.0
  0
LINE
  5
415
330
4E
100
AcDbEntity
 67
     1
  8
1
  6
CONTINUOUS
 62
    18
100
AcDbLine
 10
5.186065
 20
6.119977
 30
0.0
 11
5.194984
 21
6.11304
 31
0.0
  0
LINE
  5
416
330
4E
100
AcDbEntity
 67
     1
  8
1
  6
CONTINUOUS
 62
    18
100
AcDbLine
 10
5.194984
 20
6.11304
 30
0.0
 11
5.202798
 21
6.099505
 31
0.0
  0
LINE
  5
417
330
4E
100
AcDbEntity
 67
     1
  8
1
  6
CONTINUOUS
 62
    18
100
AcDbLine
 10
5.202798
 20
6.099505
 30
0.0
 11
5.208669
 21
6.083567
 31
0.0
  0
LINE
  5
418
330
4E
100
AcDbEntity
 67
     1
  8
1
  6
CONTINUOUS
 62
    18
100
AcDbLine
 10
5.208669
 20
6.083567
 30
0.0
 11
5.208865
 21
6.066583
 31
0.0
  0
LINE
  5
419
330
4E
100
AcDbEntity
 67
     1
  8
1
  6
CONTINUOUS
 62
    18
100
AcDbLine
 10
5.208865
 20
6.066583
 30
0.0
 11
5.209836
 21
6.061315
 31
0.0
  0
LINE
  5
41A
330
4E
100
AcDbEntity
 67
     1
  8
1
  6
CONTINUOUS
 62
    18
100
AcDbLine
 10
5.209836
 20
6.061315
 30
0.0
 11
5.22466
 21
6.03564
 31
0.0
  0
LINE
  5
41B
330
4E
100
AcDbEntity
 67
     1
  8
1
  6
CONTINUOUS
 62
    18
100
AcDbLine
 10
5.22466
 20
6.03564
 30
0.0
 11
5.240152
 21
6.046488
 31
0.0
  0
LINE
  5
41C
330
4E
100
AcDbEntity
 67
     1
  8
1
  6
CONTINUOUS
 62
    18
100
AcDbLine
 10
5.240152
 20
6.046488
 30
0.0
 11
5.26471
 21
6.071045
 31
0.0
  0
LINE
  5
41D
330
4E
100
AcDbEntity
 67
     1
  8
1
  6
CONTINUOUS
 62
    18
100
AcDbLine
 10
5.26471
 20
6.071045
 30
0.0
 11
5.279387
 21
6.102521
 31
0.0
  0
LINE
  5
41E
330
4E
100
AcDbEntity
 67
     1
  8
1
  6
CONTINUOUS
 62
    18
100
AcDbLine
 10
5.29718
 20
6.168927
 30
0.0
 11
5.279387
 21
6.102521
 31
0.0
  0
LINE
  5
41F
330
4E
100
AcDbEntity
 67
     1
  8
1
  6
CONTINUOUS
 62
    18
100
AcDbLine
 10
5.29718
 20
6.168927
 30
0.0
 11
5.305987
 21
6.187812
 31
0.0
  0
LINE
  5
420
330
4E
100
AcDbEntity
 67
     1
  8
1
  6
CONTINUOUS
 62
    18
100
AcDbLine
 10
5.305987
 20
6.187812
 30
0.0
 11
5.320721
 21
6.202547
 31
0.0
  0
LINE
  5
421
330
4E
100
AcDbEntity
 67
     1
  8
1
  6
CONTINUOUS
 62
    18
100
AcDbLine
 10
5.390167
 20
6.251173
 30
0.0
 11
5.320721
 21
6.202547
 31
0.0
  0
LINE
  5
422
330
4E
100
AcDbEntity
 67
     1
  8
1
  6
CONTINUOUS
 62
    18
100
AcDbLine
 10
5.390167
 20
6.251173
 30
0.0
 11
5.396208
 21
6.260213
 31
0.0
  0
LINE
  5
423
330
4E
100
AcDbEntity
 67
     1
  8
1
  6
CONTINUOUS
 62
    18
100
AcDbLine
 10
5.396208
 20
6.260213
 30
0.0
 11
5.394554
 21
6.27096
 31
0.0
  0
LINE
  5
424
330
4E
100
AcDbEntity
 67
     1
  8
1
  6
CONTINUOUS
 62
    18
100
AcDbLine
 10
5.394554
 20
6.27096
 30
0.0
 11
5.383614
 21
6.289908
 31
0.0
  0
LINE
  5
425
330
4E
100
AcDbEntity
 67
     1
  8
1
  6
CONTINUOUS
 62
    18
100
AcDbLine
 10
5.383614
 20
6.289908
 30
0.0
 11
5.375009
 21
6.296753
 31
0.0
  0
LINE
  5
426
330
4E
100
AcDbEntity
 67
     1
  8
1
  6
CONTINUOUS
 62
    18
100
AcDbLine
 10
5.375009
 20
6.296753
 30
0.0
 11
5.364048
 21
6.29589
 31
0.0
  0
LINE
  5
427
330
4E
100
AcDbEntity
 67
     1
  8
1
  6
CONTINUOUS
 62
    18
100
AcDbLine
 10
5.070242
 20
5.78917
 30
0.0
 11
5.06424
 21
5.78917
 31
0.0
  0
LINE
  5
428
330
4E
100
AcDbEntity
 67
     1
  8
1
  6
CONTINUOUS
 62
    18
100
AcDbLine
 10
5.070242
 20
5.731279
 30
0.0
 11
5.06424
 21
5.731279
 31
0.0
  0
LINE
  5
429
330
4E
100
AcDbEntity
 67
     1
  8
1
  6
CONTINUOUS
 62
    18
100
AcDbLine
 10
5.219242
 20
5.730351
 30
0.0
 11
5.211742
 21
5.730578
 31
0.0
  0
LINE
  5
42A
330
4E
100
AcDbEntity
 67
     1
  8
1
  6
CONTINUOUS
 62
    18
100
AcDbLine
 10
5.219242
 20
5.790098
 30
0.0
 11
5.219242
 21
5.730351
 31
0.0
  0
LINE
  5
42B
330
4E
100
AcDbEntity
 67
     1
  8
1
  6
CONTINUOUS
 62
    18
100
AcDbLine
 10
5.211742
 20
5.789871
 30
0.0
 11
5.219242
 21
5.790098
 31
0.0
  0
LINE
  5
42C
330
4E
100
AcDbEntity
 67
     1
  8
1
  6
CONTINUOUS
 62
    18
100
AcDbLine
 10
5.211742
 20
5.730578
 30
0.0
 11
5.211742
 21
5.789871
 31
0.0
  0
LINE
  5
42D
330
4E
100
AcDbEntity
 67
     1
  8
1
  6
CONTINUOUS
 62
    18
100
AcDbLine
 10
5.211742
 20
5.613078
 30
0.0
 11
5.211742
 21
5.672371
 31
0.0
  0
LINE
  5
42E
330
4E
100
AcDbEntity
 67
     1
  8
1
  6
CONTINUOUS
 62
    18
100
AcDbLine
 10
5.219242
 20
5.612852
 30
0.0
 11
5.211742
 21
5.613078
 31
0.0
  0
LINE
  5
42F
330
4E
100
AcDbEntity
 67
     1
  8
1
  6
CONTINUOUS
 62
    18
100
AcDbLine
 10
5.219242
 20
5.672597
 30
0.0
 11
5.219242
 21
5.612852
 31
0.0
  0
LINE
  5
430
330
4E
100
AcDbEntity
 67
     1
  8
1
  6
CONTINUOUS
 62
    18
100
AcDbLine
 10
5.211742
 20
5.672371
 30
0.0
 11
5.219242
 21
5.672597
 31
0.0
  0
LINE
  5
431
330
4E
100
AcDbEntity
 67
     1
  8
1
  6
CONTINUOUS
 62
    18
100
AcDbLine
 10
5.070242
 20
5.496279
 30
0.0
 11
5.06424
 21
5.496279
 31
0.0
  0
LINE
  5
432
330
4E
100
AcDbEntity
 67
     1
  8
1
  6
CONTINUOUS
 62
    18
100
AcDbLine
 10
5.070242
 20
5.55417
 30
0.0
 11
5.06424
 21
5.55417
 31
0.0
  0
LINE
  5
433
330
4E
100
AcDbEntity
 67
     1
  8
1
  6
CONTINUOUS
 62
    18
100
AcDbLine
 10
5.070242
 20
5.788786
 30
0.0
 11
5.070242
 21
5.496663
 31
0.0
  0
LINE
  5
434
330
4E
100
AcDbEntity
 67
     1
  8
1
  6
CONTINUOUS
 62
    18
100
AcDbLine
 10
5.104099
 20
5.496663
 30
0.0
 11
5.070242
 21
5.496663
 31
0.0
  0
LINE
  5
435
330
4E
100
AcDbEntity
 67
     1
  8
1
  6
CONTINUOUS
 62
    18
100
AcDbLine
 10
5.104099
 20
5.788786
 30
0.0
 11
5.104099
 21
5.496663
 31
0.0
  0
LINE
  5
436
330
4E
100
AcDbEntity
 67
     1
  8
1
  6
CONTINUOUS
 62
    18
100
AcDbLine
 10
5.104099
 20
5.788786
 30
0.0
 11
5.070242
 21
5.788786
 31
0.0
  0
LINE
  5
437
330
4E
100
AcDbEntity
 67
     1
  8
1
  6
CONTINUOUS
 62
    18
100
AcDbLine
 10
5.211742
 20
5.495578
 30
0.0
 11
5.211742
 21
5.554871
 31
0.0
  0
LINE
  5
438
330
4E
100
AcDbEntity
 67
     1
  8
1
  6
CONTINUOUS
 62
    18
100
AcDbLine
 10
5.219242
 20
5.495352
 30
0.0
 11
5.211742
 21
5.495578
 31
0.0
  0
LINE
  5
439
330
4E
100
AcDbEntity
 67
     1
  8
1
  6
CONTINUOUS
 62
    18
100
AcDbLine
 10
5.219242
 20
5.555098
 30
0.0
 11
5.219242
 21
5.495352
 31
0.0
  0
LINE
  5
43A
330
4E
100
AcDbEntity
 67
     1
  8
1
  6
CONTINUOUS
 62
    18
100
AcDbLine
 10
5.211742
 20
5.554871
 30
0.0
 11
5.219242
 21
5.555098
 31
0.0
  0
LINE
  5
43B
330
4E
100
AcDbEntity
 67
     1
  8
1
  6
CONTINUOUS
 62
    18
100
AcDbLine
 10
5.150016
 20
5.7312
 30
0.0
 11
5.150016
 21
5.671749
 31
0.0
  0
LINE
  5
43C
330
4E
100
AcDbEntity
 67
     1
  8
1
  6
CONTINUOUS
 62
    18
100
AcDbLine
 10
5.211742
 20
5.730578
 30
0.0
 11
5.150016
 21
5.7312
 31
0.0
  0
LINE
  5
43D
330
4E
100
AcDbEntity
 67
     1
  8
1
  6
CONTINUOUS
 62
    18
100
AcDbLine
 10
5.211742
 20
5.789871
 30
0.0
 11
5.104099
 21
5.788786
 31
0.0
  0
LINE
  5
43E
330
4E
100
AcDbEntity
 67
     1
  8
1
  6
CONTINUOUS
 62
    18
100
AcDbLine
 10
5.211742
 20
5.495578
 30
0.0
 11
5.104099
 21
5.496663
 31
0.0
  0
LINE
  5
43F
330
4E
100
AcDbEntity
 67
     1
  8
1
  6
CONTINUOUS
 62
    18
100
AcDbLine
 10
5.211742
 20
5.554871
 30
0.0
 11
5.150016
 21
5.554249
 31
0.0
  0
LINE
  5
440
330
4E
100
AcDbEntity
 67
     1
  8
1
  6
CONTINUOUS
 62
    18
100
AcDbLine
 10
5.150016
 20
5.554249
 30
0.0
 11
5.150016
 21
5.6137
 31
0.0
  0
LINE
  5
441
330
4E
100
AcDbEntity
 67
     1
  8
1
  6
CONTINUOUS
 62
    18
100
AcDbLine
 10
5.211742
 20
5.613078
 30
0.0
 11
5.150016
 21
5.6137
 31
0.0
  0
LINE
  5
442
330
4E
100
AcDbEntity
 67
     1
  8
1
  6
CONTINUOUS
 62
    18
100
AcDbLine
 10
5.211742
 20
5.672371
 30
0.0
 11
5.150016
 21
5.671749
 31
0.0
  0
LINE
  5
443
330
4E
100
AcDbEntity
 67
     1
  8
1
  6
CONTINUOUS
 62
    18
100
AcDbLine
 10
5.070242
 20
5.613779
 30
0.0
 11
5.064241
 21
5.613779
 31
0.0
  0
LINE
  5
444
330
4E
100
AcDbEntity
 67
     1
  8
1
  6
CONTINUOUS
 62
    18
100
AcDbLine
 10
5.070242
 20
5.67167
 30
0.0
 11
5.064241
 21
5.67167
 31
0.0
  0
LINE
  5
445
330
4E
100
AcDbEntity
 67
     1
  8
1
  6
CONTINUOUS
 62
    18
100
AcDbLine
 10
5.150016
 20
5.554249
 30
0.0
 11
5.150992
 21
5.555224
 31
0.0
  0
LINE
  5
446
330
4E
100
AcDbEntity
 67
     1
  8
1
  6
CONTINUOUS
 62
    18
100
AcDbLine
 10
5.150016
 20
5.6137
 30
0.0
 11
5.150992
 21
5.612725
 31
0.0
  0
LINE
  5
447
330
4E
100
AcDbEntity
 67
     1
  8
1
  6
CONTINUOUS
 62
    18
100
AcDbLine
 10
5.219242
 20
5.612852
 30
0.0
 11
5.219242
 21
5.612725
 31
0.0
  0
LINE
  5
448
330
4E
100
AcDbEntity
 67
     1
  8
1
  6
CONTINUOUS
 62
    18
100
AcDbLine
 10
5.219242
 20
5.555098
 30
0.0
 11
5.219242
 21
5.555224
 31
0.0
  0
LINE
  5
449
330
4E
100
AcDbEntity
 67
     1
  8
1
  6
CONTINUOUS
 62
    18
100
AcDbLine
 10
5.219242
 20
5.672597
 30
0.0
 11
5.219242
 21
5.672725
 31
0.0
  0
LINE
  5
44A
330
4E
100
AcDbEntity
 67
     1
  8
1
  6
CONTINUOUS
 62
    18
100
AcDbLine
 10
5.219242
 20
5.730351
 30
0.0
 11
5.219242
 21
5.730225
 31
0.0
  0
LINE
  5
44B
330
4E
100
AcDbEntity
 67
     1
  8
1
  6
CONTINUOUS
 62
    18
100
AcDbLine
 10
5.219242
 20
5.790098
 30
0.0
 11
5.219242
 21
5.790225
 31
0.0
  0
LINE
  5
44C
330
4E
100
AcDbEntity
 67
     1
  8
1
  6
CONTINUOUS
 62
    18
100
AcDbLine
 10
5.070242
 20
5.788786
 30
0.0
 11
5.070242
 21
5.78917
 31
0.0
  0
LINE
  5
44D
330
4E
100
AcDbEntity
 67
     1
  8
1
  6
CONTINUOUS
 62
    18
100
AcDbLine
 10
5.219242
 20
5.495352
 30
0.0
 11
5.219242
 21
5.495224
 31
0.0
  0
LINE
  5
44E
330
4E
100
AcDbEntity
 67
     1
  8
1
  6
CONTINUOUS
 62
    18
100
AcDbLine
 10
5.070242
 20
5.496663
 30
0.0
 11
5.070242
 21
5.496279
 31
0.0
  0
LINE
  5
44F
330
4E
100
AcDbEntity
 67
     1
  8
1
  6
CONTINUOUS
 62
    18
100
AcDbLine
 10
5.150016
 20
5.7312
 30
0.0
 11
5.150992
 21
5.730225
 31
0.0
  0
LINE
  5
450
330
4E
100
AcDbEntity
 67
     1
  8
1
  6
CONTINUOUS
 62
    18
100
AcDbLine
 10
5.150992
 20
5.672725
 30
0.0
 11
5.150016
 21
5.671749
 31
0.0
  0
LINE
  5
451
330
4E
100
AcDbEntity
 67
     1
  8
1
  6
CONTINUOUS
 62
    18
100
AcDbLine
 10
5.254896
 20
5.146277
 30
0.0
 11
5.204666
 21
5.117278
 31
0.0
  0
LINE
  5
452
330
4E
100
AcDbEntity
 67
     1
  8
1
  6
CONTINUOUS
 62
    18
100
AcDbLine
 10
5.204666
 20
5.117278
 30
0.0
 11
5.202383
 21
5.121233
 31
0.0
  0
LINE
  5
453
330
4E
100
AcDbEntity
 67
     1
  8
1
  6
CONTINUOUS
 62
    18
100
AcDbLine
 10
5.202383
 20
5.121233
 30
0.0
 11
5.195879
 21
5.132497
 31
0.0
  0
LINE
  5
454
330
4E
100
AcDbEntity
 67
     1
  8
1
  6
CONTINUOUS
 62
    18
100
AcDbLine
 10
5.195879
 20
5.132497
 30
0.0
 11
5.186147
 21
5.149354
 31
0.0
  0
LINE
  5
455
330
4E
100
AcDbEntity
 67
     1
  8
1
  6
CONTINUOUS
 62
    18
100
AcDbLine
 10
5.186147
 20
5.149354
 30
0.0
 11
5.174666
 21
5.169239
 31
0.0
  0
LINE
  5
456
330
4E
100
AcDbEntity
 67
     1
  8
1
  6
CONTINUOUS
 62
    18
100
AcDbLine
 10
5.064241
 20
3.790176
 30
0.0
 11
5.167166
 21
3.847228
 31
0.0
  0
LINE
  5
457
330
4E
100
AcDbEntity
 67
     1
  8
1
  6
CONTINUOUS
 62
    18
100
AcDbLine
 10
5.217902
 20
3.875351
 30
0.0
 11
5.313198
 21
3.932611
 31
0.0
  0
LINE
  5
458
330
4E
100
AcDbEntity
 67
     1
  8
1
  6
CONTINUOUS
 62
    18
100
AcDbLine
 10
5.224895
 20
3.863238
 30
0.0
 11
5.217902
 21
3.875351
 31
0.0
  0
LINE
  5
459
330
4E
100
AcDbEntity
 67
     1
  8
1
  6
CONTINUOUS
 62
    18
100
AcDbLine
 10
5.224895
 20
3.863238
 30
0.0
 11
5.236376
 21
3.843353
 31
0.0
  0
LINE
  5
45A
330
4E
100
AcDbEntity
 67
     1
  8
1
  6
CONTINUOUS
 62
    18
100
AcDbLine
 10
5.236376
 20
3.843353
 30
0.0
 11
5.246109
 21
3.826495
 31
0.0
  0
LINE
  5
45B
330
4E
100
AcDbEntity
 67
     1
  8
1
  6
CONTINUOUS
 62
    18
100
AcDbLine
 10
5.246109
 20
3.826495
 30
0.0
 11
5.252612
 21
3.815232
 31
0.0
  0
LINE
  5
45C
330
4E
100
AcDbEntity
 67
     1
  8
1
  6
CONTINUOUS
 62
    18
100
AcDbLine
 10
5.252612
 20
3.815232
 30
0.0
 11
5.254896
 21
3.811276
 31
0.0
  0
LINE
  5
45D
330
4E
100
AcDbEntity
 67
     1
  8
1
  6
CONTINUOUS
 62
    18
100
AcDbLine
 10
5.174666
 20
3.834238
 30
0.0
 11
5.167166
 21
3.847228
 31
0.0
  0
LINE
  5
45E
330
4E
100
AcDbEntity
 67
     1
  8
1
  6
CONTINUOUS
 62
    18
100
AcDbLine
 10
5.174666
 20
3.834238
 30
0.0
 11
5.224895
 21
3.863238
 31
0.0
  0
LINE
  5
45F
330
4E
100
AcDbEntity
 67
     1
  8
1
  6
CONTINUOUS
 62
    18
100
AcDbLine
 10
5.332596
 20
4.5435
 30
0.0
 11
5.332596
 21
3.966898
 31
0.0
  0
LINE
  5
460
330
4E
100
AcDbEntity
 67
     1
  8
1
  6
CONTINUOUS
 62
    18
100
AcDbLine
 10
5.064245
 20
4.5835
 30
0.0
 11
5.292596
 21
4.5835
 31
0.0
  0
LINE
  5
461
330
4E
100
AcDbEntity
 67
     1
  8
1
  6
CONTINUOUS
 62
    18
100
AcDbLine
 10
5.064236
 20
4.455224
 30
0.0
 11
5.219242
 21
4.455224
 31
0.0
  0
LINE
  5
462
330
4E
100
AcDbEntity
 67
     1
  8
1
  6
CONTINUOUS
 62
    18
100
AcDbLine
 10
5.150992
 20
4.395224
 30
0.0
 11
5.219242
 21
4.395224
 31
0.0
  0
LINE
  5
463
330
4E
100
AcDbEntity
 67
     1
  8
1
  6
CONTINUOUS
 62
    18
100
AcDbLine
 10
5.150992
 20
4.395224
 30
0.0
 11
5.150992
 21
4.337723
 31
0.0
  0
LINE
  5
464
330
4E
100
AcDbEntity
 67
     1
  8
1
  6
CONTINUOUS
 62
    18
100
AcDbLine
 10
5.150992
 20
4.337723
 30
0.0
 11
5.219242
 21
4.337723
 31
0.0
  0
LINE
  5
465
330
4E
100
AcDbEntity
 67
     1
  8
1
  6
CONTINUOUS
 62
    18
100
AcDbLine
 10
5.150992
 20
4.277723
 30
0.0
 11
5.219242
 21
4.277723
 31
0.0
  0
LINE
  5
466
330
4E
100
AcDbEntity
 67
     1
  8
1
  6
CONTINUOUS
 62
    18
100
AcDbLine
 10
5.150992
 20
4.220223
 30
0.0
 11
5.150992
 21
4.277723
 31
0.0
  0
LINE
  5
467
330
4E
100
AcDbEntity
 67
     1
  8
1
  6
CONTINUOUS
 62
    18
100
AcDbLine
 10
5.150992
 20
4.220223
 30
0.0
 11
5.219242
 21
4.220223
 31
0.0
  0
LINE
  5
468
330
4E
100
AcDbEntity
 67
     1
  8
1
  6
CONTINUOUS
 62
    18
100
AcDbLine
 10
5.064236
 20
4.160223
 30
0.0
 11
5.219242
 21
4.160223
 31
0.0
  0
LINE
  5
469
330
4E
100
AcDbEntity
 67
     1
  8
1
  6
CONTINUOUS
 62
    18
100
AcDbLine
 10
5.064241
 20
4.337723
 30
0.0
 11
5.070242
 21
4.337723
 31
0.0
  0
LINE
  5
46A
330
4E
100
AcDbEntity
 67
     1
  8
1
  6
CONTINUOUS
 62
    18
100
AcDbLine
 10
5.064239
 20
4.395224
 30
0.0
 11
5.070242
 21
4.395224
 31
0.0
  0
LINE
  5
46B
330
4E
100
AcDbEntity
 67
     1
  8
1
  6
CONTINUOUS
 62
    18
100
AcDbLine
 10
5.064239
 20
4.220223
 30
0.0
 11
5.070242
 21
4.220223
 31
0.0
  0
LINE
  5
46C
330
4E
100
AcDbEntity
 67
     1
  8
1
  6
CONTINUOUS
 62
    18
100
AcDbLine
 10
5.064241
 20
4.277723
 30
0.0
 11
5.070242
 21
4.277723
 31
0.0
  0
LINE
  5
46D
330
4E
100
AcDbEntity
 67
     1
  8
1
  6
CONTINUOUS
 62
    18
100
AcDbLine
 10
5.064241
 20
4.723673
 30
0.0
 11
5.174836
 21
4.783721
 31
0.0
  0
LINE
  5
46E
330
4E
100
AcDbEntity
 67
     1
  8
1
  6
CONTINUOUS
 62
    18
100
AcDbLine
 10
5.364048
 20
4.960889
 30
0.0
 11
5.064246
 21
4.814666
 31
0.0
  0
LINE
  5
46F
330
4E
100
AcDbEntity
 67
     1
  8
1
  6
CONTINUOUS
 62
    18
100
AcDbLine
 10
5.174836
 20
4.783721
 30
0.0
 11
5.186065
 21
4.784976
 31
0.0
  0
LINE
  5
470
330
4E
100
AcDbEntity
 67
     1
  8
1
  6
CONTINUOUS
 62
    18
100
AcDbLine
 10
5.186065
 20
4.784976
 30
0.0
 11
5.194984
 21
4.778039
 31
0.0
  0
LINE
  5
471
330
4E
100
AcDbEntity
 67
     1
  8
1
  6
CONTINUOUS
 62
    18
100
AcDbLine
 10
5.194984
 20
4.778039
 30
0.0
 11
5.202798
 21
4.764504
 31
0.0
  0
LINE
  5
472
330
4E
100
AcDbEntity
 67
     1
  8
1
  6
CONTINUOUS
 62
    18
100
AcDbLine
 10
5.202798
 20
4.764504
 30
0.0
 11
5.208669
 21
4.748566
 31
0.0
  0
LINE
  5
473
330
4E
100
AcDbEntity
 67
     1
  8
1
  6
CONTINUOUS
 62
    18
100
AcDbLine
 10
5.208669
 20
4.748566
 30
0.0
 11
5.208865
 21
4.731582
 31
0.0
  0
LINE
  5
474
330
4E
100
AcDbEntity
 67
     1
  8
1
  6
CONTINUOUS
 62
    18
100
AcDbLine
 10
5.208865
 20
4.731582
 30
0.0
 11
5.209836
 21
4.726314
 31
0.0
  0
LINE
  5
475
330
4E
100
AcDbEntity
 67
     1
  8
1
  6
CONTINUOUS
 62
    18
100
AcDbLine
 10
5.209836
 20
4.726314
 30
0.0
 11
5.22466
 21
4.700639
 31
0.0
  0
LINE
  5
476
330
4E
100
AcDbEntity
 67
     1
  8
1
  6
CONTINUOUS
 62
    18
100
AcDbLine
 10
5.22466
 20
4.700639
 30
0.0
 11
5.240152
 21
4.711487
 31
0.0
  0
LINE
  5
477
330
4E
100
AcDbEntity
 67
     1
  8
1
  6
CONTINUOUS
 62
    18
100
AcDbLine
 10
5.240152
 20
4.711487
 30
0.0
 11
5.26471
 21
4.736044
 31
0.0
  0
LINE
  5
478
330
4E
100
AcDbEntity
 67
     1
  8
1
  6
CONTINUOUS
 62
    18
100
AcDbLine
 10
5.26471
 20
4.736044
 30
0.0
 11
5.279387
 21
4.76752
 31
0.0
  0
LINE
  5
479
330
4E
100
AcDbEntity
 67
     1
  8
1
  6
CONTINUOUS
 62
    18
100
AcDbLine
 10
5.29718
 20
4.833925
 30
0.0
 11
5.279387
 21
4.76752
 31
0.0
  0
LINE
  5
47A
330
4E
100
AcDbEntity
 67
     1
  8
1
  6
CONTINUOUS
 62
    18
100
AcDbLine
 10
5.29718
 20
4.833925
 30
0.0
 11
5.305987
 21
4.852811
 31
0.0
  0
LINE
  5
47B
330
4E
100
AcDbEntity
 67
     1
  8
1
  6
CONTINUOUS
 62
    18
100
AcDbLine
 10
5.305987
 20
4.852811
 30
0.0
 11
5.320721
 21
4.867546
 31
0.0
  0
LINE
  5
47C
330
4E
100
AcDbEntity
 67
     1
  8
1
  6
CONTINUOUS
 62
    18
100
AcDbLine
 10
5.390167
 20
4.916172
 30
0.0
 11
5.320721
 21
4.867546
 31
0.0
  0
LINE
  5
47D
330
4E
100
AcDbEntity
 67
     1
  8
1
  6
CONTINUOUS
 62
    18
100
AcDbLine
 10
5.390167
 20
4.916172
 30
0.0
 11
5.396208
 21
4.925212
 31
0.0
  0
LINE
  5
47E
330
4E
100
AcDbEntity
 67
     1
  8
1
  6
CONTINUOUS
 62
    18
100
AcDbLine
 10
5.396208
 20
4.925212
 30
0.0
 11
5.394554
 21
4.935959
 31
0.0
  0
LINE
  5
47F
330
4E
100
AcDbEntity
 67
     1
  8
1
  6
CONTINUOUS
 62
    18
100
AcDbLine
 10
5.394554
 20
4.935959
 30
0.0
 11
5.383614
 21
4.954907
 31
0.0
  0
LINE
  5
480
330
4E
100
AcDbEntity
 67
     1
  8
1
  6
CONTINUOUS
 62
    18
100
AcDbLine
 10
5.383614
 20
4.954907
 30
0.0
 11
5.375009
 21
4.961752
 31
0.0
  0
LINE
  5
481
330
4E
100
AcDbEntity
 67
     1
  8
1
  6
CONTINUOUS
 62
    18
100
AcDbLine
 10
5.375009
 20
4.961752
 30
0.0
 11
5.364048
 21
4.960889
 31
0.0
  0
LINE
  5
482
330
4E
100
AcDbEntity
 67
     1
  8
1
  6
CONTINUOUS
 62
    18
100
AcDbLine
 10
5.070242
 20
4.454169
 30
0.0
 11
5.06424
 21
4.454169
 31
0.0
  0
LINE
  5
483
330
4E
100
AcDbEntity
 67
     1
  8
1
  6
CONTINUOUS
 62
    18
100
AcDbLine
 10
5.070242
 20
4.396278
 30
0.0
 11
5.06424
 21
4.396278
 31
0.0
  0
LINE
  5
484
330
4E
100
AcDbEntity
 67
     1
  8
1
  6
CONTINUOUS
 62
    18
100
AcDbLine
 10
5.219242
 20
4.39535
 30
0.0
 11
5.211742
 21
4.395577
 31
0.0
  0
LINE
  5
485
330
4E
100
AcDbEntity
 67
     1
  8
1
  6
CONTINUOUS
 62
    18
100
AcDbLine
 10
5.219242
 20
4.455096
 30
0.0
 11
5.219242
 21
4.39535
 31
0.0
  0
LINE
  5
486
330
4E
100
AcDbEntity
 67
     1
  8
1
  6
CONTINUOUS
 62
    18
100
AcDbLine
 10
5.211742
 20
4.45487
 30
0.0
 11
5.219242
 21
4.455096
 31
0.0
  0
LINE
  5
487
330
4E
100
AcDbEntity
 67
     1
  8
1
  6
CONTINUOUS
 62
    18
100
AcDbLine
 10
5.211742
 20
4.395577
 30
0.0
 11
5.211742
 21
4.45487
 31
0.0
  0
LINE
  5
488
330
4E
100
AcDbEntity
 67
     1
  8
1
  6
CONTINUOUS
 62
    18
100
AcDbLine
 10
5.211742
 20
4.278077
 30
0.0
 11
5.211742
 21
4.33737
 31
0.0
  0
LINE
  5
489
330
4E
100
AcDbEntity
 67
     1
  8
1
  6
CONTINUOUS
 62
    18
100
AcDbLine
 10
5.219242
 20
4.277851
 30
0.0
 11
5.211742
 21
4.278077
 31
0.0
  0
LINE
  5
48A
330
4E
100
AcDbEntity
 67
     1
  8
1
  6
CONTINUOUS
 62
    18
100
AcDbLine
 10
5.219242
 20
4.337596
 30
0.0
 11
5.219242
 21
4.277851
 31
0.0
  0
LINE
  5
48B
330
4E
100
AcDbEntity
 67
     1
  8
1
  6
CONTINUOUS
 62
    18
100
AcDbLine
 10
5.211742
 20
4.33737
 30
0.0
 11
5.219242
 21
4.337596
 31
0.0
  0
LINE
  5
48C
330
4E
100
AcDbEntity
 67
     1
  8
1
  6
CONTINUOUS
 62
    18
100
AcDbLine
 10
5.070242
 20
4.161278
 30
0.0
 11
5.06424
 21
4.161278
 31
0.0
  0
LINE
  5
48D
330
4E
100
AcDbEntity
 67
     1
  8
1
  6
CONTINUOUS
 62
    18
100
AcDbLine
 10
5.070242
 20
4.219169
 30
0.0
 11
5.06424
 21
4.219169
 31
0.0
  0
LINE
  5
48E
330
4E
100
AcDbEntity
 67
     1
  8
1
  6
CONTINUOUS
 62
    18
100
AcDbLine
 10
5.070242
 20
4.453785
 30
0.0
 11
5.070242
 21
4.161662
 31
0.0
  0
LINE
  5
48F
330
4E
100
AcDbEntity
 67
     1
  8
1
  6
CONTINUOUS
 62
    18
100
AcDbLine
 10
5.104099
 20
4.161662
 30
0.0
 11
5.070242
 21
4.161662
 31
0.0
  0
LINE
  5
490
330
4E
100
AcDbEntity
 67
     1
  8
1
  6
CONTINUOUS
 62
    18
100
AcDbLine
 10
5.104099
 20
4.453785
 30
0.0
 11
5.104099
 21
4.161662
 31
0.0
  0
LINE
  5
491
330
4E
100
AcDbEntity
 67
     1
  8
1
  6
CONTINUOUS
 62
    18
100
AcDbLine
 10
5.104099
 20
4.453785
 30
0.0
 11
5.070242
 21
4.453785
 31
0.0
  0
LINE
  5
492
330
4E
100
AcDbEntity
 67
     1
  8
1
  6
CONTINUOUS
 62
    18
100
AcDbLine
 10
5.211742
 20
4.160577
 30
0.0
 11
5.211742
 21
4.21987
 31
0.0
  0
LINE
  5
493
330
4E
100
AcDbEntity
 67
     1
  8
1
  6
CONTINUOUS
 62
    18
100
AcDbLine
 10
5.219242
 20
4.16035
 30
0.0
 11
5.211742
 21
4.160577
 31
0.0
  0
LINE
  5
494
330
4E
100
AcDbEntity
 67
     1
  8
1
  6
CONTINUOUS
 62
    18
100
AcDbLine
 10
5.219242
 20
4.220097
 30
0.0
 11
5.219242
 21
4.16035
 31
0.0
  0
LINE
  5
495
330
4E
100
AcDbEntity
 67
     1
  8
1
  6
CONTINUOUS
 62
    18
100
AcDbLine
 10
5.211742
 20
4.21987
 30
0.0
 11
5.219242
 21
4.220097
 31
0.0
  0
LINE
  5
496
330
4E
100
AcDbEntity
 67
     1
  8
1
  6
CONTINUOUS
 62
    18
100
AcDbLine
 10
5.150016
 20
4.396199
 30
0.0
 11
5.150016
 21
4.336748
 31
0.0
  0
LINE
  5
497
330
4E
100
AcDbEntity
 67
     1
  8
1
  6
CONTINUOUS
 62
    18
100
AcDbLine
 10
5.211742
 20
4.395577
 30
0.0
 11
5.150016
 21
4.396199
 31
0.0
  0
LINE
  5
498
330
4E
100
AcDbEntity
 67
     1
  8
1
  6
CONTINUOUS
 62
    18
100
AcDbLine
 10
5.211742
 20
4.45487
 30
0.0
 11
5.104099
 21
4.453785
 31
0.0
  0
LINE
  5
499
330
4E
100
AcDbEntity
 67
     1
  8
1
  6
CONTINUOUS
 62
    18
100
AcDbLine
 10
5.211742
 20
4.160577
 30
0.0
 11
5.104099
 21
4.161662
 31
0.0
  0
LINE
  5
49A
330
4E
100
AcDbEntity
 67
     1
  8
1
  6
CONTINUOUS
 62
    18
100
AcDbLine
 10
5.211742
 20
4.21987
 30
0.0
 11
5.150016
 21
4.219248
 31
0.0
  0
LINE
  5
49B
330
4E
100
AcDbEntity
 67
     1
  8
1
  6
CONTINUOUS
 62
    18
100
AcDbLine
 10
5.150016
 20
4.219248
 30
0.0
 11
5.150016
 21
4.278699
 31
0.0
  0
LINE
  5
49C
330
4E
100
AcDbEntity
 67
     1
  8
1
  6
CONTINUOUS
 62
    18
100
AcDbLine
 10
5.211742
 20
4.278077
 30
0.0
 11
5.150016
 21
4.278699
 31
0.0
  0
LINE
  5
49D
330
4E
100
AcDbEntity
 67
     1
  8
1
  6
CONTINUOUS
 62
    18
100
AcDbLine
 10
5.211742
 20
4.33737
 30
0.0
 11
5.150016
 21
4.336748
 31
0.0
  0
LINE
  5
49E
330
4E
100
AcDbEntity
 67
     1
  8
1
  6
CONTINUOUS
 62
    18
100
AcDbLine
 10
5.070242
 20
4.278778
 30
0.0
 11
5.064241
 21
4.278778
 31
0.0
  0
LINE
  5
49F
330
4E
100
AcDbEntity
 67
     1
  8
1
  6
CONTINUOUS
 62
    18
100
AcDbLine
 10
5.070242
 20
4.336669
 30
0.0
 11
5.064241
 21
4.336669
 31
0.0
  0
LINE
  5
4A0
330
4E
100
AcDbEntity
 67
     1
  8
1
  6
CONTINUOUS
 62
    18
100
AcDbLine
 10
5.150016
 20
4.219248
 30
0.0
 11
5.150992
 21
4.220223
 31
0.0
  0
LINE
  5
4A1
330
4E
100
AcDbEntity
 67
     1
  8
1
  6
CONTINUOUS
 62
    18
100
AcDbLine
 10
5.150016
 20
4.278699
 30
0.0
 11
5.150992
 21
4.277723
 31
0.0
  0
LINE
  5
4A2
330
4E
100
AcDbEntity
 67
     1
  8
1
  6
CONTINUOUS
 62
    18
100
AcDbLine
 10
5.219242
 20
4.277851
 30
0.0
 11
5.219242
 21
4.277723
 31
0.0
  0
LINE
  5
4A3
330
4E
100
AcDbEntity
 67
     1
  8
1
  6
CONTINUOUS
 62
    18
100
AcDbLine
 10
5.219242
 20
4.220097
 30
0.0
 11
5.219242
 21
4.220223
 31
0.0
  0
LINE
  5
4A4
330
4E
100
AcDbEntity
 67
     1
  8
1
  6
CONTINUOUS
 62
    18
100
AcDbLine
 10
5.219242
 20
4.337596
 30
0.0
 11
5.219242
 21
4.337723
 31
0.0
  0
LINE
  5
4A5
330
4E
100
AcDbEntity
 67
     1
  8
1
  6
CONTINUOUS
 62
    18
100
AcDbLine
 10
5.219242
 20
4.39535
 30
0.0
 11
5.219242
 21
4.395224
 31
0.0
  0
LINE
  5
4A6
330
4E
100
AcDbEntity
 67
     1
  8
1
  6
CONTINUOUS
 62
    18
100
AcDbLine
 10
5.219242
 20
4.455096
 30
0.0
 11
5.219242
 21
4.455224
 31
0.0
  0
LINE
  5
4A7
330
4E
100
AcDbEntity
 67
     1
  8
1
  6
CONTINUOUS
 62
    18
100
AcDbLine
 10
5.070242
 20
4.453785
 30
0.0
 11
5.070242
 21
4.454169
 31
0.0
  0
LINE
  5
4A8
330
4E
100
AcDbEntity
 67
     1
  8
1
  6
CONTINUOUS
 62
    18
100
AcDbLine
 10
5.219242
 20
4.16035
 30
0.0
 11
5.219242
 21
4.160223
 31
0.0
  0
LINE
  5
4A9
330
4E
100
AcDbEntity
 67
     1
  8
1
  6
CONTINUOUS
 62
    18
100
AcDbLine
 10
5.070242
 20
4.161662
 30
0.0
 11
5.070242
 21
4.161278
 31
0.0
  0
LINE
  5
4AA
330
4E
100
AcDbEntity
 67
     1
  8
1
  6
CONTINUOUS
 62
    18
100
AcDbLine
 10
5.150016
 20
4.396199
 30
0.0
 11
5.150992
 21
4.395224
 31
0.0
  0
LINE
  5
4AB
330
4E
100
AcDbEntity
 67
     1
  8
1
  6
CONTINUOUS
 62
    18
100
AcDbLine
 10
5.150992
 20
4.337723
 30
0.0
 11
5.150016
 21
4.336748
 31
0.0
  0
LINE
  5
4AC
330
4E
100
AcDbEntity
 67
     1
  8
1
  6
CONTINUOUS
 62
    18
100
AcDbLine
 10
5.254896
 20
3.811276
 30
0.0
 11
5.204666
 21
3.782276
 31
0.0
  0
LINE
  5
4AD
330
4E
100
AcDbEntity
 67
     1
  8
1
  6
CONTINUOUS
 62
    18
100
AcDbLine
 10
5.204666
 20
3.782276
 30
0.0
 11
5.202383
 21
3.786232
 31
0.0
  0
LINE
  5
4AE
330
4E
100
AcDbEntity
 67
     1
  8
1
  6
CONTINUOUS
 62
    18
100
AcDbLine
 10
5.202383
 20
3.786232
 30
0.0
 11
5.195879
 21
3.797495
 31
0.0
  0
LINE
  5
4AF
330
4E
100
AcDbEntity
 67
     1
  8
1
  6
CONTINUOUS
 62
    18
100
AcDbLine
 10
5.195879
 20
3.797495
 30
0.0
 11
5.186147
 21
3.814353
 31
0.0
  0
LINE
  5
4B0
330
4E
100
AcDbEntity
 67
     1
  8
1
  6
CONTINUOUS
 62
    18
100
AcDbLine
 10
5.186147
 20
3.814353
 30
0.0
 11
5.174666
 21
3.834238
 31
0.0
  0
ARC
  5
4B1
330
4E
100
AcDbEntity
 67
     1
  8
1
  6
CONTINUOUS
 62
    18
100
AcDbCircle
 10
2.897965
 20
5.880168
 30
0.0
 40
0.0199999995529652
100
AcDbArc
 50
0.0
 51
90.0
  0
ARC
  5
4B2
330
4E
100
AcDbEntity
 67
     1
  8
1
  6
CONTINUOUS
 62
    18
100
AcDbCircle
 10
2.897965
 20
5.020169
 30
0.0
 40
0.0199999995529652
100
AcDbArc
 50
270.0
 51
0.0
  0
ARC
  5
4B3
330
4E
100
AcDbEntity
 67
     1
  8
1
  6
CONTINUOUS
 62
    18
100
AcDbCircle
 10
1.675965
 20
5.020169
 30
0.0
 40
0.0199999995529652
100
AcDbArc
 50
180.0
 51
270.0
  0
ARC
  5
4B4
330
4E
100
AcDbEntity
 67
     1
  8
1
  6
CONTINUOUS
 62
    18
100
AcDbCircle
 10
1.675965
 20
5.880168
 30
0.0
 40
0.0199999995529652
100
AcDbArc
 50
90.0
 51
180.0
  0
ARC
  5
4B5
330
4E
100
AcDbEntity
 67
     1
  8
1
  6
CONTINUOUS
 62
    18
100
AcDbCircle
 10
2.897965
 20
3.660043
 30
0.0
 40
0.0199999995529652
100
AcDbArc
 50
270.0
 51
0.0
  0
ARC
  5
4B6
330
4E
100
AcDbEntity
 67
     1
  8
1
  6
CONTINUOUS
 62
    18
100
AcDbCircle
 10
1.675965
 20
3.660043
 30
0.0
 40
0.0199999995529652
100
AcDbArc
 50
180.0
 51
270.0
  0
ARC
  5
4B7
330
4E
100
AcDbEntity
 67
     1
  8
1
  6
CONTINUOUS
 62
    18
100
AcDbCircle
 10
1.675965
 20
4.520043
 30
0.0
 40
0.0199999995529652
100
AcDbArc
 50
90.0
 51
180.0
  0
ARC
  5
4B8
330
4E
100
AcDbEntity
 67
     1
  8
1
  6
CONTINUOUS
 62
    18
100
AcDbCircle
 10
2.897965
 20
4.520043
 30
0.0
 40
0.0199999995529652
100
AcDbArc
 50
0.0
 51
90.0
  0
ARC
  5
4B9
330
4E
100
AcDbEntity
 67
     1
  8
1
  6
CONTINUOUS
 62
    18
100
AcDbCircle
 10
1.944465
 20
6.857061
 30
0.0
 40
0.0299999993294477
100
AcDbArc
 50
180.0
 51
270.0
  0
ARC
  5
4BA
330
4E
100
AcDbEntity
 67
     1
  8
1
  6
CONTINUOUS
 62
    18
100
AcDbCircle
 10
2.629465
 20
6.857061
 30
0.0
 40
0.0299999993294477
100
AcDbArc
 50
270.0
 51
0.0
  0
ARC
  5
4BB
330
4E
100
AcDbEntity
 67
     1
  8
1
  6
CONTINUOUS
 62
    18
100
AcDbCircle
 10
2.689465
 20
6.889998
 30
0.0
 40
0.0299999993294477
100
AcDbArc
 50
0.0
 51
180.0
  0
ARC
  5
4BC
330
4E
100
AcDbEntity
 67
     1
  8
1
  6
CONTINUOUS
 62
    18
100
AcDbCircle
 10
2.994465
 20
6.889998
 30
0.0
 40
0.0299999993294477
100
AcDbArc
 50
0.0
 51
180.0
  0
ARC
  5
4BD
330
4E
100
AcDbEntity
 67
     1
  8
1
  6
CONTINUOUS
 62
    18
100
AcDbCircle
 10
3.054465
 20
6.857061
 30
0.0
 40
0.0299999993294477
100
AcDbArc
 50
180.0
 51
270.0
  0
ARC
  5
4BE
330
4E
100
AcDbEntity
 67
     1
  8
1
  6
CONTINUOUS
 62
    18
100
AcDbCircle
 10
3.287465
 20
6.797061
 30
0.0
 40
0.0299999993294477
100
AcDbArc
 50
0.0
 51
90.0
  0
ARC
  5
4BF
330
4E
100
AcDbEntity
 67
     1
  8
1
  6
CONTINUOUS
 62
    18
100
AcDbCircle
 10
3.287465
 20
6.345061
 30
0.0
 40
0.0299999993294477
100
AcDbArc
 50
270.0
 51
0.0
  0
ARC
  5
4C0
330
4E
100
AcDbEntity
 67
     1
  8
1
  6
CONTINUOUS
 62
    18
100
AcDbCircle
 10
2.433402
 20
6.285061
 30
0.0
 40
0.0299999993294477
100
AcDbArc
 50
90.0
 51
138.189687
  0
ARC
  5
4C1
330
4E
100
AcDbEntity
 67
     1
  8
1
  6
CONTINUOUS
 62
    18
100
AcDbCircle
 10
2.38868
 20
6.325061
 30
0.0
 40
0.0299999993294477
100
AcDbArc
 50
270.0
 51
318.189687
  0
ARC
  5
4C2
330
4E
100
AcDbEntity
 67
     1
  8
1
  6
CONTINUOUS
 62
    18
100
AcDbCircle
 10
2.386965
 20
6.325061
 30
0.0
 40
0.0299999993294477
100
AcDbArc
 50
210.0
 51
270.0
  0
ARC
  5
4C3
330
4E
100
AcDbEntity
 67
     1
  8
1
  6
CONTINUOUS
 62
    18
100
AcDbCircle
 10
2.186965
 20
6.325061
 30
0.0
 40
0.0299999993294477
100
AcDbArc
 50
270.0
 51
330.0
  0
ARC
  5
4C4
330
4E
100
AcDbEntity
 67
     1
  8
1
  6
CONTINUOUS
 62
    18
100
AcDbCircle
 10
2.185249
 20
6.325061
 30
0.0
 40
0.0299999993294477
100
AcDbArc
 50
221.810313
 51
270.0
  0
ARC
  5
4C5
330
4E
100
AcDbEntity
 67
     1
  8
1
  6
CONTINUOUS
 62
    18
100
AcDbCircle
 10
2.140528
 20
6.285061
 30
0.0
 40
0.0299999993294477
100
AcDbArc
 50
41.810313
 51
90.0
  0
ARC
  5
4C6
330
4E
100
AcDbEntity
 67
     1
  8
1
  6
CONTINUOUS
 62
    18
100
AcDbCircle
 10
1.286465
 20
6.345061
 30
0.0
 40
0.0299999993294477
100
AcDbArc
 50
180.0
 51
270.0
  0
ARC
  5
4C7
330
4E
100
AcDbEntity
 67
     1
  8
1
  6
CONTINUOUS
 62
    18
100
AcDbCircle
 10
1.286465
 20
6.797061
 30
0.0
 40
0.0299999993294477
100
AcDbArc
 50
90.0
 51
180.0
  0
ARC
  5
4C8
330
4E
100
AcDbEntity
 67
     1
  8
1
  6
CONTINUOUS
 62
    18
100
AcDbCircle
 10
1.519465
 20
6.857061
 30
0.0
 40
0.0299999993294477
100
AcDbArc
 50
270.0
 51
0.0
  0
ARC
  5
4C9
330
4E
100
AcDbEntity
 67
     1
  8
1
  6
CONTINUOUS
 62
    18
100
AcDbCircle
 10
1.579465
 20
6.889998
 30
0.0
 40
0.0299999993294477
100
AcDbArc
 50
0.0
 51
180.0
  0
ARC
  5
4CA
330
4E
100
AcDbEntity
 67
     1
  8
1
  6
CONTINUOUS
 62
    18
100
AcDbCircle
 10
1.884465
 20
6.889998
 30
0.0
 40
0.0299999993294477
100
AcDbArc
 50
0.0
 51
180.0
  0
ARC
  5
4CB
330
4E
100
AcDbEntity
 67
     1
  8
1
  6
CONTINUOUS
 62
    18
100
AcDbCircle
 10
1.864465
 20
3.004061
 30
0.0
 40
0.0299999993294477
100
AcDbArc
 50
90.0
 51
180.0
  0
ARC
  5
4CC
330
4E
100
AcDbEntity
 67
     1
  8
1
  6
CONTINUOUS
 62
    18
100
AcDbCircle
 10
1.804465
 20
2.971124
 30
0.0
 40
0.0299999993294477
100
AcDbArc
 50
180.0
 51
0.0
  0
ARC
  5
4CD
330
4E
100
AcDbEntity
 67
     1
  8
1
  6
CONTINUOUS
 62
    18
100
AcDbCircle
 10
1.499465
 20
2.971124
 30
0.0
 40
0.0299999993294477
100
AcDbArc
 50
180.0
 51
0.0
  0
ARC
  5
4CE
330
4E
100
AcDbEntity
 67
     1
  8
1
  6
CONTINUOUS
 62
    18
100
AcDbCircle
 10
1.439465
 20
3.004061
 30
0.0
 40
0.0299999993294477
100
AcDbArc
 50
0.0
 51
90.0
  0
ARC
  5
4CF
330
4E
100
AcDbEntity
 67
     1
  8
1
  6
CONTINUOUS
 62
    18
100
AcDbCircle
 10
1.286465
 20
3.064061
 30
0.0
 40
0.0299999993294477
100
AcDbArc
 50
180.0
 51
270.0
  0
ARC
  5
4D0
330
4E
100
AcDbEntity
 67
     1
  8
1
  6
CONTINUOUS
 62
    18
100
AcDbCircle
 10
1.286465
 20
3.516061
 30
0.0
 40
0.0299999993294477
100
AcDbArc
 50
90.0
 51
180.0
  0
ARC
  5
4D1
330
4E
100
AcDbEntity
 67
     1
  8
1
  6
CONTINUOUS
 62
    18
100
AcDbCircle
 10
2.140528
 20
3.576061
 30
0.0
 40
0.0299999993294477
100
AcDbArc
 50
270.0
 51
318.189687
  0
ARC
  5
4D2
330
4E
100
AcDbEntity
 67
     1
  8
1
  6
CONTINUOUS
 62
    18
100
AcDbCircle
 10
2.185249
 20
3.536061
 30
0.0
 40
0.0299999993294477
100
AcDbArc
 50
90.0
 51
138.189687
  0
ARC
  5
4D3
330
4E
100
AcDbEntity
 67
     1
  8
1
  6
CONTINUOUS
 62
    18
100
AcDbCircle
 10
2.186965
 20
3.536061
 30
0.0
 40
0.0299999993294477
100
AcDbArc
 50
30.0
 51
90.0
  0
ARC
  5
4D4
330
4E
100
AcDbEntity
 67
     1
  8
1
  6
CONTINUOUS
 62
    18
100
AcDbCircle
 10
2.386965
 20
3.536061
 30
0.0
 40
0.0299999993294477
100
AcDbArc
 50
90.0
 51
150.0
  0
ARC
  5
4D5
330
4E
100
AcDbEntity
 67
     1
  8
1
  6
CONTINUOUS
 62
    18
100
AcDbCircle
 10
2.38868
 20
3.536061
 30
0.0
 40
0.0299999993294477
100
AcDbArc
 50
41.810313
 51
90.0
  0
ARC
  5
4D6
330
4E
100
AcDbEntity
 67
     1
  8
1
  6
CONTINUOUS
 62
    18
100
AcDbCircle
 10
2.433402
 20
3.576061
 30
0.0
 40
0.0299999993294477
100
AcDbArc
 50
221.810313
 51
270.0
  0
ARC
  5
4D7
330
4E
100
AcDbEntity
 67
     1
  8
1
  6
CONTINUOUS
 62
    18
100
AcDbCircle
 10
3.287465
 20
3.516061
 30
0.0
 40
0.0299999993294477
100
AcDbArc
 50
0.0
 51
90.0
  0
ARC
  5
4D8
330
4E
100
AcDbEntity
 67
     1
  8
1
  6
CONTINUOUS
 62
    18
100
AcDbCircle
 10
3.287465
 20
3.064061
 30
0.0
 40
0.0299999993294477
100
AcDbArc
 50
270.0
 51
0.0
  0
ARC
  5
4D9
330
4E
100
AcDbEntity
 67
     1
  8
1
  6
CONTINUOUS
 62
    18
100
AcDbCircle
 10
3.134465
 20
3.004061
 30
0.0
 40
0.0299999993294477
100
AcDbArc
 50
90.0
 51
180.0
  0
ARC
  5
4DA
330
4E
100
AcDbEntity
 67
     1
  8
1
  6
CONTINUOUS
 62
    18
100
AcDbCircle
 10
3.074465
 20
2.971124
 30
0.0
 40
0.0299999993294477
100
AcDbArc
 50
180.0
 51
0.0
  0
ARC
  5
4DB
330
4E
100
AcDbEntity
 67
     1
  8
1
  6
CONTINUOUS
 62
    18
100
AcDbCircle
 10
2.769465
 20
2.971124
 30
0.0
 40
0.0299999993294477
100
AcDbArc
 50
180.0
 51
0.0
  0
ARC
  5
4DC
330
4E
100
AcDbEntity
 67
     1
  8
1
  6
CONTINUOUS
 62
    18
100
AcDbCircle
 10
2.709465
 20
3.004061
 30
0.0
 40
0.0299999993294477
100
AcDbArc
 50
0.0
 51
90.0
  0
ARC
  5
4DD
330
4E
100
AcDbEntity
 67
     1
  8
1
  6
CONTINUOUS
 62
    18
100
AcDbCircle
 10
2.246965
 20
6.462061
 30
0.0
 40
0.0299999993294477
100
AcDbArc
 50
90.0
 51
180.0
  0
ARC
  5
4DE
330
4E
100
AcDbEntity
 67
     1
  8
1
  6
CONTINUOUS
 62
    18
100
AcDbCircle
 10
2.326965
 20
6.462061
 30
0.0
 40
0.0299999993294477
100
AcDbArc
 50
0.0
 51
90.0
  0
ARC
  5
4DF
330
4E
100
AcDbEntity
 67
     1
  8
1
  6
CONTINUOUS
 62
    18
100
AcDbCircle
 10
2.326965
 20
3.399061
 30
0.0
 40
0.0299999993294477
100
AcDbArc
 50
270.0
 51
0.0
  0
ARC
  5
4E0
330
4E
100
AcDbEntity
 67
     1
  8
1
  6
CONTINUOUS
 62
    18
100
AcDbCircle
 10
2.246965
 20
3.399061
 30
0.0
 40
0.0299999993294477
100
AcDbArc
 50
180.0
 51
270.0
  0
ARC
  5
4E1
330
4E
100
AcDbEntity
 67
     1
  8
1
  6
CONTINUOUS
 62
    18
100
AcDbCircle
 10
1.391465
 20
3.494561
 30
0.0
 40
0.0085236523300409
100
AcDbArc
 50
0.0
 51
3.044444
  0
ARC
  5
4E2
330
4E
100
AcDbEntity
 67
     1
  8
1
  6
CONTINUOUS
 62
    18
100
AcDbCircle
 10
1.391465
 20
3.085561
 30
0.0
 40
0.0085236523300409
100
AcDbArc
 50
356.955556
 51
0.0
  0
ARC
  5
4E3
330
4E
100
AcDbEntity
 67
     1
  8
1
  6
CONTINUOUS
 62
    18
100
AcDbCircle
 10
3.182465
 20
3.085561
 30
0.0
 40
0.0085236523300409
100
AcDbArc
 50
180.0
 51
183.044444
  0
ARC
  5
4E4
330
4E
100
AcDbEntity
 67
     1
  8
1
  6
CONTINUOUS
 62
    18
100
AcDbCircle
 10
2.346965
 20
3.290061
 30
0.0
 40
0.1517455130815506
100
AcDbArc
 50
270.0
 51
82.521912
  0
ARC
  5
4E5
330
4E
100
AcDbEntity
 67
     1
  8
1
  6
CONTINUOUS
 62
    18
100
AcDbCircle
 10
2.226965
 20
3.290061
 30
0.0
 40
0.1517455130815506
100
AcDbArc
 50
97.478088
 51
270.0
  0
ARC
  5
4E6
330
4E
100
AcDbEntity
 67
     1
  8
1
  6
CONTINUOUS
 62
    18
100
AcDbCircle
 10
1.359465
 20
3.094061
 30
0.0
 40
0.0099999997764826
100
AcDbArc
 50
180.0
 51
270.0
  0
ARC
  5
4E7
330
4E
100
AcDbEntity
 67
     1
  8
1
  6
CONTINUOUS
 62
    18
100
AcDbCircle
 10
1.359465
 20
3.094061
 30
0.0
 40
0.0094763478264213
100
AcDbArc
 50
180.0
 51
270.0
  0
ARC
  5
4E8
330
4E
100
AcDbEntity
 67
     1
  8
1
  6
CONTINUOUS
 62
    18
100
AcDbCircle
 10
3.214465
 20
3.094061
 30
0.0
 40
0.0099999997764826
100
AcDbArc
 50
270.0
 51
0.0
  0
ARC
  5
4E9
330
4E
100
AcDbEntity
 67
     1
  8
1
  6
CONTINUOUS
 62
    18
100
AcDbCircle
 10
3.214465
 20
3.094061
 30
0.0
 40
0.0094763478264213
100
AcDbArc
 50
270.0
 51
0.0
  0
ARC
  5
4EA
330
4E
100
AcDbEntity
 67
     1
  8
1
  6
CONTINUOUS
 62
    18
100
AcDbCircle
 10
2.346965
 20
3.290061
 30
0.0
 40
0.1500000059604645
100
AcDbArc
 50
270.0
 51
83.778005
  0
ARC
  5
4EB
330
4E
100
AcDbEntity
 67
     1
  8
1
  6
CONTINUOUS
 62
    18
100
AcDbCircle
 10
2.226965
 20
3.290061
 30
0.0
 40
0.1500000059604645
100
AcDbArc
 50
96.221995
 51
270.0
  0
ARC
  5
4EC
330
4E
100
AcDbEntity
 67
     1
  8
1
  6
CONTINUOUS
 62
    18
100
AcDbCircle
 10
3.214465
 20
3.486061
 30
0.0
 40
0.0099999997764826
100
AcDbArc
 50
0.0
 51
90.0
  0
ARC
  5
4ED
330
4E
100
AcDbEntity
 67
     1
  8
1
  6
CONTINUOUS
 62
    18
100
AcDbCircle
 10
3.214465
 20
3.486061
 30
0.0
 40
0.0094763478264213
100
AcDbArc
 50
0.0
 51
90.0
  0
ARC
  5
4EE
330
4E
100
AcDbEntity
 67
     1
  8
1
  6
CONTINUOUS
 62
    18
100
AcDbCircle
 10
1.359465
 20
3.486061
 30
0.0
 40
0.0094763478264213
100
AcDbArc
 50
90.0
 51
180.0
  0
ARC
  5
4EF
330
4E
100
AcDbEntity
 67
     1
  8
1
  6
CONTINUOUS
 62
    18
100
AcDbCircle
 10
1.359465
 20
3.486061
 30
0.0
 40
0.0099999997764826
100
AcDbArc
 50
90.0
 51
180.0
  0
ARC
  5
4F0
330
4E
100
AcDbEntity
 67
     1
  8
1
  6
CONTINUOUS
 62
    18
100
AcDbCircle
 10
3.214465
 20
6.375061
 30
0.0
 40
0.0094763478264213
100
AcDbArc
 50
270.0
 51
0.0
  0
ARC
  5
4F1
330
4E
100
AcDbEntity
 67
     1
  8
1
  6
CONTINUOUS
 62
    18
100
AcDbCircle
 10
3.214465
 20
6.767061
 30
0.0
 40
0.0094763478264213
100
AcDbArc
 50
0.0
 51
90.0
  0
ARC
  5
4F2
330
4E
100
AcDbEntity
 67
     1
  8
1
  6
CONTINUOUS
 62
    18
100
AcDbCircle
 10
3.214465
 20
6.375061
 30
0.0
 40
0.0099999997764826
100
AcDbArc
 50
270.0
 51
0.0
  0
ARC
  5
4F3
330
4E
100
AcDbEntity
 67
     1
  8
1
  6
CONTINUOUS
 62
    18
100
AcDbCircle
 10
3.214465
 20
6.767061
 30
0.0
 40
0.0099999997764826
100
AcDbArc
 50
0.0
 51
90.0
  0
ARC
  5
4F4
330
4E
100
AcDbEntity
 67
     1
  8
1
  6
CONTINUOUS
 62
    18
100
AcDbCircle
 10
1.359465
 20
6.767061
 30
0.0
 40
0.0094763478264213
100
AcDbArc
 50
90.0
 51
180.0
  0
ARC
  5
4F5
330
4E
100
AcDbEntity
 67
     1
  8
1
  6
CONTINUOUS
 62
    18
100
AcDbCircle
 10
1.359465
 20
6.767061
 30
0.0
 40
0.0099999997764826
100
AcDbArc
 50
90.0
 51
180.0
  0
ARC
  5
4F6
330
4E
100
AcDbEntity
 67
     1
  8
1
  6
CONTINUOUS
 62
    18
100
AcDbCircle
 10
1.359465
 20
6.375061
 30
0.0
 40
0.0094763478264213
100
AcDbArc
 50
180.0
 51
270.0
  0
ARC
  5
4F7
330
4E
100
AcDbEntity
 67
     1
  8
1
  6
CONTINUOUS
 62
    18
100
AcDbCircle
 10
1.359465
 20
6.375061
 30
0.0
 40
0.0099999997764826
100
AcDbArc
 50
180.0
 51
270.0
  0
ARC
  5
4F8
330
4E
100
AcDbEntity
 67
     1
  8
1
  6
CONTINUOUS
 62
    18
100
AcDbCircle
 10
3.182465
 20
6.366561
 30
0.0
 40
0.0085236523300409
100
AcDbArc
 50
180.0
 51
183.044444
  0
ARC
  5
4F9
330
4E
100
AcDbEntity
 67
     1
  8
1
  6
CONTINUOUS
 62
    18
100
AcDbCircle
 10
3.182465
 20
6.775561
 30
0.0
 40
0.0085236523300409
100
AcDbArc
 50
176.955556
 51
180.0
  0
ARC
  5
4FA
330
4E
100
AcDbEntity
 67
     1
  8
1
  6
CONTINUOUS
 62
    18
100
AcDbCircle
 10
1.391465
 20
6.775561
 30
0.0
 40
0.0085236523300409
100
AcDbArc
 50
0.0
 51
3.044444
  0
ARC
  5
4FB
330
4E
100
AcDbEntity
 67
     1
  8
1
  6
CONTINUOUS
 62
    18
100
AcDbCircle
 10
1.391465
 20
6.366561
 30
0.0
 40
0.0085236523300409
100
AcDbArc
 50
356.955556
 51
0.0
  0
ARC
  5
4FC
330
4E
100
AcDbEntity
 67
     1
  8
1
  6
CONTINUOUS
 62
    18
100
AcDbCircle
 10
2.226965
 20
6.571061
 30
0.0
 40
0.1517455130815506
100
AcDbArc
 50
90.0
 51
262.521912
  0
ARC
  5
4FD
330
4E
100
AcDbEntity
 67
     1
  8
1
  6
CONTINUOUS
 62
    18
100
AcDbCircle
 10
2.346965
 20
6.571061
 30
0.0
 40
0.1517455130815506
100
AcDbArc
 50
277.478088
 51
90.0
  0
ARC
  5
4FE
330
4E
100
AcDbEntity
 67
     1
  8
1
  6
CONTINUOUS
 62
    18
100
AcDbCircle
 10
2.226965
 20
6.571061
 30
0.0
 40
0.1500000059604645
100
AcDbArc
 50
90.0
 51
263.778005
  0
ARC
  5
4FF
330
4E
100
AcDbEntity
 67
     1
  8
1
  6
CONTINUOUS
 62
    18
100
AcDbCircle
 10
2.346965
 20
6.571061
 30
0.0
 40
0.1500000059604645
100
AcDbArc
 50
276.221995
 51
90.0
  0
ARC
  5
500
330
4E
100
AcDbEntity
 67
     1
  8
1
  6
CONTINUOUS
 62
    18
100
AcDbCircle
 10
2.226965
 20
3.290061
 30
0.0
 40
0.076455295085907
100
AcDbArc
 50
90.0
 51
101.314429
  0
ARC
  5
501
330
4E
100
AcDbEntity
 67
     1
  8
1
  6
CONTINUOUS
 62
    18
100
AcDbCircle
 10
2.346965
 20
3.290061
 30
0.0
 40
0.076455295085907
100
AcDbArc
 50
78.685571
 51
90.0
  0
ARC
  5
502
330
4E
100
AcDbEntity
 67
     1
  8
1
  6
CONTINUOUS
 62
    18
100
AcDbCircle
 10
2.346965
 20
3.290061
 30
0.0
 40
0.0756984129548073
100
AcDbArc
 50
270.0
 51
90.0
  0
ARC
  5
503
330
4E
100
AcDbEntity
 67
     1
  8
1
  6
CONTINUOUS
 62
    18
100
AcDbCircle
 10
2.226965
 20
3.290061
 30
0.0
 40
0.0756984129548073
100
AcDbArc
 50
90.0
 51
270.0
  0
ARC
  5
504
330
4E
100
AcDbEntity
 67
     1
  8
1
  6
CONTINUOUS
 62
    18
100
AcDbCircle
 10
2.346965
 20
3.290061
 30
0.0
 40
0.0777124390006065
100
AcDbArc
 50
270.0
 51
77.924747
  0
ARC
  5
505
330
4E
100
AcDbEntity
 67
     1
  8
1
  6
CONTINUOUS
 62
    18
100
AcDbCircle
 10
2.226965
 20
3.290061
 30
0.0
 40
0.0777124390006065
100
AcDbArc
 50
102.075253
 51
270.0
  0
ARC
  5
506
330
4E
100
AcDbEntity
 67
     1
  8
1
  6
CONTINUOUS
 62
    18
100
AcDbCircle
 10
2.346965
 20
6.571061
 30
0.0
 40
0.0756984129548073
100
AcDbArc
 50
270.0
 51
90.0
  0
ARC
  5
507
330
4E
100
AcDbEntity
 67
     1
  8
1
  6
CONTINUOUS
 62
    18
100
AcDbCircle
 10
2.226965
 20
6.571061
 30
0.0
 40
0.0756984129548073
100
AcDbArc
 50
90.0
 51
270.0
  0
ARC
  5
508
330
4E
100
AcDbEntity
 67
     1
  8
1
  6
CONTINUOUS
 62
    18
100
AcDbCircle
 10
2.346965
 20
6.571061
 30
0.0
 40
0.076455295085907
100
AcDbArc
 50
270.0
 51
281.314429
  0
ARC
  5
509
330
4E
100
AcDbEntity
 67
     1
  8
1
  6
CONTINUOUS
 62
    18
100
AcDbCircle
 10
2.346965
 20
6.571061
 30
0.0
 40
0.0777124390006065
100
AcDbArc
 50
282.075253
 51
90.0
  0
ARC
  5
50A
330
4E
100
AcDbEntity
 67
     1
  8
1
  6
CONTINUOUS
 62
    18
100
AcDbCircle
 10
2.226965
 20
6.571061
 30
0.0
 40
0.0777124390006065
100
AcDbArc
 50
90.0
 51
257.924747
  0
ARC
  5
50B
330
4E
100
AcDbEntity
 67
     1
  8
1
  6
CONTINUOUS
 62
    18
100
AcDbCircle
 10
2.226965
 20
6.571061
 30
0.0
 40
0.076455295085907
100
AcDbArc
 50
258.685571
 51
270.0
  0
ARC
  5
50C
330
4E
100
AcDbEntity
 67
     1
  8
1
  6
CONTINUOUS
 62
    18
100
AcDbCircle
 10
4.759896
 20
7.022859
 30
0.0
 40
0.1000000014901161
100
AcDbArc
 50
140.0
 51
180.0
  0
ARC
  5
50D
330
4E
100
AcDbEntity
 67
     1
  8
1
  6
CONTINUOUS
 62
    18
100
AcDbCircle
 10
4.759896
 20
2.893591
 30
0.0
 40
0.1000000014901161
100
AcDbArc
 50
180.0
 51
220.0
  0
ARC
  5
50E
330
4E
100
AcDbEntity
 67
     1
  8
1
  6
CONTINUOUS
 62
    18
100
AcDbCircle
 10
5.292596
 20
5.301899
 30
0.0
 40
0.0399999991059303
100
AcDbArc
 50
300.999998
 51
0.0
  0
ARC
  5
50F
330
4E
100
AcDbEntity
 67
     1
  8
1
  6
CONTINUOUS
 62
    18
100
AcDbCircle
 10
5.292596
 20
5.878501
 30
0.0
 40
0.0399999991059303
100
AcDbArc
 50
0.0
 51
90.0
  0
ARC
  5
510
330
4E
100
AcDbEntity
 67
     1
  8
1
  6
CONTINUOUS
 62
    18
100
AcDbCircle
 10
5.292596
 20
3.966898
 30
0.0
 40
0.0399999991059303
100
AcDbArc
 50
300.999998
 51
0.0
  0
ARC
  5
511
330
4E
100
AcDbEntity
 67
     1
  8
1
  6
CONTINUOUS
 62
    18
100
AcDbCircle
 10
5.292596
 20
4.5435
 30
0.0
 40
0.0399999991059303
100
AcDbArc
 50
0.0
 51
90.0
  0
ENDSEC
  0
SECTION
  2
OBJECTS
  0
DICTIONARY
  5
C
330
0
100
AcDbDictionary
281
     1
  3
ACAD_GROUP
350
D
  3
ACAD_LAYOUT
350
1A
  3
ACAD_MATERIAL
350
3B
  3
ACAD_MLEADERSTYLE
350
525
  3
ACAD_MLINESTYLE
350
17
  3
ACAD_PLOTSETTINGS
350
19
  3
ACAD_PLOTSTYLENAME
350
E
  3
ACAD_VISUALSTYLE
350
2A
  3
AcDbVariableDictionary
350
523
  0
DICTIONARY
  5
D
102
{ACAD_REACTORS
330
C
102
}
330
C
100
AcDbDictionary
281
     1
  0
DICTIONARY
  5
1A
102
{ACAD_REACTORS
330
C
102
}
330
C
100
AcDbDictionary
281
     1
  3
Model
350
22
  3
Sheet 1
350
512
  0
DICTIONARY
  5
3B
102
{ACAD_REACTORS
330
C
102
}
330
C
100
AcDbDictionary
281
     1
  3
BYBLOCK
350
3D
  3
BYLAYER
350
3C
  3
Global
350
3E
  0
DICTIONARY
  5
525
102
{ACAD_REACTORS
330
C
102
}
330
C
100
AcDbDictionary
281
     1
  0
DICTIONARY
  5
17
102
{ACAD_REACTORS
330
C
102
}
330
C
100
AcDbDictionary
281
     1
  3
Standard
350
18
  0
DICTIONARY
  5
19
102
{ACAD_REACTORS
330
C
102
}
330
C
100
AcDbDictionary
281
     1
  0
ACDBDICTIONARYWDFLT
  5
E
102
{ACAD_REACTORS
330
C
102
}
330
C
100
AcDbDictionary
281
     1
  3
Normal
350
F
100
AcDbDictionaryWithDefault
340
F
  0
DICTIONARY
  5
2A
102
{ACAD_REACTORS
330
C
102
}
330
C
100
AcDbDictionary
281
     1
  3
2dWireframe
350
2F
  3
3D Hidden
350
31
  3
3dWireframe
350
30
  3
Basic
350
32
  3
Brighten
350
36
  3
ColorChange
350
3A
  3
Conceptual
350
34
  3
Dim
350
35
  3
Facepattern
350
39
  3
Flat
350
2B
  3
FlatWithEdges
350
2C
  3
Gouraud
350
2D
  3
GouraudWithEdges
350
2E
  3
Linepattern
350
38
  3
Realistic
350
33
  3
Thicken
350
37
  0
DICTIONARY
  5
523
102
{ACAD_REACTORS
330
C
102
}
330
C
100
AcDbDictionary
281
     1
  3
DIMASSOC
350
526
  3
HIDETEXT
350
527
  0
LAYOUT
  5
22
102
{ACAD_REACTORS
330
1A
102
}
330
1A
100
AcDbPlotSettings
  1

  2
none_device
  4

  6

 40
0.0
 41
0.0
 42
0.0
 43
0.0
 44
0.0
 45
0.0
 46
0.0
 47
0.0
 48
0.0
 49
0.0
140
0.0
141
0.0
142
1.0
143
1.0
 70
  1712
 72
     0
 73
     0
 74
     0
  7

 75
     0
147
1.0
148
0.0
149
0.0
100
AcDbLayout
  1
Model
 70
     1
 71
     0
 10
-0.5
 20
-0.5
 11
5.0
 21
5.0
 12
0.0
 22
0.0
 32
0.0
 14
-0.5
 24
-0.5
 34
-0.5
 15
5.0
 25
5.0
 35
5.0
146
0.0
 13
0.0
 23
0.0
 33
0.0
 16
1.0
 26
0.0
 36
0.0
 17
0.0
 27
1.0
 37
0.0
 76
     0
330
1F
331
29
  0
LAYOUT
  5
512
102
{ACAD_REACTORS
330
1A
102
}
330
1A
100
AcDbPlotSettings
  1

  2
none_device
  4
ISO_B4_(354.00_x_250.00_MM)
  6

 40
7.5
 41
20.0
 42
7.5
 43
20.0
 44
354.0
 45
250.0
 46
35.333333
 47
0.0
 48
0.0
 49
0.0
140
13.0
141
10.5
142
1.0
143
1.088571
 70
   692
 72
     0
 73
     0
 74
     1
  7

 75
     0
147
0.918635
148
12.7
149
12.7
100
AcDbLayout
  1
Sheet 1
 70
     1
 71
     1
 10
0.0
 20
0.0
 11
11.0
 21
8.5
 12
0.0
 22
0.0
 32
0.0
 14
0.0
 24
0.0
 34
0.0
 15
11.0
 25
8.5
 35
0.0
146
0.0
 13
0.0
 23
0.0
 33
0.0
 16
1.0
 26
0.0
 36
0.0
 17
0.0
 27
1.0
 37
0.0
 76
     0
330
4E
331
51
  0
MATERIAL
  5
3D
102
{ACAD_REACTORS
330
3B
102
}
102
{ACAD_XDICTIONARY
360
54A
102
}
330
3B
100
AcDbMaterial
  1
BYBLOCK
  0
MATERIAL
  5
3C
102
{ACAD_REACTORS
330
3B
102
}
102
{ACAD_XDICTIONARY
360
548
102
}
330
3B
100
AcDbMaterial
  1
BYLAYER
  0
MATERIAL
  5
3E
102
{ACAD_REACTORS
330
3B
102
}
102
{ACAD_XDICTIONARY
360
54C
102
}
330
3B
100
AcDbMaterial
  1
Global
  0
MLINESTYLE
  5
18
102
{ACAD_REACTORS
330
17
102
}
330
17
100
AcDbMlineStyle
  2
Standard
 70
     0
  3

 62
   256
 51
90.0
 52
90.0
 71
     2
 49
0.5
 62
   256
  6
BYLAYER
 49
-0.5
 62
   256
  6
BYLAYER
  0
ACDBPLACEHOLDER
  5
F
102
{ACAD_REACTORS
330
E
102
}
330
E
  0
VISUALSTYLE
  5
2F
102
{ACAD_REACTORS
330
2A
102
}
102
{ACAD_XDICTIONARY
360
530
102
}
330
2A
100
AcDbVisualStyle
  2
2dWireframe
 70
     4
 71
     0
 72
     2
 73
     0
 90
        0
 40
-0.6
 41
-30.0
 62
     5
 63
     7
 74
     1
 91
        4
 64
     7
 65
   257
 75
     1
175
     1
 42
1.0
 92
        0
 66
   257
 43
1.0
 76
     1
 77
     6
 78
     2
 67
     7
 79
     5
170
     0
171
     0
290
     0
174
     0
 93
        1
 44
0.0
173
     0
291
     0
 45
0.0
1001
ACAD
1000
AcDbSavedByObjectVersion
1070
     0
  0
VISUALSTYLE
  5
31
102
{ACAD_REACTORS
330
2A
102
}
102
{ACAD_XDICTIONARY
360
534
102
}
330
2A
100
AcDbVisualStyle
  2
3D Hidden
 70
     6
 71
     1
 72
     2
 73
     2
 90
        0
 40
-0.6
 41
-30.0
 62
     5
 63
     7
 74
     2
 91
        2
 64
     7
 65
   257
 75
     2
175
     1
 42
40.0
 92
        0
 66
   257
 43
1.0
 76
     1
 77
     6
 78
     2
 67
     7
 79
     3
170
     0
171
     0
290
     0
174
     0
 93
        1
 44
0.0
173
     0
291
     0
 45
0.0
1001
ACAD
1000
AcDbSavedByObjectVersion
1070
     0
  0
VISUALSTYLE
  5
30
102
{ACAD_REACTORS
330
2A
102
}
102
{ACAD_XDICTIONARY
360
532
102
}
330
2A
100
AcDbVisualStyle
  2
3dWireframe
 70
     5
 71
     0
 72
     2
 73
     0
 90
        0
 40
-0.6
 41
-30.0
 62
     5
 63
     7
 74
     1
 91
        4
 64
     7
 65
   257
 75
     1
175
     1
 42
1.0
 92
        0
 66
   257
 43
1.0
 76
     1
 77
     6
 78
     2
 67
     7
 79
     5
170
     0
171
     0
290
     0
174
     0
 93
        1
 44
0.0
173
     0
291
     0
 45
0.0
1001
ACAD
1000
AcDbSavedByObjectVersion
1070
     0
  0
VISUALSTYLE
  5
32
102
{ACAD_REACTORS
330
2A
102
}
102
{ACAD_XDICTIONARY
360
536
102
}
330
2A
100
AcDbVisualStyle
  2
Basic
 70
     7
 71
     1
 72
     0
 73
     1
 90
        0
 40
-0.6
 41
-30.0
 62
     5
 63
     7
 74
     0
 91
        4
 64
     7
 65
   257
 75
     1
175
     1
 42
1.0
 92
        8
 66
     7
 43
1.0
 76
     1
 77
     6
 78
     2
 67
     7
 79
     5
170
     0
171
     0
290
     0
174
     0
 93
        1
 44
0.0
173
     0
291
     1
 45
0.0
1001
ACAD
1000
AcDbSavedByObjectVersion
1070
     0
  0
VISUALSTYLE
  5
36
102
{ACAD_REACTORS
330
2A
102
}
102
{ACAD_XDICTIONARY
360
53E
102
}
330
2A
100
AcDbVisualStyle
  2
Brighten
 70
    12
 71
     2
 72
     2
 73
     0
 90
        0
 40
-0.6
 41
-30.0
 62
     5
 63
     7
 74
     1
 91
        4
 64
     7
 65
   257
 75
     1
175
     1
 42
1.0
 92
        8
 66
     7
 43
1.0
 76
     1
 77
     6
 78
     2
 67
     7
 79
     5
170
     0
171
     0
290
     0
174
     0
 93
        1
 44
50.0
173
     0
291
     1
 45
0.0
1001
ACAD
1000
AcDbSavedByObjectVersion
1070
     0
  0
VISUALSTYLE
  5
3A
102
{ACAD_REACTORS
330
2A
102
}
102
{ACAD_XDICTIONARY
360
546
102
}
330
2A
100
AcDbVisualStyle
  2
ColorChange
 70
    16
 71
     2
 72
     2
 73
     3
 90
        0
 40
-0.6
 41
-30.0
 62
     5
 63
     8
 74
     1
 91
        4
 64
     7
 65
   257
 75
     1
175
     1
 42
1.0
 92
        8
 66
     8
 43
1.0
 76
     1
 77
     6
 78
     2
 67
     7
 79
     5
170
     0
171
     0
290
     0
174
     0
 93
        1
 44
0.0
173
     0
291
     1
 45
0.0
1001
ACAD
1000
AcDbSavedByObjectVersion
1070
     0
  0
VISUALSTYLE
  5
34
102
{ACAD_REACTORS
330
2A
102
}
102
{ACAD_XDICTIONARY
360
53A
102
}
330
2A
100
AcDbVisualStyle
  2
Conceptual
 70
     9
 71
     3
 72
     2
 73
     0
 90
        0
 40
-0.6
 41
-30.0
 62
     5
 63
     7
 74
     2
 91
        2
 64
     7
 65
   257
 75
     1
175
     1
 42
40.0
 92
        8
 66
     7
 43
1.0
 76
     1
 77
     6
 78
     2
 67
     7
 79
     3
170
     0
171
     0
290
     0
174
     0
 93
        1
 44
0.0
173
     0
291
     0
 45
0.0
1001
ACAD
1000
AcDbSavedByObjectVersion
1070
     0
  0
VISUALSTYLE
  5
35
102
{ACAD_REACTORS
330
2A
102
}
102
{ACAD_XDICTIONARY
360
53C
102
}
330
2A
100
AcDbVisualStyle
  2
Dim
 70
    11
 71
     2
 72
     2
 73
     0
 90
        0
 40
-0.6
 41
-30.0
 62
     5
 63
     7
 74
     1
 91
        4
 64
     7
 65
   257
 75
     1
175
     1
 42
1.0
 92
        8
 66
     7
 43
1.0
 76
     1
 77
     6
 78
     2
 67
     7
 79
     5
170
     0
171
     0
290
     0
174
     0
 93
        1
 44
-50.0
173
     0
291
     1
 45
0.0
1001
ACAD
1000
AcDbSavedByObjectVersion
1070
     0
  0
VISUALSTYLE
  5
39
102
{ACAD_REACTORS
330
2A
102
}
102
{ACAD_XDICTIONARY
360
544
102
}
330
2A
100
AcDbVisualStyle
  2
Facepattern
 70
    15
 71
     2
 72
     2
 73
     0
 90
        0
 40
-0.6
 41
-30.0
 62
     5
 63
     7
 74
     1
 91
        4
 64
     7
 65
   257
 75
     1
175
     1
 42
1.0
 92
        8
 66
     7
 43
1.0
 76
     1
 77
     6
 78
     2
 67
     7
 79
     5
170
     0
171
     0
290
     0
174
     0
 93
        1
 44
0.0
173
     0
291
     1
 45
0.0
1001
ACAD
1000
AcDbSavedByObjectVersion
1070
     0
  0
VISUALSTYLE
  5
2B
102
{ACAD_REACTORS
330
2A
102
}
102
{ACAD_XDICTIONARY
360
528
102
}
330
2A
100
AcDbVisualStyle
  2
Flat
 70
     0
 71
     2
 72
     1
 73
     1
 90
        2
 40
-0.6
 41
30.0
 62
     5
 63
     7
 74
     0
 91
        4
 64
     7
 65
   257
 75
     1
175
     1
 42
1.0
 92
        8
 66
     7
 43
1.0
 76
     1
 77
     6
 78
     2
 67
     7
 79
     5
170
     0
171
     0
290
     0
174
     0
 93
       13
 44
0.0
173
     0
291
     1
 45
0.0
1001
ACAD
1000
AcDbSavedByObjectVersion
1070
     0
  0
VISUALSTYLE
  5
2C
102
{ACAD_REACTORS
330
2A
102
}
102
{ACAD_XDICTIONARY
360
52A
102
}
330
2A
100
AcDbVisualStyle
  2
FlatWithEdges
 70
     1
 71
     2
 72
     1
 73
     1
 90
        2
 40
-0.6
 41
30.0
 62
     5
 63
     7
 74
     1
 91
        4
 64
     7
 65
   257
 75
     1
175
     1
 42
1.0
 92
        0
 66
   257
 43
1.0
 76
     1
 77
     6
 78
     2
 67
     7
 79
     5
170
     0
171
     0
290
     0
174
     0
 93
       13
 44
0.0
173
     0
291
     1
 45
0.0
1001
ACAD
1000
AcDbSavedByObjectVersion
1070
     0
  0
VISUALSTYLE
  5
2D
102
{ACAD_REACTORS
330
2A
102
}
102
{ACAD_XDICTIONARY
360
52C
102
}
330
2A
100
AcDbVisualStyle
  2
Gouraud
 70
     2
 71
     2
 72
     2
 73
     1
 90
        2
 40
-0.6
 41
30.0
 62
     5
 63
     7
 74
     0
 91
        4
 64
     7
 65
   257
 75
     1
175
     1
 42
1.0
 92
        0
 66
     7
 43
1.0
 76
     1
 77
     6
 78
     2
 67
     7
 79
     5
170
     0
171
     0
290
     0
174
     0
 93
       13
 44
0.0
173
     0
291
     1
 45
0.0
1001
ACAD
1000
AcDbSavedByObjectVersion
1070
     0
  0
VISUALSTYLE
  5
2E
102
{ACAD_REACTORS
330
2A
102
}
102
{ACAD_XDICTIONARY
360
52E
102
}
330
2A
100
AcDbVisualStyle
  2
GouraudWithEdges
 70
     3
 71
     2
 72
     2
 73
     1
 90
        2
 40
-0.6
 41
30.0
 62
     5
 63
     7
 74
     1
 91
        4
 64
     7
 65
   257
 75
     1
175
     1
 42
1.0
 92
        0
 66
   257
 43
1.0
 76
     1
 77
     6
 78
     2
 67
     7
 79
     5
170
     0
171
     0
290
     0
174
     0
 93
       13
 44
0.0
173
     0
291
     1
 45
0.0
1001
ACAD
1000
AcDbSavedByObjectVersion
1070
     0
  0
VISUALSTYLE
  5
38
102
{ACAD_REACTORS
330
2A
102
}
102
{ACAD_XDICTIONARY
360
542
102
}
330
2A
100
AcDbVisualStyle
  2
Linepattern
 70
    14
 71
     2
 72
     2
 73
     0
 90
        0
 40
-0.6
 41
-30.0
 62
     5
 63
     7
 74
     1
 91
        4
 64
     7
 65
   257
 75
     7
175
     7
 42
1.0
 92
        8
 66
     7
 43
1.0
 76
     1
 77
     6
 78
     2
 67
     7
 79
     5
170
     0
171
     0
290
     0
174
     0
 93
        1
 44
0.0
173
     0
291
     1
 45
0.0
1001
ACAD
1000
AcDbSavedByObjectVersion
1070
     0
  0
VISUALSTYLE
  5
33
102
{ACAD_REACTORS
330
2A
102
}
102
{ACAD_XDICTIONARY
360
538
102
}
330
2A
100
AcDbVisualStyle
  2
Realistic
 70
     8
 71
     2
 72
     2
 73
     0
 90
        0
 40
-0.6
 41
-30.0
 62
     5
 63
     7
 74
     1
 91
        0
 64
     7
 65
   257
 75
     1
175
     1
 42
1.0
 92
        8
 66
     8
 43
1.0
 76
     1
 77
     6
 78
     2
 67
     7
 79
     5
170
     0
171
     0
290
     0
174
     0
 93
       13
 44
0.0
173
     0
291
     0
 45
0.0
1001
ACAD
1000
AcDbSavedByObjectVersion
1070
     0
  0
VISUALSTYLE
  5
37
102
{ACAD_REACTORS
330
2A
102
}
102
{ACAD_XDICTIONARY
360
540
102
}
330
2A
100
AcDbVisualStyle
  2
Thicken
 70
    13
 71
     2
 72
     2
 73
     0
 90
        0
 40
-0.6
 41
-30.0
 62
     5
 63
     7
 74
     1
 91
        4
 64
     7
 65
   257
 75
     1
175
     1
 42
1.0
 92
       12
 66
     7
 43
1.0
 76
     1
 77
     6
 78
     2
 67
     7
 79
     5
170
     0
171
     0
290
     0
174
     0
 93
        1
 44
0.0
173
     0
291
     1
 45
0.0
1001
ACAD
1000
AcDbSavedByObjectVersion
1070
     0
  0
DICTIONARYVAR
  5
526
102
{ACAD_REACTORS
330
523
102
}
330
523
100
DictionaryVariables
280
     0
  1
2
  0
DICTIONARYVAR
  5
527
102
{ACAD_REACTORS
330
523
102
}
330
523
100
DictionaryVariables
280
     0
  1
1
  0
DICTIONARY
  5
54A
330
3D
100
AcDbDictionary
280
     1
281
     1
  3
ACAD_XREC_ROUNDTRIP
360
54B
  0
DICTIONARY
  5
548
330
3C
100
AcDbDictionary
280
     1
281
     1
  3
ACAD_XREC_ROUNDTRIP
360
549
  0
DICTIONARY
  5
54C
330
3E
100
AcDbDictionary
280
     1
281
     1
  3
ACAD_XREC_ROUNDTRIP
360
54D
  0
DICTIONARY
  5
530
330
2F
100
AcDbDictionary
280
     1
281
     1
  3
ACAD_XREC_ROUNDTRIP
360
531
  0
DICTIONARY
  5
534
330
31
100
AcDbDictionary
280
     1
281
     1
  3
ACAD_XREC_ROUNDTRIP
360
535
  0
DICTIONARY
  5
532
330
30
100
AcDbDictionary
280
     1
281
     1
  3
ACAD_XREC_ROUNDTRIP
360
533
  0
DICTIONARY
  5
536
330
32
100
AcDbDictionary
280
     1
281
     1
  3
ACAD_XREC_ROUNDTRIP
360
537
  0
DICTIONARY
  5
53E
330
36
100
AcDbDictionary
280
     1
281
     1
  3
ACAD_XREC_ROUNDTRIP
360
53F
  0
DICTIONARY
  5
546
330
3A
100
AcDbDictionary
280
     1
281
     1
  3
ACAD_XREC_ROUNDTRIP
360
547
  0
DICTIONARY
  5
53A
330
34
100
AcDbDictionary
280
     1
281
     1
  3
ACAD_XREC_ROUNDTRIP
360
53B
  0
DICTIONARY
  5
53C
330
35
100
AcDbDictionary
280
     1
281
     1
  3
ACAD_XREC_ROUNDTRIP
360
53D
  0
DICTIONARY
  5
544
330
39
100
AcDbDictionary
280
     1
281
     1
  3
ACAD_XREC_ROUNDTRIP
360
545
  0
DICTIONARY
  5
528
330
2B
100
AcDbDictionary
280
     1
281
     1
  3
ACAD_XREC_ROUNDTRIP
360
529
  0
DICTIONARY
  5
52A
330
2C
100
AcDbDictionary
280
     1
281
     1
  3
ACAD_XREC_ROUNDTRIP
360
52B
  0
DICTIONARY
  5
52C
330
2D
100
AcDbDictionary
280
     1
281
     1
  3
ACAD_XREC_ROUNDTRIP
360
52D
  0
DICTIONARY
  5
52E
330
2E
100
AcDbDictionary
280
     1
281
     1
  3
ACAD_XREC_ROUNDTRIP
360
52F
  0
DICTIONARY
  5
542
330
38
100
AcDbDictionary
280
     1
281
     1
  3
ACAD_XREC_ROUNDTRIP
360
543
  0
DICTIONARY
  5
538
330
33
100
AcDbDictionary
280
     1
281
     1
  3
ACAD_XREC_ROUNDTRIP
360
539
  0
DICTIONARY
  5
540
330
37
100
AcDbDictionary
280
     1
281
     1
  3
ACAD_XREC_ROUNDTRIP
360
541
  0
XRECORD
  5
54B
102
{ACAD_REACTORS
330
54A
102
}
330
54A
100
AcDbXrecord
280
     1
102
MATERIAL
148
0.0
149
0.0
149
0.0
 93
        0
 94
      127
282
     0
 72
     1
 77
     1
171
     1
175
     1
179
     1
273
     0
  0
XRECORD
  5
549
102
{ACAD_REACTORS
330
548
102
}
330
548
100
AcDbXrecord
280
     1
102
MATERIAL
148
0.0
149
0.0
149
0.0
 93
        0
 94
      127
282
     0
 72
     1
 77
     1
171
     1
175
     1
179
     1
273
     0
  0
XRECORD
  5
54D
102
{ACAD_REACTORS
330
54C
102
}
330
54C
100
AcDbXrecord
280
     1
102
MATERIAL
148
0.0
149
0.0
149
0.0
 93
        0
 94
      127
282
     0
 72
     1
 77
     1
171
     1
175
     1
179
     1
273
     0
  0
XRECORD
  5
531
102
{ACAD_REACTORS
330
530
102
}
330
530
100
AcDbXrecord
280
     1
102
RTVSPropertyOp0
 70
     1
102
RTVSPropertyOp1
 70
     1
102
RTVSPropertyOp2
 70
     1
102
RTVSPropertyOp3
 70
     1
102
RTVSPropertyOp4
 70
     1
102
RTVSPropertyOp5
 70
     1
102
RTVSPropertyOp6
 70
     1
102
RTVSPropertyOp7
 70
     1
102
RTVSPropertyOp8
 70
     1
102
RTVSPropertyOp9
 70
     1
102
RTVSPropertyOp10
 70
     1
102
RTVSPropertyOp11
 70
     1
102
RTVSPropertyOp12
 70
     1
102
RTVSPropertyOp13
 70
     1
102
RTVSPropertyOp14
 70
     1
102
RTVSPropertyOp15
 70
     1
102
RTVSPropertyOp16
 70
     1
102
RTVSPropertyOp17
 70
     1
102
RTVSPropertyOp18
 70
     1
102
RTVSPropertyOp19
 70
     1
102
RTVSPropertyOp20
 70
     1
102
RTVSPropertyOp21
 70
     1
102
RTVSPropertyOp22
 70
     1
102
RTVSPropertyOp23
 70
     1
102
RTVSPropertyOp24
 70
     1
102
RTVSPropertyOp25
 70
     1
102
RTVSPropertyOp26
 70
     1
102
RTVSPropertyOp27
 70
     1
  0
XRECORD
  5
535
102
{ACAD_REACTORS
330
534
102
}
330
534
100
AcDbXrecord
280
     1
102
RTVSPropertyOp0
 70
     1
102
RTVSPropertyOp1
 70
     1
102
RTVSPropertyOp2
 70
     1
102
RTVSPropertyOp3
 70
     1
102
RTVSPropertyOp4
 70
     1
102
RTVSPropertyOp5
 70
     1
102
RTVSPropertyOp6
 70
     1
102
RTVSPropertyOp7
 70
     1
102
RTVSPropertyOp8
 70
     1
102
RTVSPropertyOp9
 70
     1
102
RTVSPropertyOp10
 70
     1
102
RTVSPropertyOp11
 70
     1
102
RTVSPropertyOp12
 70
     1
102
RTVSPropertyOp13
 70
     1
102
RTVSPropertyOp14
 70
     1
102
RTVSPropertyOp15
 70
     1
102
RTVSPropertyOp16
 70
     1
102
RTVSPropertyOp17
 70
     1
102
RTVSPropertyOp18
 70
     1
102
RTVSPropertyOp19
 70
     1
102
RTVSPropertyOp20
 70
     1
102
RTVSPropertyOp21
 70
     1
102
RTVSPropertyOp22
 70
     1
102
RTVSPropertyOp23
 70
     1
102
RTVSPropertyOp24
 70
     1
102
RTVSPropertyOp25
 70
     1
102
RTVSPropertyOp26
 70
     1
102
RTVSPropertyOp27
 70
     1
  0
XRECORD
  5
533
102
{ACAD_REACTORS
330
532
102
}
330
532
100
AcDbXrecord
280
     1
102
RTVSPropertyOp0
 70
     1
102
RTVSPropertyOp1
 70
     1
102
RTVSPropertyOp2
 70
     1
102
RTVSPropertyOp3
 70
     1
102
RTVSPropertyOp4
 70
     1
102
RTVSPropertyOp5
 70
     1
102
RTVSPropertyOp6
 70
     1
102
RTVSPropertyOp7
 70
     1
102
RTVSPropertyOp8
 70
     1
102
RTVSPropertyOp9
 70
     1
102
RTVSPropertyOp10
 70
     1
102
RTVSPropertyOp11
 70
     1
102
RTVSPropertyOp12
 70
     1
102
RTVSPropertyOp13
 70
     1
102
RTVSPropertyOp14
 70
     1
102
RTVSPropertyOp15
 70
     1
102
RTVSPropertyOp16
 70
     1
102
RTVSPropertyOp17
 70
     1
102
RTVSPropertyOp18
 70
     1
102
RTVSPropertyOp19
 70
     1
102
RTVSPropertyOp20
 70
     1
102
RTVSPropertyOp21
 70
     1
102
RTVSPropertyOp22
 70
     1
102
RTVSPropertyOp23
 70
     1
102
RTVSPropertyOp24
 70
     1
102
RTVSPropertyOp25
 70
     1
102
RTVSPropertyOp26
 70
     1
102
RTVSPropertyOp27
 70
     1
  0
XRECORD
  5
537
102
{ACAD_REACTORS
330
536
102
}
330
536
100
AcDbXrecord
280
     1
102
RTVSPropertyOp0
 70
     1
102
RTVSPropertyOp1
 70
     1
102
RTVSPropertyOp2
 70
     1
102
RTVSPropertyOp3
 70
     1
102
RTVSPropertyOp4
 70
     1
102
RTVSPropertyOp5
 70
     1
102
RTVSPropertyOp6
 70
     1
102
RTVSPropertyOp7
 70
     1
102
RTVSPropertyOp8
 70
     1
102
RTVSPropertyOp9
 70
     1
102
RTVSPropertyOp10
 70
     1
102
RTVSPropertyOp11
 70
     1
102
RTVSPropertyOp12
 70
     1
102
RTVSPropertyOp13
 70
     1
102
RTVSPropertyOp14
 70
     1
102
RTVSPropertyOp15
 70
     1
102
RTVSPropertyOp16
 70
     1
102
RTVSPropertyOp17
 70
     1
102
RTVSPropertyOp18
 70
     1
102
RTVSPropertyOp19
 70
     1
102
RTVSPropertyOp20
 70
     1
102
RTVSPropertyOp21
 70
     1
102
RTVSPropertyOp22
 70
     1
102
RTVSPropertyOp23
 70
     1
102
RTVSPropertyOp24
 70
     1
102
RTVSPropertyOp25
 70
     1
102
RTVSPropertyOp26
 70
     1
102
RTVSPropertyOp27
 70
     1
  0
XRECORD
  5
53F
102
{ACAD_REACTORS
330
53E
102
}
330
53E
100
AcDbXrecord
280
     1
102
RTVSPropertyOp0
 70
     1
102
RTVSPropertyOp1
 70
     1
102
RTVSPropertyOp2
 70
     1
102
RTVSPropertyOp3
 70
     1
102
RTVSPropertyOp4
 70
     1
102
RTVSPropertyOp5
 70
     1
102
RTVSPropertyOp6
 70
     1
102
RTVSPropertyOp7
 70
     1
102
RTVSPropertyOp8
 70
     1
102
RTVSPropertyOp9
 70
     1
102
RTVSPropertyOp10
 70
     1
102
RTVSPropertyOp11
 70
     1
102
RTVSPropertyOp12
 70
     1
102
RTVSPropertyOp13
 70
     1
102
RTVSPropertyOp14
 70
     1
102
RTVSPropertyOp15
 70
     1
102
RTVSPropertyOp16
 70
     1
102
RTVSPropertyOp17
 70
     1
102
RTVSPropertyOp18
 70
     1
102
RTVSPropertyOp19
 70
     1
102
RTVSPropertyOp20
 70
     1
102
RTVSPropertyOp21
 70
     1
102
RTVSPropertyOp22
 70
     1
102
RTVSPropertyOp23
 70
     1
102
RTVSPropertyOp24
 70
     1
102
RTVSPropertyOp25
 70
     1
102
RTVSPropertyOp26
 70
     1
102
RTVSPropertyOp27
 70
     1
  0
XRECORD
  5
547
102
{ACAD_REACTORS
330
546
102
}
330
546
100
AcDbXrecord
280
     1
102
RTVSPropertyOp0
 70
     1
102
RTVSPropertyOp1
 70
     1
102
RTVSPropertyOp2
 70
     1
102
RTVSPropertyOp3
 70
     1
102
RTVSPropertyOp4
 70
     1
102
RTVSPropertyOp5
 70
     1
102
RTVSPropertyOp6
 70
     1
102
RTVSPropertyOp7
 70
     1
102
RTVSPropertyOp8
 70
     1
102
RTVSPropertyOp9
 70
     1
102
RTVSPropertyOp10
 70
     1
102
RTVSPropertyOp11
 70
     1
102
RTVSPropertyOp12
 70
     1
102
RTVSPropertyOp13
 70
     1
102
RTVSPropertyOp14
 70
     1
102
RTVSPropertyOp15
 70
     1
102
RTVSPropertyOp16
 70
     1
102
RTVSPropertyOp17
 70
     1
102
RTVSPropertyOp18
 70
     1
102
RTVSPropertyOp19
 70
     1
102
RTVSPropertyOp20
 70
     1
102
RTVSPropertyOp21
 70
     1
102
RTVSPropertyOp22
 70
     1
102
RTVSPropertyOp23
 70
     1
102
RTVSPropertyOp24
 70
     1
102
RTVSPropertyOp25
 70
     1
102
RTVSPropertyOp26
 70
     1
102
RTVSPropertyOp27
 70
     1
  0
XRECORD
  5
53B
102
{ACAD_REACTORS
330
53A
102
}
330
53A
100
AcDbXrecord
280
     1
102
RTVSPropertyOp0
 70
     1
102
RTVSPropertyOp1
 70
     1
102
RTVSPropertyOp2
 70
     1
102
RTVSPropertyOp3
 70
     1
102
RTVSPropertyOp4
 70
     1
102
RTVSPropertyOp5
 70
     1
102
RTVSPropertyOp6
 70
     1
102
RTVSPropertyOp7
 70
     1
102
RTVSPropertyOp8
 70
     1
102
RTVSPropertyOp9
 70
     1
102
RTVSPropertyOp10
 70
     1
102
RTVSPropertyOp11
 70
     1
102
RTVSPropertyOp12
 70
     1
102
RTVSPropertyOp13
 70
     1
102
RTVSPropertyOp14
 70
     1
102
RTVSPropertyOp15
 70
     1
102
RTVSPropertyOp16
 70
     1
102
RTVSPropertyOp17
 70
     1
102
RTVSPropertyOp18
 70
     1
102
RTVSPropertyOp19
 70
     1
102
RTVSPropertyOp20
 70
     1
102
RTVSPropertyOp21
 70
     1
102
RTVSPropertyOp22
 70
     1
102
RTVSPropertyOp23
 70
     1
102
RTVSPropertyOp24
 70
     1
102
RTVSPropertyOp25
 70
     1
102
RTVSPropertyOp26
 70
     1
102
RTVSPropertyOp27
 70
     1
  0
XRECORD
  5
53D
102
{ACAD_REACTORS
330
53C
102
}
330
53C
100
AcDbXrecord
280
     1
102
RTVSPropertyOp0
 70
     1
102
RTVSPropertyOp1
 70
     1
102
RTVSPropertyOp2
 70
     1
102
RTVSPropertyOp3
 70
     1
102
RTVSPropertyOp4
 70
     1
102
RTVSPropertyOp5
 70
     1
102
RTVSPropertyOp6
 70
     1
102
RTVSPropertyOp7
 70
     1
102
RTVSPropertyOp8
 70
     1
102
RTVSPropertyOp9
 70
     1
102
RTVSPropertyOp10
 70
     1
102
RTVSPropertyOp11
 70
     1
102
RTVSPropertyOp12
 70
     1
102
RTVSPropertyOp13
 70
     1
102
RTVSPropertyOp14
 70
     1
102
RTVSPropertyOp15
 70
     1
102
RTVSPropertyOp16
 70
     1
102
RTVSPropertyOp17
 70
     1
102
RTVSPropertyOp18
 70
     1
102
RTVSPropertyOp19
 70
     1
102
RTVSPropertyOp20
 70
     1
102
RTVSPropertyOp21
 70
     1
102
RTVSPropertyOp22
 70
     1
102
RTVSPropertyOp23
 70
     1
102
RTVSPropertyOp24
 70
     1
102
RTVSPropertyOp25
 70
     1
102
RTVSPropertyOp26
 70
     1
102
RTVSPropertyOp27
 70
     1
  0
XRECORD
  5
545
102
{ACAD_REACTORS
330
544
102
}
330
544
100
AcDbXrecord
280
     1
102
RTVSPropertyOp0
 70
     1
102
RTVSPropertyOp1
 70
     1
102
RTVSPropertyOp2
 70
     1
102
RTVSPropertyOp3
 70
     1
102
RTVSPropertyOp4
 70
     1
102
RTVSPropertyOp5
 70
     1
102
RTVSPropertyOp6
 70
     1
102
RTVSPropertyOp7
 70
     1
102
RTVSPropertyOp8
 70
     1
102
RTVSPropertyOp9
 70
     1
102
RTVSPropertyOp10
 70
     1
102
RTVSPropertyOp11
 70
     1
102
RTVSPropertyOp12
 70
     1
102
RTVSPropertyOp13
 70
     1
102
RTVSPropertyOp14
 70
     1
102
RTVSPropertyOp15
 70
     1
102
RTVSPropertyOp16
 70
     1
102
RTVSPropertyOp17
 70
     1
102
RTVSPropertyOp18
 70
     1
102
RTVSPropertyOp19
 70
     1
102
RTVSPropertyOp20
 70
     1
102
RTVSPropertyOp21
 70
     1
102
RTVSPropertyOp22
 70
     1
102
RTVSPropertyOp23
 70
     1
102
RTVSPropertyOp24
 70
     1
102
RTVSPropertyOp25
 70
     1
102
RTVSPropertyOp26
 70
     1
102
RTVSPropertyOp27
 70
     1
  0
XRECORD
  5
529
102
{ACAD_REACTORS
330
528
102
}
330
528
100
AcDbXrecord
280
     1
102
RTVSPropertyOp0
 70
     1
102
RTVSPropertyOp1
 70
     1
102
RTVSPropertyOp2
 70
     1
102
RTVSPropertyOp3
 70
     1
102
RTVSPropertyOp4
 70
     1
102
RTVSPropertyOp5
 70
     1
102
RTVSPropertyOp6
 70
     1
102
RTVSPropertyOp7
 70
     1
102
RTVSPropertyOp8
 70
     1
102
RTVSPropertyOp9
 70
     1
102
RTVSPropertyOp10
 70
     1
102
RTVSPropertyOp11
 70
     1
102
RTVSPropertyOp12
 70
     1
102
RTVSPropertyOp13
 70
     1
102
RTVSPropertyOp14
 70
     1
102
RTVSPropertyOp15
 70
     1
102
RTVSPropertyOp16
 70
     1
102
RTVSPropertyOp17
 70
     1
102
RTVSPropertyOp18
 70
     1
102
RTVSPropertyOp19
 70
     1
102
RTVSPropertyOp20
 70
     1
102
RTVSPropertyOp21
 70
     1
102
RTVSPropertyOp22
 70
     1
102
RTVSPropertyOp23
 70
     1
102
RTVSPropertyOp24
 70
     1
102
RTVSPropertyOp25
 70
     1
102
RTVSPropertyOp26
 70
     1
102
RTVSPropertyOp27
 70
     1
  0
XRECORD
  5
52B
102
{ACAD_REACTORS
330
52A
102
}
330
52A
100
AcDbXrecord
280
     1
102
RTVSPropertyOp0
 70
     1
102
RTVSPropertyOp1
 70
     1
102
RTVSPropertyOp2
 70
     1
102
RTVSPropertyOp3
 70
     1
102
RTVSPropertyOp4
 70
     1
102
RTVSPropertyOp5
 70
     1
102
RTVSPropertyOp6
 70
     1
102
RTVSPropertyOp7
 70
     1
102
RTVSPropertyOp8
 70
     1
102
RTVSPropertyOp9
 70
     1
102
RTVSPropertyOp10
 70
     1
102
RTVSPropertyOp11
 70
     1
102
RTVSPropertyOp12
 70
     1
102
RTVSPropertyOp13
 70
     1
102
RTVSPropertyOp14
 70
     1
102
RTVSPropertyOp15
 70
     1
102
RTVSPropertyOp16
 70
     1
102
RTVSPropertyOp17
 70
     1
102
RTVSPropertyOp18
 70
     1
102
RTVSPropertyOp19
 70
     1
102
RTVSPropertyOp20
 70
     1
102
RTVSPropertyOp21
 70
     1
102
RTVSPropertyOp22
 70
     1
102
RTVSPropertyOp23
 70
     1
102
RTVSPropertyOp24
 70
     1
102
RTVSPropertyOp25
 70
     1
102
RTVSPropertyOp26
 70
     1
102
RTVSPropertyOp27
 70
     1
  0
XRECORD
  5
52D
102
{ACAD_REACTORS
330
52C
102
}
330
52C
100
AcDbXrecord
280
     1
102
RTVSPropertyOp0
 70
     1
102
RTVSPropertyOp1
 70
     1
102
RTVSPropertyOp2
 70
     1
102
RTVSPropertyOp3
 70
     1
102
RTVSPropertyOp4
 70
     1
102
RTVSPropertyOp5
 70
     1
102
RTVSPropertyOp6
 70
     1
102
RTVSPropertyOp7
 70
     1
102
RTVSPropertyOp8
 70
     1
102
RTVSPropertyOp9
 70
     1
102
RTVSPropertyOp10
 70
     1
102
RTVSPropertyOp11
 70
     1
102
RTVSPropertyOp12
 70
     1
102
RTVSPropertyOp13
 70
     1
102
RTVSPropertyOp14
 70
     1
102
RTVSPropertyOp15
 70
     1
102
RTVSPropertyOp16
 70
     1
102
RTVSPropertyOp17
 70
     1
102
RTVSPropertyOp18
 70
     1
102
RTVSPropertyOp19
 70
     1
102
RTVSPropertyOp20
 70
     1
102
RTVSPropertyOp21
 70
     1
102
RTVSPropertyOp22
 70
     1
102
RTVSPropertyOp23
 70
     1
102
RTVSPropertyOp24
 70
     1
102
RTVSPropertyOp25
 70
     1
102
RTVSPropertyOp26
 70
     1
102
RTVSPropertyOp27
 70
     1
  0
XRECORD
  5
52F
102
{ACAD_REACTORS
330
52E
102
}
330
52E
100
AcDbXrecord
280
     1
102
RTVSPropertyOp0
 70
     1
102
RTVSPropertyOp1
 70
     1
102
RTVSPropertyOp2
 70
     1
102
RTVSPropertyOp3
 70
     1
102
RTVSPropertyOp4
 70
     1
102
RTVSPropertyOp5
 70
     1
102
RTVSPropertyOp6
 70
     1
102
RTVSPropertyOp7
 70
     1
102
RTVSPropertyOp8
 70
     1
102
RTVSPropertyOp9
 70
     1
102
RTVSPropertyOp10
 70
     1
102
RTVSPropertyOp11
 70
     1
102
RTVSPropertyOp12
 70
     1
102
RTVSPropertyOp13
 70
     1
102
RTVSPropertyOp14
 70
     1
102
RTVSPropertyOp15
 70
     1
102
RTVSPropertyOp16
 70
     1
102
RTVSPropertyOp17
 70
     1
102
RTVSPropertyOp18
 70
     1
102
RTVSPropertyOp19
 70
     1
102
RTVSPropertyOp20
 70
     1
102
RTVSPropertyOp21
 70
     1
102
RTVSPropertyOp22
 70
     1
102
RTVSPropertyOp23
 70
     1
102
RTVSPropertyOp24
 70
     1
102
RTVSPropertyOp25
 70
     1
102
RTVSPropertyOp26
 70
     1
102
RTVSPropertyOp27
 70
     1
  0
XRECORD
  5
543
102
{ACAD_REACTORS
330
542
102
}
330
542
100
AcDbXrecord
280
     1
102
RTVSPropertyOp0
 70
     1
102
RTVSPropertyOp1
 70
     1
102
RTVSPropertyOp2
 70
     1
102
RTVSPropertyOp3
 70
     1
102
RTVSPropertyOp4
 70
     1
102
RTVSPropertyOp5
 70
     1
102
RTVSPropertyOp6
 70
     1
102
RTVSPropertyOp7
 70
     1
102
RTVSPropertyOp8
 70
     1
102
RTVSPropertyOp9
 70
     1
102
RTVSPropertyOp10
 70
     1
102
RTVSPropertyOp11
 70
     1
102
RTVSPropertyOp12
 70
     1
102
RTVSPropertyOp13
 70
     1
102
RTVSPropertyOp14
 70
     1
102
RTVSPropertyOp15
 70
     1
102
RTVSPropertyOp16
 70
     1
102
RTVSPropertyOp17
 70
     1
102
RTVSPropertyOp18
 70
     1
102
RTVSPropertyOp19
 70
     1
102
RTVSPropertyOp20
 70
     1
102
RTVSPropertyOp21
 70
     1
102
RTVSPropertyOp22
 70
     1
102
RTVSPropertyOp23
 70
     1
102
RTVSPropertyOp24
 70
     1
102
RTVSPropertyOp25
 70
     1
102
RTVSPropertyOp26
 70
     1
102
RTVSPropertyOp27
 70
     1
  0
XRECORD
  5
539
102
{ACAD_REACTORS
330
538
102
}
330
538
100
AcDbXrecord
280
     1
102
RTVSPropertyOp0
 70
     1
102
RTVSPropertyOp1
 70
     1
102
RTVSPropertyOp2
 70
     1
102
RTVSPropertyOp3
 70
     1
102
RTVSPropertyOp4
 70
     1
102
RTVSPropertyOp5
 70
     1
102
RTVSPropertyOp6
 70
     1
102
RTVSPropertyOp7
 70
     1
102
RTVSPropertyOp8
 70
     1
102
RTVSPropertyOp9
 70
     1
102
RTVSPropertyOp10
 70
     1
102
RTVSPropertyOp11
 70
     1
102
RTVSPropertyOp12
 70
     1
102
RTVSPropertyOp13
 70
     1
102
RTVSPropertyOp14
 70
     1
102
RTVSPropertyOp15
 70
     1
102
RTVSPropertyOp16
 70
     1
102
RTVSPropertyOp17
 70
     1
102
RTVSPropertyOp18
 70
     1
102
RTVSPropertyOp19
 70
     1
102
RTVSPropertyOp20
 70
     1
102
RTVSPropertyOp21
 70
     1
102
RTVSPropertyOp22
 70
     1
102
RTVSPropertyOp23
 70
     1
102
RTVSPropertyOp24
 70
     1
102
RTVSPropertyOp25
 70
     1
102
RTVSPropertyOp26
 70
     1
102
RTVSPropertyOp27
 70
     1
  0
XRECORD
  5
541
102
{ACAD_REACTORS
330
540
102
}
330
540
100
AcDbXrecord
280
     1
102
RTVSPropertyOp0
 70
     1
102
RTVSPropertyOp1
 70
     1
102
RTVSPropertyOp2
 70
     1
102
RTVSPropertyOp3
 70
     1
102
RTVSPropertyOp4
 70
     1
102
RTVSPropertyOp5
 70
     1
102
RTVSPropertyOp6
 70
     1
102
RTVSPropertyOp7
 70
     1
102
RTVSPropertyOp8
 70
     1
102
RTVSPropertyOp9
 70
     1
102
RTVSPropertyOp10
 70
     1
102
RTVSPropertyOp11
 70
     1
102
RTVSPropertyOp12
 70
     1
102
RTVSPropertyOp13
 70
     1
102
RTVSPropertyOp14
 70
     1
102
RTVSPropertyOp15
 70
     1
102
RTVSPropertyOp16
 70
     1
102
RTVSPropertyOp17
 70
     1
102
RTVSPropertyOp18
 70
     1
102
RTVSPropertyOp19
 70
     1
102
RTVSPropertyOp20
 70
     1
102
RTVSPropertyOp21
 70
     1
102
RTVSPropertyOp22
 70
     1
102
RTVSPropertyOp23
 70
     1
102
RTVSPropertyOp24
 70
     1
102
RTVSPropertyOp25
 70
     1
102
RTVSPropertyOp26
 70
     1
102
RTVSPropertyOp27
 70
     1
  0
ENDSEC
  0
EOF
