  0
SECTION
  2
HEADER
  9
$ACADVER
  1
AC1014
  9
$ACADMAINTVER
 70
     9
  9
$DWGCODEPAGE
  3
ANSI_1252
  9
$INSBASE
 10
0.0
 20
0.0
 30
0.0
  9
$EXTMIN
 10
3.776583816453586
 20
9.1003937007874
 30
0.0
  9
$EXTMAX
 10
37.98523622047243
 20
28.81102362204724
 30
0.0
  9
$LIMMIN
 10
0.0
 20
0.0
  9
$LIMMAX
 10
12.0
 20
9.0
  9
$ORTHOMODE
 70
     0
  9
$REGENMODE
 70
     1
  9
$FILLMODE
 70
     1
  9
$QTEXTMODE
 70
     0
  9
$MIRRTEXT
 70
     1
  9
$DRAGMODE
 70
     2
  9
$LTSCALE
 40
1.0
  9
$OSMODE
 70
    37
  9
$ATTMODE
 70
     1
  9
$TEXTSIZE
 40
0.2
  9
$TRACEWID
 40
0.05
  9
$TEXTSTYLE
  7
STANDARD
  9
$CLAYER
  8
0
  9
$CELTYPE
  6
BYLAYER
  9
$CECOLOR
 62
   256
  9
$CELTSCALE
 40
1.0
  9
$DELOBJ
 70
     1
  9
$DISPSILH
 70
     0
  9
$DIMSCALE
 40
1.0
  9
$DIMASZ
 40
0.18
  9
$DIMEXO
 40
0.0625
  9
$DIMDLI
 40
0.38
  9
$DIMRND
 40
0.0
  9
$DIMDLE
 40
0.0
  9
$DIMEXE
 40
0.18
  9
$DIMTP
 40
0.0
  9
$DIMTM
 40
0.0
  9
$DIMTXT
 40
0.18
  9
$DIMCEN
 40
0.09
  9
$DIMTSZ
 40
0.0
  9
$DIMTOL
 70
     0
  9
$DIMLIM
 70
     0
  9
$DIMTIH
 70
     1
  9
$DIMTOH
 70
     1
  9
$DIMSE1
 70
     0
  9
$DIMSE2
 70
     0
  9
$DIMTAD
 70
     0
  9
$DIMZIN
 70
     0
  9
$DIMBLK
  1

  9
$DIMASO
 70
     1
  9
$DIMSHO
 70
     1
  9
$DIMPOST
  1

  9
$DIMAPOST
  1

  9
$DIMALT
 70
     0
  9
$DIMALTD
 70
     2
  9
$DIMALTF
 40
25.4
  9
$DIMLFAC
 40
1.0
  9
$DIMTOFL
 70
     0
  9
$DIMTVP
 40
0.0
  9
$DIMTIX
 70
     0
  9
$DIMSOXD
 70
     0
  9
$DIMSAH
 70
     0
  9
$DIMBLK1
  1

  9
$DIMBLK2
  1

  9
$DIMSTYLE
  2
STANDARD
  9
$DIMCLRD
 70
     0
  9
$DIMCLRE
 70
     0
  9
$DIMCLRT
 70
     0
  9
$DIMTFAC
 40
1.0
  9
$DIMGAP
 40
0.09
  9
$DIMJUST
 70
     0
  9
$DIMSD1
 70
     0
  9
$DIMSD2
 70
     0
  9
$DIMTOLJ
 70
     1
  9
$DIMTZIN
 70
     0
  9
$DIMALTZ
 70
     0
  9
$DIMALTTZ
 70
     0
  9
$DIMFIT
 70
     5
  9
$DIMUPT
 70
     0
  9
$DIMUNIT
 70
     2
  9
$DIMDEC
 70
     4
  9
$DIMTDEC
 70
     4
  9
$DIMALTU
 70
     2
  9
$DIMALTTD
 70
     2
  9
$DIMTXSTY
  7
STANDARD
  9
$DIMAUNIT
 70
     0
  9
$LUNITS
 70
     2
  9
$LUPREC
 70
     4
  9
$SKETCHINC
 40
0.1
  9
$FILLETRAD
 40
0.0
  9
$AUNITS
 70
     0
  9
$AUPREC
 70
     0
  9
$MENU
  1
acad
  9
$ELEVATION
 40
0.0
  9
$PELEVATION
 40
0.0
  9
$THICKNESS
 40
0.0
  9
$LIMCHECK
 70
     0
  9
$BLIPMODE
 70
     0
  9
$CHAMFERA
 40
0.0
  9
$CHAMFERB
 40
0.0
  9
$CHAMFERC
 40
0.0
  9
$CHAMFERD
 40
0.0
  9
$SKPOLY
 70
     0
  9
$TDCREATE
 40
2452885.658020833
  9
$TDUPDATE
 40
2452885.672018946
  9
$TDINDWG
 40
0.0135816435
  9
$TDUSRTIMER
 40
0.0135816435
  9
$USRTIMER
 70
     1
  9
$ANGBASE
 50
0.0
  9
$ANGDIR
 70
     0
  9
$PDMODE
 70
     0
  9
$PDSIZE
 40
0.0
  9
$PLINEWID
 40
0.0
  9
$COORDS
 70
     1
  9
$SPLFRAME
 70
     0
  9
$SPLINETYPE
 70
     6
  9
$SPLINESEGS
 70
     8
  9
$ATTDIA
 70
     0
  9
$ATTREQ
 70
     1
  9
$HANDLING
 70
-16383
  9
$HANDSEED
  5
11C7
  9
$SURFTAB1
 70
     6
  9
$SURFTAB2
 70
     6
  9
$SURFTYPE
 70
     6
  9
$SURFU
 70
     6
  9
$SURFV
 70
     6
  9
$UCSNAME
  2

  9
$UCSORG
 10
0.0
 20
0.0
 30
0.0
  9
$UCSXDIR
 10
1.0
 20
0.0
 30
0.0
  9
$UCSYDIR
 10
0.0
 20
1.0
 30
0.0
  9
$PUCSNAME
  2

  9
$PUCSORG
 10
0.0
 20
0.0
 30
0.0
  9
$PUCSXDIR
 10
1.0
 20
0.0
 30
0.0
  9
$PUCSYDIR
 10
0.0
 20
1.0
 30
0.0
  9
$USERI1
 70
     0
  9
$USERI2
 70
     0
  9
$USERI3
 70
     0
  9
$USERI4
 70
     0
  9
$USERI5
 70
     0
  9
$USERR1
 40
0.0
  9
$USERR2
 40
0.0
  9
$USERR3
 40
0.0
  9
$USERR4
 40
0.0
  9
$USERR5
 40
0.0
  9
$WORLDVIEW
 70
     1
  9
$SHADEDGE
 70
     3
  9
$SHADEDIF
 70
    70
  9
$TILEMODE
 70
     1
  9
$MAXACTVP
 70
    16
  9
$PINSBASE
 10
0.0
 20
0.0
 30
0.0
  9
$PLIMCHECK
 70
     0
  9
$PEXTMIN
 10
1.000000000000000E+20
 20
1.000000000000000E+20
 30
1.000000000000000E+20
  9
$PEXTMAX
 10
-1.000000000000000E+20
 20
-1.000000000000000E+20
 30
-1.000000000000000E+20
  9
$PLIMMIN
 10
0.0
 20
0.0
  9
$PLIMMAX
 10
12.0
 20
9.0
  9
$UNITMODE
 70
     0
  9
$VISRETAIN
 70
     0
  9
$PLINEGEN
 70
     0
  9
$PSLTSCALE
 70
     1
  9
$TREEDEPTH
 70
  3020
  9
$PICKSTYLE
 70
     1
  9
$CMLSTYLE
  2
STANDARD
  9
$CMLJUST
 70
     0
  9
$CMLSCALE
 40
1.0
  9
$PROXYGRAPHICS
 70
     1
  9
$MEASUREMENT
 70
     0
  0
ENDSEC
  0
SECTION
  2
CLASSES
  0
CLASS
  1
ACDBDICTIONARYWDFLT
  2
AcDbDictionaryWithDefault
  3
AutoCAD 2000
 90
        0
280
     0
281
     0
  0
CLASS
  1
ACDBPLACEHOLDER
  2
AcDbPlaceHolder
  3
AutoCAD 2000
 90
        0
280
     0
281
     0
  0
CLASS
  1
LAYOUT
  2
AcDbLayout
  3
AutoCAD 2000
 90
        0
280
     0
281
     0
  0
CLASS
  1
LONG_TRANSACTION
  2
AcDbLongTransaction
  3
AutoCAD 2000
 90
        0
280
     0
281
     0
  0
CLASS
  1
LWPOLYLINE
  2
AcDbPolyline
  3
AutoCAD 2000
 90
        0
280
     0
281
     1
  0
CLASS
  1
HATCH
  2
AcDbHatch
  3
AutoCAD 2000
 90
        0
280
     0
281
     1
  0
CLASS
  1
XRECORD
  2
AcDbXrecord
  3
AutoCAD 2000
 90
        0
280
     0
281
     0
  0
ENDSEC
  0
SECTION
  2
TABLES
  0
TABLE
  2
VPORT
  5
8
330
0
100
AcDbSymbolTable
 70
     3
  0
VPORT
  5
11A1
330
8
100
AcDbSymbolTableRecord
100
AcDbViewportTableRecord
  2
*ACTIVE
 70
     0
 10
0.0
 20
0.0
 11
1.0
 21
1.0
 12
20.88091001846301
 22
18.95570866141731
 13
0.0
 23
0.0
 14
1.0
 24
1.0
 15
0.0
 25
0.0
 16
0.0
 26
0.0
 36
1.0
 17
0.0
 27
0.0
 37
0.0
 40
22.88189722726273
 41
1.502518891687657
 42
50.0
 43
0.0
 44
0.0
 50
0.0
 51
0.0
 71
     0
 72
   100
 73
     1
 74
     1
 75
     0
 76
     0
 77
     0
 78
     0
  0
ENDTAB
  0
TABLE
  2
LTYPE
  5
5
330
0
100
AcDbSymbolTable
 70
    25
  0
LTYPE
  5
13
330
5
100
AcDbSymbolTableRecord
100
AcDbLinetypeTableRecord
  2
BYBLOCK
 70
     0
  3

 72
    65
 73
     0
 40
0.0
  0
LTYPE
  5
14
330
5
100
AcDbSymbolTableRecord
100
AcDbLinetypeTableRecord
  2
BYLAYER
 70
     0
  3

 72
    65
 73
     0
 40
0.0
  0
LTYPE
  5
15
330
5
100
AcDbSymbolTableRecord
100
AcDbLinetypeTableRecord
  2
CONTINUOUS
 70
     0
  3
Solid line
 72
    65
 73
     0
 40
0.0
  0
LTYPE
  5
22
330
5
100
AcDbSymbolTableRecord
100
AcDbLinetypeTableRecord
  2
BORDER
 70
     0
  3
__ __ . __ __ . __ __ . __ __ . __ __ . __ __ .
 72
    65
 73
     6
 40
1.75
 49
0.5
 74
     0
 49
-0.25
 74
     0
 49
0.5
 74
     0
 49
-0.25
 74
     0
 49
0.5
 74
     0
 49
-0.25
 74
     0
  0
LTYPE
  5
23
330
5
100
AcDbSymbolTableRecord
100
AcDbLinetypeTableRecord
  2
BORDER2
 70
     0
  3
__.__.__.__.__.__.__.__.__.__.__.__.__.__.__.__
 72
    65
 73
     6
 40
0.875
 49
0.25
 74
     0
 49
-0.125
 74
     0
 49
0.25
 74
     0
 49
-0.125
 74
     0
 49
0.25
 74
     0
 49
-0.125
 74
     0
  0
LTYPE
  5
24
330
5
100
AcDbSymbolTableRecord
100
AcDbLinetypeTableRecord
  2
BORDERX2
 70
     0
  3
____  ____  .  ____  ____  .  
 72
    65
 73
     6
 40
3.5
 49
1.0
 74
     0
 49
-0.5
 74
     0
 49
1.0
 74
     0
 49
-0.5
 74
     0
 49
1.0
 74
     0
 49
-0.5
 74
     0
  0
LTYPE
  5
25
330
5
100
AcDbSymbolTableRecord
100
AcDbLinetypeTableRecord
  2
CENTER
 70
     0
  3
____ _ ____ _ ____ _ ____ _ ____ _ ____ _ ____
 72
    65
 73
     4
 40
2.0
 49
1.25
 74
     0
 49
-0.25
 74
     0
 49
0.25
 74
     0
 49
-0.25
 74
     0
  0
LTYPE
  5
26
330
5
100
AcDbSymbolTableRecord
100
AcDbLinetypeTableRecord
  2
CENTER2
 70
     0
  3
____ _ ____ _ ____ _ ____ _ ____ _ ____ _ ____
 72
    65
 73
     4
 40
1.125
 49
0.75
 74
     0
 49
-0.125
 74
     0
 49
0.125
 74
     0
 49
-0.125
 74
     0
  0
LTYPE
  5
27
330
5
100
AcDbSymbolTableRecord
100
AcDbLinetypeTableRecord
  2
CENTERX2
 70
     0
  3
________  __  ________  __  ________  __  
 72
    65
 73
     4
 40
4.0
 49
2.5
 74
     0
 49
-0.5
 74
     0
 49
0.5
 74
     0
 49
-0.5
 74
     0
  0
LTYPE
  5
28
330
5
100
AcDbSymbolTableRecord
100
AcDbLinetypeTableRecord
  2
DASHDOT
 70
     0
  3
__ . __ . __ . __ . __ . __ . __ . 
 72
    65
 73
     4
 40
1.0
 49
0.5
 74
     0
 49
-0.25
 74
     0
 49
0.0
 74
     0
 49
-0.25
 74
     0
  0
LTYPE
  5
29
330
5
100
AcDbSymbolTableRecord
100
AcDbLinetypeTableRecord
  2
DASHDOT2
 70
     0
  3
_._._._._._._._._._._._._._._._.
 72
    65
 73
     4
 40
0.5
 49
0.25
 74
     0
 49
-0.125
 74
     0
 49
0.0
 74
     0
 49
-0.125
 74
     0
  0
LTYPE
  5
2A
330
5
100
AcDbSymbolTableRecord
100
AcDbLinetypeTableRecord
  2
DASHDOTX2
 70
     0
  3
____  .  ____  .  ____  .  ____  .  
 72
    65
 73
     4
 40
2.0
 49
1.0
 74
     0
 49
-0.5
 74
     0
 49
0.0
 74
     0
 49
-0.5
 74
     0
  0
LTYPE
  5
2B
330
5
100
AcDbSymbolTableRecord
100
AcDbLinetypeTableRecord
  2
DASHED
 70
     0
  3
__ __ __ __ __ __ __ __ __ __ __ __ 
 72
    65
 73
     2
 40
0.75
 49
0.5
 74
     0
 49
-0.25
 74
     0
  0
LTYPE
  5
2C
330
5
100
AcDbSymbolTableRecord
100
AcDbLinetypeTableRecord
  2
DASHED2
 70
     0
  3
_ _ _ _ _ _ _ _ _ _ _ _ _ _ _ _ _ _ 
 72
    65
 73
     2
 40
0.375
 49
0.25
 74
     0
 49
-0.125
 74
     0
  0
LTYPE
  5
2D
330
5
100
AcDbSymbolTableRecord
100
AcDbLinetypeTableRecord
  2
DASHEDX2
 70
     0
  3
____  ____  ____  ____  ____  ____  
 72
    65
 73
     2
 40
1.5
 49
1.0
 74
     0
 49
-0.5
 74
     0
  0
LTYPE
  5
2E
330
5
100
AcDbSymbolTableRecord
100
AcDbLinetypeTableRecord
  2
DIVIDE
 70
     0
  3
____ . . ____ . . ____ . . ____ . . 
 72
    65
 73
     6
 40
1.25
 49
0.5
 74
     0
 49
-0.25
 74
     0
 49
0.0
 74
     0
 49
-0.25
 74
     0
 49
0.0
 74
     0
 49
-0.25
 74
     0
  0
LTYPE
  5
2F
330
5
100
AcDbSymbolTableRecord
100
AcDbLinetypeTableRecord
  2
DIVIDE2
 70
     0
  3
__..__..__..__..__..__..__..__..__..
 72
    65
 73
     6
 40
0.625
 49
0.25
 74
     0
 49
-0.125
 74
     0
 49
0.0
 74
     0
 49
-0.125
 74
     0
 49
0.0
 74
     0
 49
-0.125
 74
     0
  0
LTYPE
  5
30
330
5
100
AcDbSymbolTableRecord
100
AcDbLinetypeTableRecord
  2
DIVIDEX2
 70
     0
  3
________  .  .  ________  .  .  ________  .  . 
 72
    65
 73
     6
 40
2.5
 49
1.0
 74
     0
 49
-0.5
 74
     0
 49
0.0
 74
     0
 49
-0.5
 74
     0
 49
0.0
 74
     0
 49
-0.5
 74
     0
  0
LTYPE
  5
31
330
5
100
AcDbSymbolTableRecord
100
AcDbLinetypeTableRecord
  2
DOT
 70
     0
  3
. . . . . . . . . . . . . . . . . . 
 72
    65
 73
     2
 40
0.25
 49
0.0
 74
     0
 49
-0.25
 74
     0
  0
LTYPE
  5
32
330
5
100
AcDbSymbolTableRecord
100
AcDbLinetypeTableRecord
  2
DOT2
 70
     0
  3
....................................
 72
    65
 73
     2
 40
0.125
 49
0.0
 74
     0
 49
-0.125
 74
     0
  0
LTYPE
  5
33
330
5
100
AcDbSymbolTableRecord
100
AcDbLinetypeTableRecord
  2
DOTX2
 70
     0
  3
.  .  .  .  .  .  .  .  .  .  .  .  .  
 72
    65
 73
     2
 40
0.5
 49
0.0
 74
     0
 49
-0.5
 74
     0
  0
LTYPE
  5
34
330
5
100
AcDbSymbolTableRecord
100
AcDbLinetypeTableRecord
  2
HIDDEN
 70
     0
  3
__ __ __ __ __ __ __ __ __ __ __ __ 
 72
    65
 73
     2
 40
0.375
 49
0.25
 74
     0
 49
-0.125
 74
     0
  0
LTYPE
  5
35
330
5
100
AcDbSymbolTableRecord
100
AcDbLinetypeTableRecord
  2
HIDDEN2
 70
     0
  3
_ _ _ _ _ _ _ _ _ _ _ _ _ _ _ _ _ _ 
 72
    65
 73
     2
 40
0.1875
 49
0.125
 74
     0
 49
-0.0625
 74
     0
  0
LTYPE
  5
36
330
5
100
AcDbSymbolTableRecord
100
AcDbLinetypeTableRecord
  2
HIDDENX2
 70
     0
  3
____ ____ ____ ____ ____ ____ ____ 
 72
    65
 73
     2
 40
0.75
 49
0.5
 74
     0
 49
-0.25
 74
     0
  0
LTYPE
  5
37
330
5
100
AcDbSymbolTableRecord
100
AcDbLinetypeTableRecord
  2
PHANTOM
 70
     0
  3
______  __  __  ______  __  __  
 72
    65
 73
     6
 40
2.5
 49
1.25
 74
     0
 49
-0.25
 74
     0
 49
0.25
 74
     0
 49
-0.25
 74
     0
 49
0.25
 74
     0
 49
-0.25
 74
     0
  0
LTYPE
  5
38
330
5
100
AcDbSymbolTableRecord
100
AcDbLinetypeTableRecord
  2
PHANTOM2
 70
     0
  3
___ _ _ ___ _ _ ___ _ _ ___ _ _ 
 72
    65
 73
     6
 40
1.25
 49
0.625
 74
     0
 49
-0.125
 74
     0
 49
0.125
 74
     0
 49
-0.125
 74
     0
 49
0.125
 74
     0
 49
-0.125
 74
     0
  0
LTYPE
  5
39
330
5
100
AcDbSymbolTableRecord
100
AcDbLinetypeTableRecord
  2
PHANTOMX2
 70
     0
  3
___ _ _ ___ _ _ ___ _ _ ___ _ _ 
 72
    65
 73
     6
 40
5.0
 49
2.5
 74
     0
 49
-0.5
 74
     0
 49
0.5
 74
     0
 49
-0.5
 74
     0
 49
0.5
 74
     0
 49
-0.5
 74
     0
  0
ENDTAB
  0
TABLE
  2
LAYER
  5
2
330
0
100
AcDbSymbolTable
 70
   256
  0
LAYER
  5
10
330
2
100
AcDbSymbolTableRecord
100
AcDbLayerTableRecord
  2
0
 70
     0
 62
     7
  6
CONTINUOUS
  0
LAYER
  5
3A
330
2
100
AcDbSymbolTableRecord
100
AcDbLayerTableRecord
  2
1
 70
     0
 62
     1
  6
CONTINUOUS
  0
LAYER
  5
3B
330
2
100
AcDbSymbolTableRecord
100
AcDbLayerTableRecord
  2
2
 70
     0
 62
     2
  6
CONTINUOUS
  0
LAYER
  5
3C
330
2
100
AcDbSymbolTableRecord
100
AcDbLayerTableRecord
  2
3
 70
     0
 62
     3
  6
CONTINUOUS
  0
LAYER
  5
3D
330
2
100
AcDbSymbolTableRecord
100
AcDbLayerTableRecord
  2
4
 70
     0
 62
     4
  6
CONTINUOUS
  0
LAYER
  5
3E
330
2
100
AcDbSymbolTableRecord
100
AcDbLayerTableRecord
  2
5
 70
     0
 62
     5
  6
CONTINUOUS
  0
LAYER
  5
3F
330
2
100
AcDbSymbolTableRecord
100
AcDbLayerTableRecord
  2
6
 70
     0
 62
     6
  6
CONTINUOUS
  0
LAYER
  5
40
330
2
100
AcDbSymbolTableRecord
100
AcDbLayerTableRecord
  2
7
 70
     0
 62
     7
  6
CONTINUOUS
  0
LAYER
  5
41
330
2
100
AcDbSymbolTableRecord
100
AcDbLayerTableRecord
  2
8
 70
     0
 62
     8
  6
CONTINUOUS
  0
LAYER
  5
42
330
2
100
AcDbSymbolTableRecord
100
AcDbLayerTableRecord
  2
9
 70
     0
 62
     9
  6
CONTINUOUS
  0
LAYER
  5
43
330
2
100
AcDbSymbolTableRecord
100
AcDbLayerTableRecord
  2
10
 70
     0
 62
    10
  6
CONTINUOUS
  0
LAYER
  5
44
330
2
100
AcDbSymbolTableRecord
100
AcDbLayerTableRecord
  2
11
 70
     0
 62
    11
  6
CONTINUOUS
  0
LAYER
  5
45
330
2
100
AcDbSymbolTableRecord
100
AcDbLayerTableRecord
  2
12
 70
     0
 62
    12
  6
CONTINUOUS
  0
LAYER
  5
46
330
2
100
AcDbSymbolTableRecord
100
AcDbLayerTableRecord
  2
13
 70
     0
 62
    13
  6
CONTINUOUS
  0
LAYER
  5
47
330
2
100
AcDbSymbolTableRecord
100
AcDbLayerTableRecord
  2
14
 70
     0
 62
    14
  6
CONTINUOUS
  0
LAYER
  5
48
330
2
100
AcDbSymbolTableRecord
100
AcDbLayerTableRecord
  2
15
 70
     0
 62
    15
  6
CONTINUOUS
  0
LAYER
  5
49
330
2
100
AcDbSymbolTableRecord
100
AcDbLayerTableRecord
  2
16
 70
     0
 62
    16
  6
CONTINUOUS
  0
LAYER
  5
4A
330
2
100
AcDbSymbolTableRecord
100
AcDbLayerTableRecord
  2
17
 70
     0
 62
    17
  6
CONTINUOUS
  0
LAYER
  5
4B
330
2
100
AcDbSymbolTableRecord
100
AcDbLayerTableRecord
  2
18
 70
     0
 62
    18
  6
CONTINUOUS
  0
LAYER
  5
4C
330
2
100
AcDbSymbolTableRecord
100
AcDbLayerTableRecord
  2
19
 70
     0
 62
    19
  6
CONTINUOUS
  0
LAYER
  5
4D
330
2
100
AcDbSymbolTableRecord
100
AcDbLayerTableRecord
  2
20
 70
     0
 62
    20
  6
CONTINUOUS
  0
LAYER
  5
4E
330
2
100
AcDbSymbolTableRecord
100
AcDbLayerTableRecord
  2
21
 70
     0
 62
    21
  6
CONTINUOUS
  0
LAYER
  5
4F
330
2
100
AcDbSymbolTableRecord
100
AcDbLayerTableRecord
  2
22
 70
     0
 62
    22
  6
CONTINUOUS
  0
LAYER
  5
50
330
2
100
AcDbSymbolTableRecord
100
AcDbLayerTableRecord
  2
23
 70
     0
 62
    23
  6
CONTINUOUS
  0
LAYER
  5
51
330
2
100
AcDbSymbolTableRecord
100
AcDbLayerTableRecord
  2
24
 70
     0
 62
    24
  6
CONTINUOUS
  0
LAYER
  5
52
330
2
100
AcDbSymbolTableRecord
100
AcDbLayerTableRecord
  2
25
 70
     0
 62
    25
  6
CONTINUOUS
  0
LAYER
  5
53
330
2
100
AcDbSymbolTableRecord
100
AcDbLayerTableRecord
  2
26
 70
     0
 62
    26
  6
CONTINUOUS
  0
LAYER
  5
54
330
2
100
AcDbSymbolTableRecord
100
AcDbLayerTableRecord
  2
27
 70
     0
 62
    27
  6
CONTINUOUS
  0
LAYER
  5
55
330
2
100
AcDbSymbolTableRecord
100
AcDbLayerTableRecord
  2
28
 70
     0
 62
    28
  6
CONTINUOUS
  0
LAYER
  5
56
330
2
100
AcDbSymbolTableRecord
100
AcDbLayerTableRecord
  2
29
 70
     0
 62
    29
  6
CONTINUOUS
  0
LAYER
  5
57
330
2
100
AcDbSymbolTableRecord
100
AcDbLayerTableRecord
  2
30
 70
     0
 62
    30
  6
CONTINUOUS
  0
LAYER
  5
58
330
2
100
AcDbSymbolTableRecord
100
AcDbLayerTableRecord
  2
31
 70
     0
 62
    31
  6
CONTINUOUS
  0
LAYER
  5
59
330
2
100
AcDbSymbolTableRecord
100
AcDbLayerTableRecord
  2
32
 70
     0
 62
    32
  6
CONTINUOUS
  0
LAYER
  5
5A
330
2
100
AcDbSymbolTableRecord
100
AcDbLayerTableRecord
  2
33
 70
     0
 62
    33
  6
CONTINUOUS
  0
LAYER
  5
5B
330
2
100
AcDbSymbolTableRecord
100
AcDbLayerTableRecord
  2
34
 70
     0
 62
    34
  6
CONTINUOUS
  0
LAYER
  5
5C
330
2
100
AcDbSymbolTableRecord
100
AcDbLayerTableRecord
  2
35
 70
     0
 62
    35
  6
CONTINUOUS
  0
LAYER
  5
5D
330
2
100
AcDbSymbolTableRecord
100
AcDbLayerTableRecord
  2
36
 70
     0
 62
    36
  6
CONTINUOUS
  0
LAYER
  5
5E
330
2
100
AcDbSymbolTableRecord
100
AcDbLayerTableRecord
  2
37
 70
     0
 62
    37
  6
CONTINUOUS
  0
LAYER
  5
5F
330
2
100
AcDbSymbolTableRecord
100
AcDbLayerTableRecord
  2
38
 70
     0
 62
    38
  6
CONTINUOUS
  0
LAYER
  5
60
330
2
100
AcDbSymbolTableRecord
100
AcDbLayerTableRecord
  2
39
 70
     0
 62
    39
  6
CONTINUOUS
  0
LAYER
  5
61
330
2
100
AcDbSymbolTableRecord
100
AcDbLayerTableRecord
  2
40
 70
     0
 62
    40
  6
CONTINUOUS
  0
LAYER
  5
62
330
2
100
AcDbSymbolTableRecord
100
AcDbLayerTableRecord
  2
41
 70
     0
 62
    41
  6
CONTINUOUS
  0
LAYER
  5
63
330
2
100
AcDbSymbolTableRecord
100
AcDbLayerTableRecord
  2
42
 70
     0
 62
    42
  6
CONTINUOUS
  0
LAYER
  5
64
330
2
100
AcDbSymbolTableRecord
100
AcDbLayerTableRecord
  2
43
 70
     0
 62
    43
  6
CONTINUOUS
  0
LAYER
  5
65
330
2
100
AcDbSymbolTableRecord
100
AcDbLayerTableRecord
  2
44
 70
     0
 62
    44
  6
CONTINUOUS
  0
LAYER
  5
66
330
2
100
AcDbSymbolTableRecord
100
AcDbLayerTableRecord
  2
45
 70
     0
 62
    45
  6
CONTINUOUS
  0
LAYER
  5
67
330
2
100
AcDbSymbolTableRecord
100
AcDbLayerTableRecord
  2
46
 70
     0
 62
    46
  6
CONTINUOUS
  0
LAYER
  5
68
330
2
100
AcDbSymbolTableRecord
100
AcDbLayerTableRecord
  2
47
 70
     0
 62
    47
  6
CONTINUOUS
  0
LAYER
  5
69
330
2
100
AcDbSymbolTableRecord
100
AcDbLayerTableRecord
  2
48
 70
     0
 62
    48
  6
CONTINUOUS
  0
LAYER
  5
6A
330
2
100
AcDbSymbolTableRecord
100
AcDbLayerTableRecord
  2
49
 70
     0
 62
    49
  6
CONTINUOUS
  0
LAYER
  5
6B
330
2
100
AcDbSymbolTableRecord
100
AcDbLayerTableRecord
  2
50
 70
     0
 62
    50
  6
CONTINUOUS
  0
LAYER
  5
6C
330
2
100
AcDbSymbolTableRecord
100
AcDbLayerTableRecord
  2
51
 70
     0
 62
    51
  6
CONTINUOUS
  0
LAYER
  5
6D
330
2
100
AcDbSymbolTableRecord
100
AcDbLayerTableRecord
  2
52
 70
     0
 62
    52
  6
CONTINUOUS
  0
LAYER
  5
6E
330
2
100
AcDbSymbolTableRecord
100
AcDbLayerTableRecord
  2
53
 70
     0
 62
    53
  6
CONTINUOUS
  0
LAYER
  5
6F
330
2
100
AcDbSymbolTableRecord
100
AcDbLayerTableRecord
  2
54
 70
     0
 62
    54
  6
CONTINUOUS
  0
LAYER
  5
70
330
2
100
AcDbSymbolTableRecord
100
AcDbLayerTableRecord
  2
55
 70
     0
 62
    55
  6
CONTINUOUS
  0
LAYER
  5
71
330
2
100
AcDbSymbolTableRecord
100
AcDbLayerTableRecord
  2
56
 70
     0
 62
    56
  6
CONTINUOUS
  0
LAYER
  5
72
330
2
100
AcDbSymbolTableRecord
100
AcDbLayerTableRecord
  2
57
 70
     0
 62
    57
  6
CONTINUOUS
  0
LAYER
  5
73
330
2
100
AcDbSymbolTableRecord
100
AcDbLayerTableRecord
  2
58
 70
     0
 62
    58
  6
CONTINUOUS
  0
LAYER
  5
74
330
2
100
AcDbSymbolTableRecord
100
AcDbLayerTableRecord
  2
59
 70
     0
 62
    59
  6
CONTINUOUS
  0
LAYER
  5
75
330
2
100
AcDbSymbolTableRecord
100
AcDbLayerTableRecord
  2
60
 70
     0
 62
    60
  6
CONTINUOUS
  0
LAYER
  5
76
330
2
100
AcDbSymbolTableRecord
100
AcDbLayerTableRecord
  2
61
 70
     0
 62
    61
  6
CONTINUOUS
  0
LAYER
  5
77
330
2
100
AcDbSymbolTableRecord
100
AcDbLayerTableRecord
  2
62
 70
     0
 62
    62
  6
CONTINUOUS
  0
LAYER
  5
78
330
2
100
AcDbSymbolTableRecord
100
AcDbLayerTableRecord
  2
63
 70
     0
 62
    63
  6
CONTINUOUS
  0
LAYER
  5
79
330
2
100
AcDbSymbolTableRecord
100
AcDbLayerTableRecord
  2
64
 70
     0
 62
    64
  6
CONTINUOUS
  0
LAYER
  5
7A
330
2
100
AcDbSymbolTableRecord
100
AcDbLayerTableRecord
  2
65
 70
     0
 62
    65
  6
CONTINUOUS
  0
LAYER
  5
7B
330
2
100
AcDbSymbolTableRecord
100
AcDbLayerTableRecord
  2
66
 70
     0
 62
    66
  6
CONTINUOUS
  0
LAYER
  5
7C
330
2
100
AcDbSymbolTableRecord
100
AcDbLayerTableRecord
  2
67
 70
     0
 62
    67
  6
CONTINUOUS
  0
LAYER
  5
7D
330
2
100
AcDbSymbolTableRecord
100
AcDbLayerTableRecord
  2
68
 70
     0
 62
    68
  6
CONTINUOUS
  0
LAYER
  5
7E
330
2
100
AcDbSymbolTableRecord
100
AcDbLayerTableRecord
  2
69
 70
     0
 62
    69
  6
CONTINUOUS
  0
LAYER
  5
7F
330
2
100
AcDbSymbolTableRecord
100
AcDbLayerTableRecord
  2
70
 70
     0
 62
    70
  6
CONTINUOUS
  0
LAYER
  5
80
330
2
100
AcDbSymbolTableRecord
100
AcDbLayerTableRecord
  2
71
 70
     0
 62
    71
  6
CONTINUOUS
  0
LAYER
  5
81
330
2
100
AcDbSymbolTableRecord
100
AcDbLayerTableRecord
  2
72
 70
     0
 62
    72
  6
CONTINUOUS
  0
LAYER
  5
82
330
2
100
AcDbSymbolTableRecord
100
AcDbLayerTableRecord
  2
73
 70
     0
 62
    73
  6
CONTINUOUS
  0
LAYER
  5
83
330
2
100
AcDbSymbolTableRecord
100
AcDbLayerTableRecord
  2
74
 70
     0
 62
    74
  6
CONTINUOUS
  0
LAYER
  5
84
330
2
100
AcDbSymbolTableRecord
100
AcDbLayerTableRecord
  2
75
 70
     0
 62
    75
  6
CONTINUOUS
  0
LAYER
  5
85
330
2
100
AcDbSymbolTableRecord
100
AcDbLayerTableRecord
  2
76
 70
     0
 62
    76
  6
CONTINUOUS
  0
LAYER
  5
86
330
2
100
AcDbSymbolTableRecord
100
AcDbLayerTableRecord
  2
77
 70
     0
 62
    77
  6
CONTINUOUS
  0
LAYER
  5
87
330
2
100
AcDbSymbolTableRecord
100
AcDbLayerTableRecord
  2
78
 70
     0
 62
    78
  6
CONTINUOUS
  0
LAYER
  5
88
330
2
100
AcDbSymbolTableRecord
100
AcDbLayerTableRecord
  2
79
 70
     0
 62
    79
  6
CONTINUOUS
  0
LAYER
  5
89
330
2
100
AcDbSymbolTableRecord
100
AcDbLayerTableRecord
  2
80
 70
     0
 62
    80
  6
CONTINUOUS
  0
LAYER
  5
8A
330
2
100
AcDbSymbolTableRecord
100
AcDbLayerTableRecord
  2
81
 70
     0
 62
    81
  6
CONTINUOUS
  0
LAYER
  5
8B
330
2
100
AcDbSymbolTableRecord
100
AcDbLayerTableRecord
  2
82
 70
     0
 62
    82
  6
CONTINUOUS
  0
LAYER
  5
8C
330
2
100
AcDbSymbolTableRecord
100
AcDbLayerTableRecord
  2
83
 70
     0
 62
    83
  6
CONTINUOUS
  0
LAYER
  5
8D
330
2
100
AcDbSymbolTableRecord
100
AcDbLayerTableRecord
  2
84
 70
     0
 62
    84
  6
CONTINUOUS
  0
LAYER
  5
8E
330
2
100
AcDbSymbolTableRecord
100
AcDbLayerTableRecord
  2
85
 70
     0
 62
    85
  6
CONTINUOUS
  0
LAYER
  5
8F
330
2
100
AcDbSymbolTableRecord
100
AcDbLayerTableRecord
  2
86
 70
     0
 62
    86
  6
CONTINUOUS
  0
LAYER
  5
90
330
2
100
AcDbSymbolTableRecord
100
AcDbLayerTableRecord
  2
87
 70
     0
 62
    87
  6
CONTINUOUS
  0
LAYER
  5
91
330
2
100
AcDbSymbolTableRecord
100
AcDbLayerTableRecord
  2
88
 70
     0
 62
    88
  6
CONTINUOUS
  0
LAYER
  5
92
330
2
100
AcDbSymbolTableRecord
100
AcDbLayerTableRecord
  2
89
 70
     0
 62
    89
  6
CONTINUOUS
  0
LAYER
  5
93
330
2
100
AcDbSymbolTableRecord
100
AcDbLayerTableRecord
  2
90
 70
     0
 62
    90
  6
CONTINUOUS
  0
LAYER
  5
94
330
2
100
AcDbSymbolTableRecord
100
AcDbLayerTableRecord
  2
91
 70
     0
 62
    91
  6
CONTINUOUS
  0
LAYER
  5
95
330
2
100
AcDbSymbolTableRecord
100
AcDbLayerTableRecord
  2
92
 70
     0
 62
    92
  6
CONTINUOUS
  0
LAYER
  5
96
330
2
100
AcDbSymbolTableRecord
100
AcDbLayerTableRecord
  2
93
 70
     0
 62
    93
  6
CONTINUOUS
  0
LAYER
  5
97
330
2
100
AcDbSymbolTableRecord
100
AcDbLayerTableRecord
  2
94
 70
     0
 62
    94
  6
CONTINUOUS
  0
LAYER
  5
98
330
2
100
AcDbSymbolTableRecord
100
AcDbLayerTableRecord
  2
95
 70
     0
 62
    95
  6
CONTINUOUS
  0
LAYER
  5
99
330
2
100
AcDbSymbolTableRecord
100
AcDbLayerTableRecord
  2
96
 70
     0
 62
    96
  6
CONTINUOUS
  0
LAYER
  5
9A
330
2
100
AcDbSymbolTableRecord
100
AcDbLayerTableRecord
  2
97
 70
     0
 62
    97
  6
CONTINUOUS
  0
LAYER
  5
9B
330
2
100
AcDbSymbolTableRecord
100
AcDbLayerTableRecord
  2
98
 70
     0
 62
    98
  6
CONTINUOUS
  0
LAYER
  5
9C
330
2
100
AcDbSymbolTableRecord
100
AcDbLayerTableRecord
  2
99
 70
     0
 62
    99
  6
CONTINUOUS
  0
LAYER
  5
9D
330
2
100
AcDbSymbolTableRecord
100
AcDbLayerTableRecord
  2
100
 70
     0
 62
   100
  6
CONTINUOUS
  0
LAYER
  5
9E
330
2
100
AcDbSymbolTableRecord
100
AcDbLayerTableRecord
  2
101
 70
     0
 62
   101
  6
CONTINUOUS
  0
LAYER
  5
9F
330
2
100
AcDbSymbolTableRecord
100
AcDbLayerTableRecord
  2
102
 70
     0
 62
   102
  6
CONTINUOUS
  0
LAYER
  5
A0
330
2
100
AcDbSymbolTableRecord
100
AcDbLayerTableRecord
  2
103
 70
     0
 62
   103
  6
CONTINUOUS
  0
LAYER
  5
A1
330
2
100
AcDbSymbolTableRecord
100
AcDbLayerTableRecord
  2
104
 70
     0
 62
   104
  6
CONTINUOUS
  0
LAYER
  5
A2
330
2
100
AcDbSymbolTableRecord
100
AcDbLayerTableRecord
  2
105
 70
     0
 62
   105
  6
CONTINUOUS
  0
LAYER
  5
A3
330
2
100
AcDbSymbolTableRecord
100
AcDbLayerTableRecord
  2
106
 70
     0
 62
   106
  6
CONTINUOUS
  0
LAYER
  5
A4
330
2
100
AcDbSymbolTableRecord
100
AcDbLayerTableRecord
  2
107
 70
     0
 62
   107
  6
CONTINUOUS
  0
LAYER
  5
A5
330
2
100
AcDbSymbolTableRecord
100
AcDbLayerTableRecord
  2
108
 70
     0
 62
   108
  6
CONTINUOUS
  0
LAYER
  5
A6
330
2
100
AcDbSymbolTableRecord
100
AcDbLayerTableRecord
  2
109
 70
     0
 62
   109
  6
CONTINUOUS
  0
LAYER
  5
A7
330
2
100
AcDbSymbolTableRecord
100
AcDbLayerTableRecord
  2
110
 70
     0
 62
   110
  6
CONTINUOUS
  0
LAYER
  5
A8
330
2
100
AcDbSymbolTableRecord
100
AcDbLayerTableRecord
  2
111
 70
     0
 62
   111
  6
CONTINUOUS
  0
LAYER
  5
A9
330
2
100
AcDbSymbolTableRecord
100
AcDbLayerTableRecord
  2
112
 70
     0
 62
   112
  6
CONTINUOUS
  0
LAYER
  5
AA
330
2
100
AcDbSymbolTableRecord
100
AcDbLayerTableRecord
  2
113
 70
     0
 62
   113
  6
CONTINUOUS
  0
LAYER
  5
AB
330
2
100
AcDbSymbolTableRecord
100
AcDbLayerTableRecord
  2
114
 70
     0
 62
   114
  6
CONTINUOUS
  0
LAYER
  5
AC
330
2
100
AcDbSymbolTableRecord
100
AcDbLayerTableRecord
  2
115
 70
     0
 62
   115
  6
CONTINUOUS
  0
LAYER
  5
AD
330
2
100
AcDbSymbolTableRecord
100
AcDbLayerTableRecord
  2
116
 70
     0
 62
   116
  6
CONTINUOUS
  0
LAYER
  5
AE
330
2
100
AcDbSymbolTableRecord
100
AcDbLayerTableRecord
  2
117
 70
     0
 62
   117
  6
CONTINUOUS
  0
LAYER
  5
AF
330
2
100
AcDbSymbolTableRecord
100
AcDbLayerTableRecord
  2
118
 70
     0
 62
   118
  6
CONTINUOUS
  0
LAYER
  5
B0
330
2
100
AcDbSymbolTableRecord
100
AcDbLayerTableRecord
  2
119
 70
     0
 62
   119
  6
CONTINUOUS
  0
LAYER
  5
B1
330
2
100
AcDbSymbolTableRecord
100
AcDbLayerTableRecord
  2
120
 70
     0
 62
   120
  6
CONTINUOUS
  0
LAYER
  5
B2
330
2
100
AcDbSymbolTableRecord
100
AcDbLayerTableRecord
  2
121
 70
     0
 62
   121
  6
CONTINUOUS
  0
LAYER
  5
B3
330
2
100
AcDbSymbolTableRecord
100
AcDbLayerTableRecord
  2
122
 70
     0
 62
   122
  6
CONTINUOUS
  0
LAYER
  5
B4
330
2
100
AcDbSymbolTableRecord
100
AcDbLayerTableRecord
  2
123
 70
     0
 62
   123
  6
CONTINUOUS
  0
LAYER
  5
B5
330
2
100
AcDbSymbolTableRecord
100
AcDbLayerTableRecord
  2
124
 70
     0
 62
   124
  6
CONTINUOUS
  0
LAYER
  5
B6
330
2
100
AcDbSymbolTableRecord
100
AcDbLayerTableRecord
  2
125
 70
     0
 62
   125
  6
CONTINUOUS
  0
LAYER
  5
B7
330
2
100
AcDbSymbolTableRecord
100
AcDbLayerTableRecord
  2
126
 70
     0
 62
   126
  6
CONTINUOUS
  0
LAYER
  5
B8
330
2
100
AcDbSymbolTableRecord
100
AcDbLayerTableRecord
  2
127
 70
     0
 62
   127
  6
CONTINUOUS
  0
LAYER
  5
B9
330
2
100
AcDbSymbolTableRecord
100
AcDbLayerTableRecord
  2
128
 70
     0
 62
   128
  6
CONTINUOUS
  0
LAYER
  5
BA
330
2
100
AcDbSymbolTableRecord
100
AcDbLayerTableRecord
  2
129
 70
     0
 62
   129
  6
CONTINUOUS
  0
LAYER
  5
BB
330
2
100
AcDbSymbolTableRecord
100
AcDbLayerTableRecord
  2
130
 70
     0
 62
   130
  6
CONTINUOUS
  0
LAYER
  5
BC
330
2
100
AcDbSymbolTableRecord
100
AcDbLayerTableRecord
  2
131
 70
     0
 62
   131
  6
CONTINUOUS
  0
LAYER
  5
BD
330
2
100
AcDbSymbolTableRecord
100
AcDbLayerTableRecord
  2
132
 70
     0
 62
   132
  6
CONTINUOUS
  0
LAYER
  5
BE
330
2
100
AcDbSymbolTableRecord
100
AcDbLayerTableRecord
  2
133
 70
     0
 62
   133
  6
CONTINUOUS
  0
LAYER
  5
BF
330
2
100
AcDbSymbolTableRecord
100
AcDbLayerTableRecord
  2
134
 70
     0
 62
   134
  6
CONTINUOUS
  0
LAYER
  5
C0
330
2
100
AcDbSymbolTableRecord
100
AcDbLayerTableRecord
  2
135
 70
     0
 62
   135
  6
CONTINUOUS
  0
LAYER
  5
C1
330
2
100
AcDbSymbolTableRecord
100
AcDbLayerTableRecord
  2
136
 70
     0
 62
   136
  6
CONTINUOUS
  0
LAYER
  5
C2
330
2
100
AcDbSymbolTableRecord
100
AcDbLayerTableRecord
  2
137
 70
     0
 62
   137
  6
CONTINUOUS
  0
LAYER
  5
C3
330
2
100
AcDbSymbolTableRecord
100
AcDbLayerTableRecord
  2
138
 70
     0
 62
   138
  6
CONTINUOUS
  0
LAYER
  5
C4
330
2
100
AcDbSymbolTableRecord
100
AcDbLayerTableRecord
  2
139
 70
     0
 62
   139
  6
CONTINUOUS
  0
LAYER
  5
C5
330
2
100
AcDbSymbolTableRecord
100
AcDbLayerTableRecord
  2
140
 70
     0
 62
   140
  6
CONTINUOUS
  0
LAYER
  5
C6
330
2
100
AcDbSymbolTableRecord
100
AcDbLayerTableRecord
  2
141
 70
     0
 62
   141
  6
CONTINUOUS
  0
LAYER
  5
C7
330
2
100
AcDbSymbolTableRecord
100
AcDbLayerTableRecord
  2
142
 70
     0
 62
   142
  6
CONTINUOUS
  0
LAYER
  5
C8
330
2
100
AcDbSymbolTableRecord
100
AcDbLayerTableRecord
  2
143
 70
     0
 62
   143
  6
CONTINUOUS
  0
LAYER
  5
C9
330
2
100
AcDbSymbolTableRecord
100
AcDbLayerTableRecord
  2
144
 70
     0
 62
   144
  6
CONTINUOUS
  0
LAYER
  5
CA
330
2
100
AcDbSymbolTableRecord
100
AcDbLayerTableRecord
  2
145
 70
     0
 62
   145
  6
CONTINUOUS
  0
LAYER
  5
CB
330
2
100
AcDbSymbolTableRecord
100
AcDbLayerTableRecord
  2
146
 70
     0
 62
   146
  6
CONTINUOUS
  0
LAYER
  5
CC
330
2
100
AcDbSymbolTableRecord
100
AcDbLayerTableRecord
  2
147
 70
     0
 62
   147
  6
CONTINUOUS
  0
LAYER
  5
CD
330
2
100
AcDbSymbolTableRecord
100
AcDbLayerTableRecord
  2
148
 70
     0
 62
   148
  6
CONTINUOUS
  0
LAYER
  5
CE
330
2
100
AcDbSymbolTableRecord
100
AcDbLayerTableRecord
  2
149
 70
     0
 62
   149
  6
CONTINUOUS
  0
LAYER
  5
CF
330
2
100
AcDbSymbolTableRecord
100
AcDbLayerTableRecord
  2
150
 70
     0
 62
   150
  6
CONTINUOUS
  0
LAYER
  5
D0
330
2
100
AcDbSymbolTableRecord
100
AcDbLayerTableRecord
  2
151
 70
     0
 62
   151
  6
CONTINUOUS
  0
LAYER
  5
D1
330
2
100
AcDbSymbolTableRecord
100
AcDbLayerTableRecord
  2
152
 70
     0
 62
   152
  6
CONTINUOUS
  0
LAYER
  5
D2
330
2
100
AcDbSymbolTableRecord
100
AcDbLayerTableRecord
  2
153
 70
     0
 62
   153
  6
CONTINUOUS
  0
LAYER
  5
D3
330
2
100
AcDbSymbolTableRecord
100
AcDbLayerTableRecord
  2
154
 70
     0
 62
   154
  6
CONTINUOUS
  0
LAYER
  5
D4
330
2
100
AcDbSymbolTableRecord
100
AcDbLayerTableRecord
  2
155
 70
     0
 62
   155
  6
CONTINUOUS
  0
LAYER
  5
D5
330
2
100
AcDbSymbolTableRecord
100
AcDbLayerTableRecord
  2
156
 70
     0
 62
   156
  6
CONTINUOUS
  0
LAYER
  5
D6
330
2
100
AcDbSymbolTableRecord
100
AcDbLayerTableRecord
  2
157
 70
     0
 62
   157
  6
CONTINUOUS
  0
LAYER
  5
D7
330
2
100
AcDbSymbolTableRecord
100
AcDbLayerTableRecord
  2
158
 70
     0
 62
   158
  6
CONTINUOUS
  0
LAYER
  5
D8
330
2
100
AcDbSymbolTableRecord
100
AcDbLayerTableRecord
  2
159
 70
     0
 62
   159
  6
CONTINUOUS
  0
LAYER
  5
D9
330
2
100
AcDbSymbolTableRecord
100
AcDbLayerTableRecord
  2
160
 70
     0
 62
   160
  6
CONTINUOUS
  0
LAYER
  5
DA
330
2
100
AcDbSymbolTableRecord
100
AcDbLayerTableRecord
  2
161
 70
     0
 62
   161
  6
CONTINUOUS
  0
LAYER
  5
DB
330
2
100
AcDbSymbolTableRecord
100
AcDbLayerTableRecord
  2
162
 70
     0
 62
   162
  6
CONTINUOUS
  0
LAYER
  5
DC
330
2
100
AcDbSymbolTableRecord
100
AcDbLayerTableRecord
  2
163
 70
     0
 62
   163
  6
CONTINUOUS
  0
LAYER
  5
DD
330
2
100
AcDbSymbolTableRecord
100
AcDbLayerTableRecord
  2
164
 70
     0
 62
   164
  6
CONTINUOUS
  0
LAYER
  5
DE
330
2
100
AcDbSymbolTableRecord
100
AcDbLayerTableRecord
  2
165
 70
     0
 62
   165
  6
CONTINUOUS
  0
LAYER
  5
DF
330
2
100
AcDbSymbolTableRecord
100
AcDbLayerTableRecord
  2
166
 70
     0
 62
   166
  6
CONTINUOUS
  0
LAYER
  5
E0
330
2
100
AcDbSymbolTableRecord
100
AcDbLayerTableRecord
  2
167
 70
     0
 62
   167
  6
CONTINUOUS
  0
LAYER
  5
E1
330
2
100
AcDbSymbolTableRecord
100
AcDbLayerTableRecord
  2
168
 70
     0
 62
   168
  6
CONTINUOUS
  0
LAYER
  5
E2
330
2
100
AcDbSymbolTableRecord
100
AcDbLayerTableRecord
  2
169
 70
     0
 62
   169
  6
CONTINUOUS
  0
LAYER
  5
E3
330
2
100
AcDbSymbolTableRecord
100
AcDbLayerTableRecord
  2
170
 70
     0
 62
   170
  6
CONTINUOUS
  0
LAYER
  5
E4
330
2
100
AcDbSymbolTableRecord
100
AcDbLayerTableRecord
  2
171
 70
     0
 62
   171
  6
CONTINUOUS
  0
LAYER
  5
E5
330
2
100
AcDbSymbolTableRecord
100
AcDbLayerTableRecord
  2
172
 70
     0
 62
   172
  6
CONTINUOUS
  0
LAYER
  5
E6
330
2
100
AcDbSymbolTableRecord
100
AcDbLayerTableRecord
  2
173
 70
     0
 62
   173
  6
CONTINUOUS
  0
LAYER
  5
E7
330
2
100
AcDbSymbolTableRecord
100
AcDbLayerTableRecord
  2
174
 70
     0
 62
   174
  6
CONTINUOUS
  0
LAYER
  5
E8
330
2
100
AcDbSymbolTableRecord
100
AcDbLayerTableRecord
  2
175
 70
     0
 62
   175
  6
CONTINUOUS
  0
LAYER
  5
E9
330
2
100
AcDbSymbolTableRecord
100
AcDbLayerTableRecord
  2
176
 70
     0
 62
   176
  6
CONTINUOUS
  0
LAYER
  5
EA
330
2
100
AcDbSymbolTableRecord
100
AcDbLayerTableRecord
  2
177
 70
     0
 62
   177
  6
CONTINUOUS
  0
LAYER
  5
EB
330
2
100
AcDbSymbolTableRecord
100
AcDbLayerTableRecord
  2
178
 70
     0
 62
   178
  6
CONTINUOUS
  0
LAYER
  5
EC
330
2
100
AcDbSymbolTableRecord
100
AcDbLayerTableRecord
  2
179
 70
     0
 62
   179
  6
CONTINUOUS
  0
LAYER
  5
ED
330
2
100
AcDbSymbolTableRecord
100
AcDbLayerTableRecord
  2
180
 70
     0
 62
   180
  6
CONTINUOUS
  0
LAYER
  5
EE
330
2
100
AcDbSymbolTableRecord
100
AcDbLayerTableRecord
  2
181
 70
     0
 62
   181
  6
CONTINUOUS
  0
LAYER
  5
EF
330
2
100
AcDbSymbolTableRecord
100
AcDbLayerTableRecord
  2
182
 70
     0
 62
   182
  6
CONTINUOUS
  0
LAYER
  5
F0
330
2
100
AcDbSymbolTableRecord
100
AcDbLayerTableRecord
  2
183
 70
     0
 62
   183
  6
CONTINUOUS
  0
LAYER
  5
F1
330
2
100
AcDbSymbolTableRecord
100
AcDbLayerTableRecord
  2
184
 70
     0
 62
   184
  6
CONTINUOUS
  0
LAYER
  5
F2
330
2
100
AcDbSymbolTableRecord
100
AcDbLayerTableRecord
  2
185
 70
     0
 62
   185
  6
CONTINUOUS
  0
LAYER
  5
F3
330
2
100
AcDbSymbolTableRecord
100
AcDbLayerTableRecord
  2
186
 70
     0
 62
   186
  6
CONTINUOUS
  0
LAYER
  5
F4
330
2
100
AcDbSymbolTableRecord
100
AcDbLayerTableRecord
  2
187
 70
     0
 62
   187
  6
CONTINUOUS
  0
LAYER
  5
F5
330
2
100
AcDbSymbolTableRecord
100
AcDbLayerTableRecord
  2
188
 70
     0
 62
   188
  6
CONTINUOUS
  0
LAYER
  5
F6
330
2
100
AcDbSymbolTableRecord
100
AcDbLayerTableRecord
  2
189
 70
     0
 62
   189
  6
CONTINUOUS
  0
LAYER
  5
F7
330
2
100
AcDbSymbolTableRecord
100
AcDbLayerTableRecord
  2
190
 70
     0
 62
   190
  6
CONTINUOUS
  0
LAYER
  5
F8
330
2
100
AcDbSymbolTableRecord
100
AcDbLayerTableRecord
  2
191
 70
     0
 62
   191
  6
CONTINUOUS
  0
LAYER
  5
F9
330
2
100
AcDbSymbolTableRecord
100
AcDbLayerTableRecord
  2
192
 70
     0
 62
   192
  6
CONTINUOUS
  0
LAYER
  5
FA
330
2
100
AcDbSymbolTableRecord
100
AcDbLayerTableRecord
  2
193
 70
     0
 62
   193
  6
CONTINUOUS
  0
LAYER
  5
FB
330
2
100
AcDbSymbolTableRecord
100
AcDbLayerTableRecord
  2
194
 70
     0
 62
   194
  6
CONTINUOUS
  0
LAYER
  5
FC
330
2
100
AcDbSymbolTableRecord
100
AcDbLayerTableRecord
  2
195
 70
     0
 62
   195
  6
CONTINUOUS
  0
LAYER
  5
FD
330
2
100
AcDbSymbolTableRecord
100
AcDbLayerTableRecord
  2
196
 70
     0
 62
   196
  6
CONTINUOUS
  0
LAYER
  5
FE
330
2
100
AcDbSymbolTableRecord
100
AcDbLayerTableRecord
  2
197
 70
     0
 62
   197
  6
CONTINUOUS
  0
LAYER
  5
FF
330
2
100
AcDbSymbolTableRecord
100
AcDbLayerTableRecord
  2
198
 70
     0
 62
   198
  6
CONTINUOUS
  0
LAYER
  5
100
330
2
100
AcDbSymbolTableRecord
100
AcDbLayerTableRecord
  2
199
 70
     0
 62
   199
  6
CONTINUOUS
  0
LAYER
  5
101
330
2
100
AcDbSymbolTableRecord
100
AcDbLayerTableRecord
  2
200
 70
     0
 62
   200
  6
CONTINUOUS
  0
LAYER
  5
102
330
2
100
AcDbSymbolTableRecord
100
AcDbLayerTableRecord
  2
201
 70
     0
 62
   201
  6
CONTINUOUS
  0
LAYER
  5
103
330
2
100
AcDbSymbolTableRecord
100
AcDbLayerTableRecord
  2
202
 70
     0
 62
   202
  6
CONTINUOUS
  0
LAYER
  5
104
330
2
100
AcDbSymbolTableRecord
100
AcDbLayerTableRecord
  2
203
 70
     0
 62
   203
  6
CONTINUOUS
  0
LAYER
  5
105
330
2
100
AcDbSymbolTableRecord
100
AcDbLayerTableRecord
  2
204
 70
     0
 62
   204
  6
CONTINUOUS
  0
LAYER
  5
106
330
2
100
AcDbSymbolTableRecord
100
AcDbLayerTableRecord
  2
205
 70
     0
 62
   205
  6
CONTINUOUS
  0
LAYER
  5
107
330
2
100
AcDbSymbolTableRecord
100
AcDbLayerTableRecord
  2
206
 70
     0
 62
   206
  6
CONTINUOUS
  0
LAYER
  5
108
330
2
100
AcDbSymbolTableRecord
100
AcDbLayerTableRecord
  2
207
 70
     0
 62
   207
  6
CONTINUOUS
  0
LAYER
  5
109
330
2
100
AcDbSymbolTableRecord
100
AcDbLayerTableRecord
  2
208
 70
     0
 62
   208
  6
CONTINUOUS
  0
LAYER
  5
10A
330
2
100
AcDbSymbolTableRecord
100
AcDbLayerTableRecord
  2
209
 70
     0
 62
   209
  6
CONTINUOUS
  0
LAYER
  5
10B
330
2
100
AcDbSymbolTableRecord
100
AcDbLayerTableRecord
  2
210
 70
     0
 62
   210
  6
CONTINUOUS
  0
LAYER
  5
10C
330
2
100
AcDbSymbolTableRecord
100
AcDbLayerTableRecord
  2
211
 70
     0
 62
   211
  6
CONTINUOUS
  0
LAYER
  5
10D
330
2
100
AcDbSymbolTableRecord
100
AcDbLayerTableRecord
  2
212
 70
     0
 62
   212
  6
CONTINUOUS
  0
LAYER
  5
10E
330
2
100
AcDbSymbolTableRecord
100
AcDbLayerTableRecord
  2
213
 70
     0
 62
   213
  6
CONTINUOUS
  0
LAYER
  5
10F
330
2
100
AcDbSymbolTableRecord
100
AcDbLayerTableRecord
  2
214
 70
     0
 62
   214
  6
CONTINUOUS
  0
LAYER
  5
110
330
2
100
AcDbSymbolTableRecord
100
AcDbLayerTableRecord
  2
215
 70
     0
 62
   215
  6
CONTINUOUS
  0
LAYER
  5
111
330
2
100
AcDbSymbolTableRecord
100
AcDbLayerTableRecord
  2
216
 70
     0
 62
   216
  6
CONTINUOUS
  0
LAYER
  5
112
330
2
100
AcDbSymbolTableRecord
100
AcDbLayerTableRecord
  2
217
 70
     0
 62
   217
  6
CONTINUOUS
  0
LAYER
  5
113
330
2
100
AcDbSymbolTableRecord
100
AcDbLayerTableRecord
  2
218
 70
     0
 62
   218
  6
CONTINUOUS
  0
LAYER
  5
114
330
2
100
AcDbSymbolTableRecord
100
AcDbLayerTableRecord
  2
219
 70
     0
 62
   219
  6
CONTINUOUS
  0
LAYER
  5
115
330
2
100
AcDbSymbolTableRecord
100
AcDbLayerTableRecord
  2
220
 70
     0
 62
   220
  6
CONTINUOUS
  0
LAYER
  5
116
330
2
100
AcDbSymbolTableRecord
100
AcDbLayerTableRecord
  2
221
 70
     0
 62
   221
  6
CONTINUOUS
  0
LAYER
  5
117
330
2
100
AcDbSymbolTableRecord
100
AcDbLayerTableRecord
  2
222
 70
     0
 62
   222
  6
CONTINUOUS
  0
LAYER
  5
118
330
2
100
AcDbSymbolTableRecord
100
AcDbLayerTableRecord
  2
223
 70
     0
 62
   223
  6
CONTINUOUS
  0
LAYER
  5
119
330
2
100
AcDbSymbolTableRecord
100
AcDbLayerTableRecord
  2
224
 70
     0
 62
   224
  6
CONTINUOUS
  0
LAYER
  5
11A
330
2
100
AcDbSymbolTableRecord
100
AcDbLayerTableRecord
  2
225
 70
     0
 62
   225
  6
CONTINUOUS
  0
LAYER
  5
11B
330
2
100
AcDbSymbolTableRecord
100
AcDbLayerTableRecord
  2
226
 70
     0
 62
   226
  6
CONTINUOUS
  0
LAYER
  5
11C
330
2
100
AcDbSymbolTableRecord
100
AcDbLayerTableRecord
  2
227
 70
     0
 62
   227
  6
CONTINUOUS
  0
LAYER
  5
11D
330
2
100
AcDbSymbolTableRecord
100
AcDbLayerTableRecord
  2
228
 70
     0
 62
   228
  6
CONTINUOUS
  0
LAYER
  5
11E
330
2
100
AcDbSymbolTableRecord
100
AcDbLayerTableRecord
  2
229
 70
     0
 62
   229
  6
CONTINUOUS
  0
LAYER
  5
11F
330
2
100
AcDbSymbolTableRecord
100
AcDbLayerTableRecord
  2
230
 70
     0
 62
   230
  6
CONTINUOUS
  0
LAYER
  5
120
330
2
100
AcDbSymbolTableRecord
100
AcDbLayerTableRecord
  2
231
 70
     0
 62
   231
  6
CONTINUOUS
  0
LAYER
  5
121
330
2
100
AcDbSymbolTableRecord
100
AcDbLayerTableRecord
  2
232
 70
     0
 62
   232
  6
CONTINUOUS
  0
LAYER
  5
122
330
2
100
AcDbSymbolTableRecord
100
AcDbLayerTableRecord
  2
233
 70
     0
 62
   233
  6
CONTINUOUS
  0
LAYER
  5
123
330
2
100
AcDbSymbolTableRecord
100
AcDbLayerTableRecord
  2
234
 70
     0
 62
   234
  6
CONTINUOUS
  0
LAYER
  5
124
330
2
100
AcDbSymbolTableRecord
100
AcDbLayerTableRecord
  2
235
 70
     0
 62
   235
  6
CONTINUOUS
  0
LAYER
  5
125
330
2
100
AcDbSymbolTableRecord
100
AcDbLayerTableRecord
  2
236
 70
     0
 62
   236
  6
CONTINUOUS
  0
LAYER
  5
126
330
2
100
AcDbSymbolTableRecord
100
AcDbLayerTableRecord
  2
237
 70
     0
 62
   237
  6
CONTINUOUS
  0
LAYER
  5
127
330
2
100
AcDbSymbolTableRecord
100
AcDbLayerTableRecord
  2
238
 70
     0
 62
   238
  6
CONTINUOUS
  0
LAYER
  5
128
330
2
100
AcDbSymbolTableRecord
100
AcDbLayerTableRecord
  2
239
 70
     0
 62
   239
  6
CONTINUOUS
  0
LAYER
  5
129
330
2
100
AcDbSymbolTableRecord
100
AcDbLayerTableRecord
  2
240
 70
     0
 62
   240
  6
CONTINUOUS
  0
LAYER
  5
12A
330
2
100
AcDbSymbolTableRecord
100
AcDbLayerTableRecord
  2
241
 70
     0
 62
   241
  6
CONTINUOUS
  0
LAYER
  5
12B
330
2
100
AcDbSymbolTableRecord
100
AcDbLayerTableRecord
  2
242
 70
     0
 62
   242
  6
CONTINUOUS
  0
LAYER
  5
12C
330
2
100
AcDbSymbolTableRecord
100
AcDbLayerTableRecord
  2
243
 70
     0
 62
   243
  6
CONTINUOUS
  0
LAYER
  5
12D
330
2
100
AcDbSymbolTableRecord
100
AcDbLayerTableRecord
  2
244
 70
     0
 62
   244
  6
CONTINUOUS
  0
LAYER
  5
12E
330
2
100
AcDbSymbolTableRecord
100
AcDbLayerTableRecord
  2
245
 70
     0
 62
   245
  6
CONTINUOUS
  0
LAYER
  5
12F
330
2
100
AcDbSymbolTableRecord
100
AcDbLayerTableRecord
  2
246
 70
     0
 62
   246
  6
CONTINUOUS
  0
LAYER
  5
130
330
2
100
AcDbSymbolTableRecord
100
AcDbLayerTableRecord
  2
247
 70
     0
 62
   247
  6
CONTINUOUS
  0
LAYER
  5
131
330
2
100
AcDbSymbolTableRecord
100
AcDbLayerTableRecord
  2
248
 70
     0
 62
   248
  6
CONTINUOUS
  0
LAYER
  5
132
330
2
100
AcDbSymbolTableRecord
100
AcDbLayerTableRecord
  2
249
 70
     0
 62
   249
  6
CONTINUOUS
  0
LAYER
  5
133
330
2
100
AcDbSymbolTableRecord
100
AcDbLayerTableRecord
  2
250
 70
     0
 62
   250
  6
CONTINUOUS
  0
LAYER
  5
134
330
2
100
AcDbSymbolTableRecord
100
AcDbLayerTableRecord
  2
251
 70
     0
 62
   251
  6
CONTINUOUS
  0
LAYER
  5
135
330
2
100
AcDbSymbolTableRecord
100
AcDbLayerTableRecord
  2
252
 70
     0
 62
   252
  6
CONTINUOUS
  0
LAYER
  5
136
330
2
100
AcDbSymbolTableRecord
100
AcDbLayerTableRecord
  2
253
 70
     0
 62
   253
  6
CONTINUOUS
  0
LAYER
  5
137
330
2
100
AcDbSymbolTableRecord
100
AcDbLayerTableRecord
  2
254
 70
     0
 62
   254
  6
CONTINUOUS
  0
LAYER
  5
138
330
2
100
AcDbSymbolTableRecord
100
AcDbLayerTableRecord
  2
255
 70
     0
 62
   255
  6
CONTINUOUS
  0
ENDTAB
  0
TABLE
  2
STYLE
  5
3
330
0
100
AcDbSymbolTable
 70
     1
  0
STYLE
  5
11
330
3
100
AcDbSymbolTableRecord
100
AcDbTextStyleTableRecord
  2
STANDARD
 70
     0
 40
0.0
 41
1.0
 50
0.0
 71
     0
 42
0.2
  3
monotxt
  4

  0
ENDTAB
  0
TABLE
  2
VIEW
  5
6
330
0
100
AcDbSymbolTable
 70
     0
  0
ENDTAB
  0
TABLE
  2
UCS
  5
7
330
0
100
AcDbSymbolTable
 70
     0
  0
ENDTAB
  0
TABLE
  2
APPID
  5
9
330
0
100
AcDbSymbolTable
 70
     1
  0
APPID
  5
12
330
9
100
AcDbSymbolTableRecord
100
AcDbRegAppTableRecord
  2
ACAD
 70
     0
  0
ENDTAB
  0
TABLE
  2
DIMSTYLE
  5
A
330
0
100
AcDbSymbolTable
 70
     1
  0
DIMSTYLE
105
116A
330
A
100
AcDbSymbolTableRecord
100
AcDbDimStyleTableRecord
  2
STANDARD
 70
     0
  3

  4

  5

  6

  7

 40
1.0
 41
0.18
 42
0.0625
 43
0.38
 44
0.18
 45
0.0
 46
0.0
 47
0.0
 48
0.0
140
0.18
141
0.09
142
0.0
143
25.4
144
1.0
145
0.0
146
1.0
147
0.09
 71
     0
 72
     0
 73
     1
 74
     1
 75
     0
 76
     0
 77
     0
 78
     0
170
     0
171
     2
172
     0
173
     0
174
     0
175
     0
176
     0
177
     0
178
     0
270
     2
271
     4
272
     4
273
     2
274
     2
340
11
275
     0
280
     0
281
     0
282
     0
283
     1
284
     0
285
     0
286
     0
287
     3
288
     0
  0
ENDTAB
  0
TABLE
  2
BLOCK_RECORD
  5
1
330
0
100
AcDbSymbolTable
 70
     0
  0
BLOCK_RECORD
  5
1E
102
{ACAD_XDICTIONARY
360
11C5
102
}
330
1
100
AcDbSymbolTableRecord
100
AcDbBlockTableRecord
  2
*MODEL_SPACE
  0
BLOCK_RECORD
  5
1A
102
{ACAD_XDICTIONARY
360
11C3
102
}
330
1
100
AcDbSymbolTableRecord
100
AcDbBlockTableRecord
  2
*PAPER_SPACE
  0
ENDTAB
  0
ENDSEC
  0
SECTION
  2
BLOCKS
  0
BLOCK
  5
13B
330
1E
100
AcDbEntity
  8
0
100
AcDbBlockBegin
  2
*MODEL_SPACE
 70
     0
 10
0.0
 20
0.0
 30
0.0
  3
*MODEL_SPACE
  1

  0
ENDBLK
  5
13C
330
1E
100
AcDbEntity
  8
0
100
AcDbBlockEnd
  0
BLOCK
  5
139
330
1A
100
AcDbEntity
 67
     1
  8
0
100
AcDbBlockBegin
  2
*PAPER_SPACE
 70
     0
 10
0.0
 20
0.0
 30
0.0
  3
*PAPER_SPACE
  1

  0
ENDBLK
  5
13A
330
1A
100
AcDbEntity
 67
     1
  8
0
100
AcDbBlockEnd
  0
ENDSEC
  0
SECTION
  2
ENTITIES
  0
LWPOLYLINE
  5
13E
330
1E
100
AcDbEntity
  8
7
100
AcDbPolyline
 90
        5
 70
     0
 43
0.0098425196850394
 10
20.8001968503937
 20
28.61909448818897
 10
20.82381889763779
 20
28.49507874015748
 10
20.84842519685039
 20
28.61909448818897
 10
20.87499999999999
 20
28.49507874015748
 10
20.8996062992126
 20
28.61909448818897
  0
LWPOLYLINE
  5
145
330
1E
100
AcDbEntity
  8
7
100
AcDbPolyline
 90
        8
 70
     0
 43
0.0098425196850394
 10
20.93700787401574
 20
28.56889763779527
 10
20.93700787401574
 20
28.61909448818897
 10
21.01082677165354
 20
28.61909448818897
 10
21.02263779527559
 20
28.60728346456692
 10
21.02263779527559
 20
28.58267716535433
 10
21.01082677165354
 20
28.56889763779527
 10
20.93700787401574
 20
28.56889763779527
 10
20.93700787401574
 20
28.49507874015748
  0
LWPOLYLINE
  5
14F
330
1E
100
AcDbEntity
  8
7
100
AcDbPolyline
 90
        5
 70
     0
 43
0.0098425196850394
 10
20.93700787401574
 20
28.49507874015748
 10
21.00984251968504
 20
28.49507874015748
 10
21.03444881889763
 20
28.50688976377952
 10
21.03444881889763
 20
28.55708661417322
 10
21.01082677165354
 20
28.56889763779527
  0
LINE
  5
156
330
1E
100
AcDbEntity
  8
7
100
AcDbLine
 10
21.07283464566929
 20
28.49507874015748
 30
0.0
 11
21.07283464566929
 21
28.61909448818897
 31
0.0
  0
LINE
  5
157
330
1E
100
AcDbEntity
  8
7
100
AcDbLine
 10
21.17224409448819
 20
28.55708661417322
 30
0.0
 11
21.07283464566929
 21
28.55708661417322
 31
0.0
  0
LINE
  5
158
330
1E
100
AcDbEntity
  8
7
100
AcDbLine
 10
21.17224409448819
 20
28.49507874015748
 30
0.0
 11
21.17224409448819
 21
28.61909448818897
 31
0.0
  0
LINE
  5
159
330
1E
100
AcDbEntity
  8
7
100
AcDbLine
 10
21.24803149606299
 20
28.60826771653543
 30
0.0
 11
21.25885826771653
 21
28.61909448818897
 31
0.0
  0
LINE
  5
15A
330
1E
100
AcDbEntity
  8
7
100
AcDbLine
 10
21.25885826771653
 20
28.61909448818897
 30
0.0
 11
21.25885826771653
 21
28.49507874015748
 31
0.0
  0
LINE
  5
15B
330
1E
100
AcDbEntity
  8
7
100
AcDbLine
 10
21.24311023622047
 20
28.49507874015748
 30
0.0
 11
21.2746062992126
 21
28.49507874015748
 31
0.0
  0
LWPOLYLINE
  5
15C
330
1E
100
AcDbEntity
  8
7
100
AcDbPolyline
 90
        5
 70
     0
 43
0.0098425196850394
 10
20.66929133858268
 20
28.37007874015748
 10
20.66929133858268
 20
28.43208661417323
 10
20.69389763779527
 20
28.37007874015748
 10
20.71850393700787
 20
28.43208661417323
 10
20.71850393700787
 20
28.37007874015748
  0
LWPOLYLINE
  5
163
330
1E
100
AcDbEntity
  8
7
100
AcDbPolyline
 90
        3
 70
     0
 43
0.0098425196850394
 10
20.73720472440944
 20
28.37007874015748
 10
20.76181102362204
 20
28.43208661417323
 10
20.78641732283464
 20
28.37007874015748
  0
LINE
  5
168
330
1E
100
AcDbEntity
  8
7
100
AcDbLine
 10
20.75
 20
28.4015748031496
 30
0.0
 11
20.77460629921259
 21
28.4015748031496
 31
0.0
  0
LWPOLYLINE
  5
169
330
1E
100
AcDbEntity
  8
7
100
AcDbPolyline
 90
        7
 70
     0
 43
0.0098425196850394
 10
20.80511811023622
 20
28.37007874015748
 10
20.84153543307086
 20
28.37007874015748
 10
20.85433070866141
 20
28.38188976377952
 10
20.85433070866141
 20
28.41929133858267
 10
20.84153543307086
 20
28.43208661417323
 10
20.80511811023622
 20
28.43208661417323
 10
20.80511811023622
 20
28.37007874015748
  0
LWPOLYLINE
  5
172
330
1E
100
AcDbEntity
  8
7
100
AcDbPolyline
 90
        4
 70
     0
 43
0.0098425196850394
 10
20.92322834645669
 20
28.37007874015748
 10
20.87303149606299
 20
28.37007874015748
 10
20.87303149606299
 20
28.43208661417323
 10
20.92322834645669
 20
28.43208661417323
  0
LINE
  5
178
330
1E
100
AcDbEntity
  8
7
100
AcDbLine
 10
20.91043307086614
 20
28.4015748031496
 30
0.0
 11
20.87303149606299
 21
28.4015748031496
 31
0.0
  0
LINE
  5
179
330
1E
100
AcDbEntity
  8
7
100
AcDbLine
 10
21.02755905511811
 20
28.37007874015748
 30
0.0
 11
21.04035433070866
 21
28.37007874015748
 31
0.0
  0
LINE
  5
17A
330
1E
100
AcDbEntity
  8
7
100
AcDbLine
 10
21.03444881889763
 20
28.43208661417323
 30
0.0
 11
21.03444881889763
 21
28.37007874015748
 31
0.0
  0
LINE
  5
17B
330
1E
100
AcDbEntity
  8
7
100
AcDbLine
 10
21.02755905511811
 20
28.43208661417323
 30
0.0
 11
21.04035433070866
 21
28.43208661417323
 31
0.0
  0
LWPOLYLINE
  5
17C
330
1E
100
AcDbEntity
  8
7
100
AcDbPolyline
 90
        4
 70
     0
 43
0.0098425196850394
 10
21.07775590551181
 20
28.37007874015748
 10
21.07775590551181
 20
28.43208661417323
 10
21.126968503937
 20
28.37007874015748
 10
21.126968503937
 20
28.43208661417323
  0
LWPOLYLINE
  5
182
330
1E
100
AcDbEntity
  8
7
100
AcDbPolyline
 90
        3
 70
     0
 43
0.0098425196850394
 10
21.21358267716535
 20
28.43208661417323
 10
21.21358267716535
 20
28.38188976377952
 10
21.2253937007874
 20
28.37007874015748
  0
LWPOLYLINE
  5
187
330
1E
100
AcDbEntity
  8
7
100
AcDbPolyline
 90
        4
 70
     0
 43
0.0098425196850394
 10
21.2253937007874
 20
28.37007874015748
 10
21.25
 20
28.37007874015748
 10
21.26377952755905
 20
28.38188976377952
 10
21.26377952755905
 20
28.43208661417323
  0
LWPOLYLINE
  5
18D
330
1E
100
AcDbEntity
  8
7
100
AcDbPolyline
 90
       12
 70
     0
 43
0.0098425196850394
 10
21.28149606299212
 20
28.3759842519685
 10
21.29330708661417
 20
28.37007874015748
 10
21.31889763779527
 20
28.37007874015748
 10
21.33169291338583
 20
28.37696850393701
 10
21.33169291338583
 20
28.39468503937007
 10
21.31889763779527
 20
28.4015748031496
 10
21.29429133858268
 20
28.4015748031496
 10
21.28149606299212
 20
28.40748031496063
 10
21.28149606299212
 20
28.4261811023622
 10
21.29429133858268
 20
28.43208661417323
 10
21.31889763779527
 20
28.43208661417323
 10
21.33169291338583
 20
28.4261811023622
  0
LWPOLYLINE
  5
19B
330
1E
100
AcDbEntity
  8
7
100
AcDbPolyline
 90
        3
 70
     0
 43
0.0098425196850394
 10
21.3503937007874
 20
28.37007874015748
 10
21.375
 20
28.43208661417323
 10
21.39960629921259
 20
28.37007874015748
  0
LINE
  5
1A0
330
1E
100
AcDbEntity
  8
7
100
AcDbLine
 10
21.36220472440944
 20
28.4015748031496
 30
0.0
 11
21.38681102362204
 21
28.4015748031496
 31
0.0
  0
LWPOLYLINE
  5
1A1
330
1E
100
AcDbEntity
  8
7
100
AcDbPolyline
 90
       10
 70
     0
 43
0.0098425196850394
 10
20.58169291338582
 20
28.25688976377952
 10
20.58661417322834
 20
28.2509842519685
 10
20.57480314960629
 20
28.24507874015748
 10
20.56200787401575
 20
28.24507874015748
 10
20.5501968503937
 20
28.2509842519685
 10
20.54330708661417
 20
28.26279527559055
 10
20.54330708661417
 20
28.28838582677165
 10
20.5501968503937
 20
28.3011811023622
 10
20.56200787401575
 20
28.30708661417323
 10
20.57480314960629
 20
28.30708661417323
  0
LWPOLYLINE
  5
1AD
330
1E
100
AcDbEntity
  8
7
100
AcDbPolyline
 90
        6
 70
     0
 43
0.0098425196850394
 10
20.57480314960629
 20
28.30708661417323
 10
20.58661417322834
 20
28.3011811023622
 10
20.59350393700787
 20
28.28838582677165
 10
20.59350393700787
 20
28.26377952755905
 10
20.58661417322834
 20
28.2509842519685
 10
20.59350393700787
 20
28.24507874015748
  0
LWPOLYLINE
  5
1B5
330
1E
100
AcDbEntity
  8
7
100
AcDbPolyline
 90
        5
 70
     0
 43
0.0098425196850394
 10
20.63090551181102
 20
28.24507874015748
 10
20.64271653543307
 20
28.24507874015748
 10
20.64271653543307
 20
28.25688976377952
 10
20.63090551181102
 20
28.25688976377952
 10
20.63090551181102
 20
28.24507874015748
  0
LWPOLYLINE
  5
1BC
330
1E
100
AcDbEntity
  8
7
100
AcDbPolyline
 90
        4
 70
     0
 43
0.0098425196850394
 10
20.72933070866141
 20
28.25688976377952
 10
20.71653543307086
 20
28.24507874015748
 10
20.69291338582677
 20
28.24507874015748
 10
20.68011811023622
 20
28.25688976377952
  0
LWPOLYLINE
  5
1C2
330
1E
100
AcDbEntity
  8
7
100
AcDbPolyline
 90
        5
 70
     0
 43
0.0098425196850394
 10
20.68011811023622
 20
28.25688976377952
 10
20.68011811023622
 20
28.29429133858267
 10
20.69291338582677
 20
28.30708661417323
 10
20.71751968503936
 20
28.30708661417323
 10
20.72933070866141
 20
28.29429133858267
  0
LINE
  5
1C9
330
1E
100
AcDbEntity
  8
7
100
AcDbLine
 10
20.75984251968504
 20
28.2509842519685
 30
0.0
 11
20.77263779527559
 21
28.3011811023622
 31
0.0
  0
LINE
  5
1CA
330
1E
100
AcDbEntity
  8
7
100
AcDbLine
 10
20.78543307086614
 20
28.3011811023622
 30
0.0
 11
20.77362204724409
 21
28.2509842519685
 31
0.0
  0
LINE
  5
1CB
330
1E
100
AcDbEntity
  8
7
100
AcDbLine
 10
20.79133858267716
 20
28.26968503937008
 30
0.0
 11
20.75393700787401
 21
28.26968503937008
 31
0.0
  0
LINE
  5
1CC
330
1E
100
AcDbEntity
  8
7
100
AcDbLine
 10
20.79133858267716
 20
28.28248031496062
 30
0.0
 11
20.75393700787401
 21
28.28248031496062
 31
0.0
  0
LINE
  5
1CD
330
1E
100
AcDbEntity
  8
7
100
AcDbLine
 10
24.13484251968504
 20
28.38188976377952
 30
0.0
 11
24.09842519685039
 21
28.38188976377952
 31
0.0
  0
LINE
  5
1CE
330
1E
100
AcDbEntity
  8
7
100
AcDbLine
 10
24.13484251968504
 20
27.37992125984252
 30
0.0
 11
24.09842519685039
 21
27.37992125984252
 31
0.0
  0
LINE
  5
1CF
330
1E
100
AcDbEntity
  8
7
100
AcDbLine
 10
3.781496062992125
 20
28.18503937007874
 30
0.0
 11
3.781496062992125
 21
27.67814960629921
 31
0.0
  0
LINE
  5
1D0
330
1E
100
AcDbEntity
  8
7
100
AcDbLine
 10
4.044291338582676
 20
27.67814960629921
 30
0.0
 11
4.044291338582676
 21
28.18503937007874
 31
0.0
  0
LINE
  5
1D1
330
1E
100
AcDbEntity
  8
7
100
AcDbLine
 10
3.781496062992125
 20
27.65748031496062
 30
0.0
 11
3.781496062992125
 21
27.1505905511811
 31
0.0
  0
LINE
  5
1D2
330
1E
100
AcDbEntity
  8
7
100
AcDbLine
 10
3.781496062992125
 20
28.71259842519684
 30
0.0
 11
3.781496062992125
 21
28.20472440944882
 31
0.0
  0
LINE
  5
1D3
330
1E
100
AcDbEntity
  8
7
100
AcDbLine
 10
3.850393700787401
 20
28.20472440944882
 30
0.0
 11
3.850393700787401
 21
28.18503937007874
 31
0.0
  0
LINE
  5
1D4
330
1E
100
AcDbEntity
  8
7
100
AcDbLine
 10
3.850393700787401
 20
27.67814960629921
 30
0.0
 11
3.850393700787401
 21
27.65748031496062
 31
0.0
  0
LINE
  5
1D5
330
1E
100
AcDbEntity
  8
7
100
AcDbLine
 10
3.975393700787401
 20
27.65748031496062
 30
0.0
 11
3.975393700787401
 21
27.67814960629921
 31
0.0
  0
LINE
  5
1D6
330
1E
100
AcDbEntity
  8
7
100
AcDbLine
 10
3.975393700787401
 20
28.18503937007874
 30
0.0
 11
3.975393700787401
 21
28.20472440944882
 31
0.0
  0
LWPOLYLINE
  5
1D7
330
1E
100
AcDbEntity
  8
7
100
AcDbPolyline
 90
        3
 70
     0
 43
0.0098425196850394
 10
24.13090551181102
 20
28.51968503937007
 10
24.12795275590551
 20
28.52952755905512
 10
24.12401574803149
 20
28.53937007874015
  0
LWPOLYLINE
  5
1DC
330
1E
100
AcDbEntity
  8
7
100
AcDbPolyline
 90
        4
 70
     0
 43
0.0098425196850394
 10
24.0994094488189
 20
28.58070866141732
 10
24.06791338582677
 20
28.60826771653543
 10
24.03051181102362
 20
28.625
 10
23.98917322834646
 20
28.63090551181102
  0
LWPOLYLINE
  5
1E2
330
1E
100
AcDbEntity
  8
7
100
AcDbPolyline
 90
        4
 70
     0
 43
0.0098425196850394
 10
23.98917322834646
 20
28.23129921259842
 10
24.02362204724409
 20
28.23523622047244
 10
24.05610236220472
 20
28.24803149606299
 10
24.08464566929134
 20
28.26771653543307
  0
LWPOLYLINE
  5
1E8
330
1E
100
AcDbEntity
  8
7
100
AcDbPolyline
 90
        4
 70
     0
 43
0.0098425196850394
 10
24.08464566929134
 20
28.26771653543307
 10
24.10826771653543
 20
28.29330708661417
 10
24.125
 20
28.32381889763779
 10
24.13385826771653
 20
28.35728346456693
  0
LWPOLYLINE
  5
1EE
330
1E
100
AcDbEntity
  8
7
100
AcDbPolyline
 90
        3
 70
     0
 43
0.0098425196850394
 10
24.13385826771653
 20
27.50393700787401
 10
24.13090551181102
 20
27.51771653543307
 10
24.126968503937
 20
27.53149606299212
  0
LWPOLYLINE
  5
1F3
330
1E
100
AcDbEntity
  8
7
100
AcDbPolyline
 90
        4
 70
     0
 43
0.0098425196850394
 10
24.10728346456693
 20
27.57086614173228
 10
24.08366141732283
 20
27.59645669291338
 10
24.05511811023622
 20
27.61515748031496
 10
24.02263779527559
 20
27.626968503937
  0
LINE
  5
1F9
330
1E
100
AcDbEntity
  8
7
100
AcDbLine
 10
24.02263779527559
 20
27.626968503937
 30
0.0
 11
23.98917322834646
 21
27.63090551181102
 31
0.0
  0
LWPOLYLINE
  5
1FA
330
1E
100
AcDbEntity
  8
7
100
AcDbPolyline
 90
        6
 70
     0
 43
0.0098425196850394
 10
23.98917322834646
 20
27.23129921259842
 10
24.02755905511811
 20
27.23622047244094
 10
24.06299212598425
 20
27.251968503937
 10
24.09350393700787
 20
27.2755905511811
 10
24.11712598425197
 20
27.30708661417323
 10
24.13090551181102
 20
27.34251968503937
  0
LINE
  5
202
330
1E
100
AcDbEntity
  8
7
100
AcDbLine
 10
19.04133858267716
 20
28.11909448818898
 30
0.0
 11
21.53444881889763
 21
28.11909448818898
 31
0.0
  0
LWPOLYLINE
  5
203
330
1E
100
AcDbEntity
  8
7
100
AcDbPolyline
 90
        3
 70
     0
 43
0.0098425196850394
 10
20.5
 20
28.18405511811024
 10
19.10334645669291
 20
28.18405511811024
 10
19.10334645669291
 20
28.55511811023621
  0
LINE
  5
208
330
1E
100
AcDbEntity
  8
7
100
AcDbLine
 10
20.5
 20
28.55511811023621
 30
0.0
 11
20.5
 21
28.18405511811024
 31
0.0
  0
LINE
  5
209
330
1E
100
AcDbEntity
  8
7
100
AcDbLine
 10
20.5
 20
28.55511811023621
 30
0.0
 11
19.10334645669291
 21
28.55511811023621
 31
0.0
  0
LINE
  5
20A
330
1E
100
AcDbEntity
  8
7
100
AcDbLine
 10
19.46259842519685
 20
28.55708661417322
 30
0.0
 11
19.46259842519685
 21
28.18405511811024
 31
0.0
  0
LINE
  5
20B
330
1E
100
AcDbEntity
  8
7
100
AcDbLine
 10
20.26673228346456
 20
28.42716535433071
 30
0.0
 11
20.31988188976378
 21
28.42716535433071
 31
0.0
  0
LWPOLYLINE
  5
20C
330
1E
100
AcDbEntity
  8
7
100
AcDbPolyline
 90
        4
 70
     0
 43
0.0098425196850394
 10
20.31988188976378
 20
28.42716535433071
 10
20.31988188976378
 20
28.25984251968504
 10
20.26673228346456
 20
28.25984251968504
 10
20.26673228346456
 20
28.42716535433071
  0
LWPOLYLINE
  5
212
330
1E
100
AcDbEntity
  8
7
100
AcDbPolyline
 90
       15
 70
     0
 43
0.0098425196850394
 10
19.24311023622047
 20
28.31988188976378
 10
19.3513779527559
 20
28.31988188976378
 10
19.36122047244094
 20
28.31988188976378
 10
19.37007874015748
 20
28.32185039370078
 10
19.37893700787402
 20
28.32381889763779
 10
19.38385826771653
 20
28.3248031496063
 10
19.38779527559055
 20
28.32677165354331
 10
19.39665354330708
 20
28.33070866141732
 10
19.4005905511811
 20
28.33267716535432
 10
19.40452755905512
 20
28.33464566929134
 10
19.41141732283464
 20
28.33956692913385
 10
19.41437007874015
 20
28.34251968503937
 10
19.41830708661417
 20
28.34547244094488
 10
19.42421259842519
 20
28.3513779527559
 10
19.42716535433071
 20
28.35433070866141
  0
ARC
  5
223
330
1E
100
AcDbEntity
  8
7
100
AcDbCircle
 10
19.35914911259082
 20
28.40969646428842
 30
0.0
 40
0.0877016307520417
100
AcDbArc
 50
320.8487617927139
 51
42.10806925838522
  0
LWPOLYLINE
  5
224
330
1E
100
AcDbEntity
  8
7
100
AcDbPolyline
 90
       19
 70
     0
 43
0.0098425196850394
 10
19.42421259842519
 20
28.46850393700787
 10
19.42224409448819
 20
28.47244094488189
 10
19.41830708661417
 20
28.4753937007874
 10
19.41535433070866
 20
28.47834645669291
 10
19.41240157480315
 20
28.48129921259842
 10
19.40846456692913
 20
28.48326771653543
 10
19.40551181102362
 20
28.48622047244094
 10
19.4015748031496
 20
28.48818897637795
 10
19.39763779527559
 20
28.49015748031495
 10
19.39370078740157
 20
28.49212598425197
 10
19.38976377952755
 20
28.49409448818898
 10
19.38188976377952
 20
28.49704724409448
 10
19.376968503937
 20
28.49901574803149
 10
19.37303149606299
 20
28.5
 10
19.36712598425197
 20
28.5009842519685
 10
19.36318897637795
 20
28.5009842519685
 10
19.35236220472441
 20
28.501968503937
 10
19.11909448818897
 20
28.501968503937
 10
19.11909448818897
 20
28.23720472440944
  0
LWPOLYLINE
  5
239
330
1E
100
AcDbEntity
  8
7
100
AcDbPolyline
 90
        3
 70
     0
 43
0.0098425196850394
 10
19.11909448818897
 20
28.23720472440944
 10
19.24311023622047
 20
28.23720472440944
 10
19.24311023622047
 20
28.31988188976378
  0
LWPOLYLINE
  5
23E
330
1E
100
AcDbEntity
  8
7
100
AcDbPolyline
 90
       13
 70
     0
 43
0.0098425196850394
 10
19.35531496062992
 20
28.41830708661417
 10
19.35236220472441
 20
28.41633858267716
 10
19.34350393700787
 20
28.41141732283464
 10
19.32874015748031
 20
28.40748031496063
 10
19.31003937007874
 20
28.40255905511811
 10
19.28740157480315
 20
28.39960629921259
 10
19.27460629921259
 20
28.39960629921259
 10
19.26082677165354
 20
28.4005905511811
 10
19.24704724409449
 20
28.40255905511811
 10
19.23326771653543
 20
28.40649606299212
 10
19.21751968503937
 20
28.41043307086614
 10
19.20275590551181
 20
28.41732283464567
 10
19.20472440944881
 20
28.42125984251968
  0
LWPOLYLINE
  5
24D
330
1E
100
AcDbEntity
  8
7
100
AcDbPolyline
 90
       13
 70
     0
 43
0.0098425196850394
 10
19.20472440944881
 20
28.42125984251968
 10
19.21948818897637
 20
28.41437007874015
 10
19.23425196850393
 20
28.40944881889763
 10
19.24803149606299
 20
28.40551181102362
 10
19.26082677165354
 20
28.40354330708661
 10
19.27460629921259
 20
28.40255905511811
 10
19.28641732283464
 20
28.40354330708661
 10
19.30905511811023
 20
28.40551181102362
 10
19.3267716535433
 20
28.41043307086614
 10
19.34055118110236
 20
28.41535433070866
 10
19.3503937007874
 20
28.41929133858267
 10
19.35334645669291
 20
28.42125984251968
 10
19.35531496062992
 20
28.41830708661417
  0
LWPOLYLINE
  5
25C
330
1E
100
AcDbEntity
  8
7
100
AcDbPolyline
 90
        5
 70
     0
 43
0.0098425196850394
 10
19.73031496062992
 20
28.42716535433071
 10
19.72834645669291
 20
28.43307086614173
 10
19.7253937007874
 20
28.43996062992125
 10
19.72244094488189
 20
28.44586614173228
 10
19.71948818897637
 20
28.4517716535433
  0
LWPOLYLINE
  5
263
330
1E
100
AcDbEntity
  8
7
100
AcDbPolyline
 90
       19
 70
     0
 43
0.0098425196850394
 10
19.71948818897637
 20
28.4517716535433
 10
19.71751968503937
 20
28.45472440944881
 10
19.71456692913386
 20
28.45669291338582
 10
19.71062992125984
 20
28.46161417322834
 10
19.70767716535433
 20
28.46358267716535
 10
19.70472440944881
 20
28.46653543307086
 10
19.69881889763779
 20
28.46948818897637
 10
19.69192913385827
 20
28.47244094488189
 10
19.68503937007874
 20
28.4753937007874
 10
19.68208661417323
 20
28.4763779527559
 10
19.67814960629921
 20
28.4763779527559
 10
19.66929133858267
 20
28.47834645669291
 10
19.66437007874016
 20
28.47834645669291
 10
19.66043307086614
 20
28.47834645669291
 10
19.50885826771653
 20
28.47834645669291
 10
19.50885826771653
 20
28.26082677165354
 10
19.60531496062992
 20
28.26082677165354
 10
19.60531496062992
 20
28.33169291338582
 10
19.66240157480315
 20
28.33169291338582
  0
LWPOLYLINE
  5
278
330
1E
100
AcDbEntity
  8
7
100
AcDbPolyline
 90
        5
 70
     0
 43
0.0098425196850394
 10
19.66240157480315
 20
28.33169291338582
 10
19.67027559055118
 20
28.33267716535432
 10
19.67421259842519
 20
28.33267716535432
 10
19.67814960629921
 20
28.33267716535432
 10
19.69192913385827
 20
28.33661417322834
  0
LWPOLYLINE
  5
27F
330
1E
100
AcDbEntity
  8
7
100
AcDbPolyline
 90
       14
 70
     0
 43
0.0098425196850394
 10
19.35629921259842
 20
28.41141732283464
 10
19.35629921259842
 20
28.41633858267716
 10
19.35629921259842
 20
28.42125984251968
 10
19.35531496062992
 20
28.4261811023622
 10
19.35433070866142
 20
28.43110236220472
 10
19.35334645669291
 20
28.43503937007874
 10
19.3513779527559
 20
28.43996062992125
 10
19.3494094488189
 20
28.44488188976377
 10
19.34744094488189
 20
28.44881889763779
 10
19.34448818897637
 20
28.45275590551181
 10
19.34153543307086
 20
28.45669291338582
 10
19.33858267716535
 20
28.46062992125984
 10
19.33562992125984
 20
28.46456692913386
 10
19.33169291338582
 20
28.46850393700787
  0
LWPOLYLINE
  5
28F
330
1E
100
AcDbEntity
  8
7
100
AcDbPolyline
 90
       19
 70
     0
 43
0.0098425196850394
 10
19.33169291338582
 20
28.46850393700787
 10
19.32775590551181
 20
28.47145669291338
 10
19.32381889763779
 20
28.47440944881889
 10
19.31988188976378
 20
28.47736220472441
 10
19.31594488188976
 20
28.47933070866142
 10
19.31102362204724
 20
28.48129921259842
 10
19.30708661417322
 20
28.48326771653543
 10
19.30216535433071
 20
28.48523622047244
 10
19.29724409448819
 20
28.48622047244094
 10
19.29232283464567
 20
28.48720472440945
 10
19.28838582677165
 20
28.48818897637795
 10
19.28346456692913
 20
28.48818897637795
 10
19.27854330708661
 20
28.48818897637795
 10
19.27362204724409
 20
28.48818897637795
 10
19.26870078740157
 20
28.48818897637795
 10
19.26377952755905
 20
28.48720472440945
 10
19.25885826771653
 20
28.48622047244094
 10
19.25393700787402
 20
28.48425196850394
 10
19.24901574803149
 20
28.48228346456693
  0
LWPOLYLINE
  5
2A4
330
1E
100
AcDbEntity
  8
7
100
AcDbPolyline
 90
       17
 70
     0
 43
0.0098425196850394
 10
19.24901574803149
 20
28.48228346456693
 10
19.24507874015748
 20
28.48031496062992
 10
19.24015748031496
 20
28.47834645669291
 10
19.23622047244094
 20
28.4753937007874
 10
19.23228346456692
 20
28.47244094488189
 10
19.22834645669291
 20
28.46948818897637
 10
19.2253937007874
 20
28.46653543307086
 10
19.22145669291338
 20
28.46259842519685
 10
19.21850393700787
 20
28.45866141732283
 10
19.21555118110236
 20
28.45472440944881
 10
19.21259842519685
 20
28.4507874015748
 10
19.21062992125984
 20
28.44685039370078
 10
19.20866141732283
 20
28.44192913385827
 10
19.20669291338582
 20
28.43799212598425
 10
19.20472440944881
 20
28.43307086614173
 10
19.20374015748031
 20
28.42814960629921
 10
19.20275590551181
 20
28.42322834645669
  0
LWPOLYLINE
  5
2B7
330
1E
100
AcDbEntity
  8
7
100
AcDbPolyline
 90
       20
 70
     0
 43
0.0098425196850394
 10
19.20275590551181
 20
28.42322834645669
 10
19.2017716535433
 20
28.41830708661417
 10
19.2017716535433
 20
28.41338582677165
 10
19.2017716535433
 20
28.40846456692913
 10
19.2017716535433
 20
28.40354330708661
 10
19.20275590551181
 20
28.39862204724409
 10
19.20374015748031
 20
28.39370078740157
 10
19.20472440944881
 20
28.38976377952755
 10
19.20669291338582
 20
28.38484251968504
 10
19.20866141732283
 20
28.37992125984252
 10
19.21062992125984
 20
28.3759842519685
 10
19.21259842519685
 20
28.37106299212598
 10
19.21555118110236
 20
28.36712598425196
 10
19.21850393700787
 20
28.36318897637795
 10
19.22145669291338
 20
28.35925196850393
 10
19.2253937007874
 20
28.35629921259842
 10
19.22834645669291
 20
28.3523622047244
 10
19.23228346456692
 20
28.34940944881889
 10
19.23622047244094
 20
28.34645669291338
 10
19.24015748031496
 20
28.34448818897637
  0
ARC
  5
2CD
330
1E
100
AcDbEntity
  8
7
100
AcDbCircle
 10
19.2795956438178
 20
28.41035100672252
 30
0.0
 40
0.076767698297783
100
AcDbArc
 50
239.0831320585792
 51
320.2035833169811
  0
LWPOLYLINE
  5
2CE
330
1E
100
AcDbEntity
  8
7
100
AcDbPolyline
 90
       12
 70
     0
 43
0.0098425196850394
 10
19.33858267716535
 20
28.36122047244094
 10
19.34153543307086
 20
28.36515748031496
 10
19.34448818897637
 20
28.36909448818897
 10
19.34744094488189
 20
28.37303149606299
 10
19.3494094488189
 20
28.37795275590551
 10
19.3513779527559
 20
28.38188976377952
 10
19.35334645669291
 20
28.38681102362205
 10
19.35433070866142
 20
28.39173228346457
 10
19.35531496062992
 20
28.39665354330708
 10
19.35629921259842
 20
28.4015748031496
 10
19.35629921259842
 20
28.40649606299212
 10
19.35629921259842
 20
28.41141732283464
  0
LINE
  5
2DC
330
1E
100
AcDbEntity
  8
7
100
AcDbLine
 10
19.82381889763779
 20
28.42716535433071
 30
0.0
 11
19.82381889763779
 21
28.31594488188976
 31
0.0
  0
LWPOLYLINE
  5
2DD
330
1E
100
AcDbEntity
  8
7
100
AcDbPolyline
 90
        4
 70
     0
 43
0.0098425196850394
 10
19.69192913385827
 20
28.33661417322834
 10
19.66141732283464
 20
28.26082677165354
 10
19.71555118110236
 20
28.26082677165354
 10
19.72440944881889
 20
28.29035433070865
  0
LWPOLYLINE
  5
2E3
330
1E
100
AcDbEntity
  8
7
100
AcDbPolyline
 90
        4
 70
     0
 43
0.0098425196850394
 10
19.72440944881889
 20
28.29035433070865
 10
19.77952755905511
 20
28.29035433070865
 10
19.79133858267716
 20
28.26082677165354
 10
19.87204724409449
 20
28.26082677165354
  0
LWPOLYLINE
  5
2E9
330
1E
100
AcDbEntity
  8
7
100
AcDbPolyline
 90
       11
 70
     0
 43
0.0098425196850394
 10
19.34251968503937
 20
28.45275590551181
 10
19.33169291338582
 20
28.44881889763779
 10
19.31988188976378
 20
28.44488188976377
 10
19.30511811023622
 20
28.44192913385827
 10
19.28641732283464
 20
28.43897637795275
 10
19.2755905511811
 20
28.43897637795275
 10
19.26476377952756
 20
28.43996062992125
 10
19.25393700787402
 20
28.44192913385827
 10
19.24212598425197
 20
28.44488188976377
 10
19.22933070866141
 20
28.44783464566929
 10
19.21751968503937
 20
28.45275590551181
  0
LWPOLYLINE
  5
2F6
330
1E
100
AcDbEntity
  8
7
100
AcDbPolyline
 90
       13
 70
     0
 43
0.0098425196850394
 10
19.21751968503937
 20
28.45275590551181
 10
19.21948818897637
 20
28.45669291338582
 10
19.23129921259842
 20
28.4517716535433
 10
19.24311023622047
 20
28.44783464566929
 10
19.25492125984252
 20
28.44488188976377
 10
19.26476377952756
 20
28.44291338582677
 10
19.2755905511811
 20
28.44291338582677
 10
19.28543307086614
 20
28.44291338582677
 10
19.30314960629921
 20
28.44488188976377
 10
19.31791338582677
 20
28.44881889763779
 10
19.32972440944881
 20
28.4517716535433
 10
19.33956692913385
 20
28.45669291338582
 10
19.34251968503937
 20
28.45275590551181
  0
LWPOLYLINE
  5
305
330
1E
100
AcDbEntity
  8
7
100
AcDbPolyline
 90
        4
 70
     0
 43
0.0098425196850394
 10
19.2765748031496
 20
28.48622047244094
 10
19.26870078740157
 20
28.47145669291338
 10
19.26279527559055
 20
28.45570866141732
 10
19.25984251968504
 20
28.44586614173228
  0
LWPOLYLINE
  5
30B
330
1E
100
AcDbEntity
  8
7
100
AcDbPolyline
 90
       16
 70
     0
 43
0.0098425196850394
 10
19.25984251968504
 20
28.44586614173228
 10
19.25688976377952
 20
28.43503937007874
 10
19.25492125984252
 20
28.42322834645669
 10
19.25295275590551
 20
28.41141732283464
 10
19.25295275590551
 20
28.39862204724409
 10
19.25393700787402
 20
28.38582677165354
 10
19.25688976377952
 20
28.37303149606299
 10
19.26082677165354
 20
28.36122047244094
 10
19.26771653543307
 20
28.34940944881889
 10
19.2765748031496
 20
28.33661417322834
 10
19.27263779527559
 20
28.33464566929134
 10
19.26476377952756
 20
28.34645669291338
 10
19.25787401574803
 20
28.35925196850393
 10
19.25295275590551
 20
28.37204724409449
 10
19.25
 20
28.38484251968504
 10
19.24901574803149
 20
28.39862204724409
  0
LWPOLYLINE
  5
31D
330
1E
100
AcDbEntity
  8
7
100
AcDbPolyline
 90
        9
 70
     0
 43
0.0098425196850394
 10
19.24901574803149
 20
28.39862204724409
 10
19.24901574803149
 20
28.41141732283464
 10
19.25
 20
28.42322834645669
 10
19.25295275590551
 20
28.43503937007874
 10
19.25590551181102
 20
28.44586614173228
 10
19.25885826771653
 20
28.45570866141732
 10
19.26574803149606
 20
28.47244094488189
 10
19.27263779527559
 20
28.48818897637795
 10
19.2765748031496
 20
28.48622047244094
  0
LWPOLYLINE
  5
328
330
1E
100
AcDbEntity
  8
7
100
AcDbPolyline
 90
        9
 70
     0
 43
0.0098425196850394
 10
20.126968503937
 20
28.42716535433071
 10
20.126968503937
 20
28.29527559055118
 10
20.12795275590551
 20
28.28937007874015
 10
20.12893700787401
 20
28.28444881889764
 10
20.12992125984252
 20
28.27952755905512
 10
20.13287401574803
 20
28.27657480314961
 10
20.13385826771653
 20
28.27460629921259
 10
20.13484251968504
 20
28.27362204724409
 10
20.13779527559055
 20
28.26968503937008
  0
LWPOLYLINE
  5
333
330
1E
100
AcDbEntity
  8
7
100
AcDbPolyline
 90
       23
 70
     0
 43
0.0098425196850394
 10
20.13779527559055
 20
28.26968503937008
 10
20.14074803149606
 20
28.26771653543307
 10
20.14468503937008
 20
28.26574803149606
 10
20.1505905511811
 20
28.26279527559055
 10
20.15551181102362
 20
28.26082677165354
 10
20.15944881889764
 20
28.26082677165354
 10
20.16141732283464
 20
28.26082677165354
 10
20.22047244094488
 20
28.26082677165354
 10
20.2253937007874
 20
28.26082677165354
 10
20.22933070866141
 20
28.26181102362204
 10
20.23425196850393
 20
28.26377952755905
 10
20.23720472440944
 20
28.26673228346456
 10
20.23818897637795
 20
28.26771653543307
 10
20.23917322834646
 20
28.26870078740157
 10
20.24212598425197
 20
28.27165354330708
 10
20.24311023622047
 20
28.27362204724409
 10
20.24409448818897
 20
28.27460629921259
 10
20.24606299212598
 20
28.27755905511811
 10
20.24704724409449
 20
28.28051181102362
 10
20.24803149606299
 20
28.28346456692913
 10
20.24901574803149
 20
28.28937007874015
 10
20.24901574803149
 20
28.29330708661417
 10
20.24901574803149
 20
28.29527559055118
  0
LWPOLYLINE
  5
34C
330
1E
100
AcDbEntity
  8
7
100
AcDbPolyline
 90
       18
 70
     0
 43
0.0098425196850394
 10
20.24901574803149
 20
28.29527559055118
 10
20.24901574803149
 20
28.4261811023622
 10
20.20472440944881
 20
28.4261811023622
 10
20.20570866141732
 20
28.34251968503937
 10
20.20570866141732
 20
28.30905511811023
 10
20.20570866141732
 20
28.30511811023622
 10
20.20570866141732
 20
28.3021653543307
 10
20.20472440944881
 20
28.3001968503937
 10
20.20374015748031
 20
28.29822834645669
 10
20.20177165354331
 20
28.29822834645669
 10
20.2007874015748
 20
28.29724409448818
 10
20.18700787401574
 20
28.29724409448818
 10
20.18503937007874
 20
28.29724409448818
 10
20.18405511811023
 20
28.29822834645669
 10
20.18307086614173
 20
28.29921259842519
 10
20.18208661417323
 20
28.30314960629921
 10
20.18110236220472
 20
28.30511811023622
 10
20.18110236220472
 20
28.30905511811023
  0
LWPOLYLINE
  5
360
330
1E
100
AcDbEntity
  8
7
100
AcDbPolyline
 90
        3
 70
     0
 43
0.0098425196850394
 10
20.18110236220472
 20
28.30905511811023
 10
20.18110236220472
 20
28.42716535433071
 10
20.126968503937
 20
28.42716535433071
  0
LWPOLYLINE
  5
365
330
1E
100
AcDbEntity
  8
7
100
AcDbPolyline
 90
        9
 70
     0
 43
0.0098425196850394
 10
19.87204724409449
 20
28.26082677165354
 10
19.87204724409449
 20
28.32283464566929
 10
19.89665354330709
 20
28.26082677165354
 10
19.95767716535433
 20
28.26082677165354
 10
19.95767716535433
 20
28.42716535433071
 10
19.91141732283464
 20
28.42716535433071
 10
19.91141732283464
 20
28.36417322834645
 10
19.88877952755905
 20
28.42716535433071
 10
19.82381889763779
 20
28.42716535433071
  0
LINE
  5
370
330
1E
100
AcDbEntity
  8
7
100
AcDbLine
 10
19.82381889763779
 20
28.31594488188976
 30
0.0
 11
19.78149606299212
 21
28.42716535433071
 31
0.0
  0
LINE
  5
371
330
1E
100
AcDbEntity
  8
7
100
AcDbLine
 10
19.78149606299212
 20
28.42716535433071
 30
0.0
 11
19.73031496062992
 21
28.42716535433071
 31
0.0
  0
LWPOLYLINE
  5
372
330
1E
100
AcDbEntity
  8
7
100
AcDbPolyline
 90
       16
 70
     0
 43
0.0098425196850394
 10
19.97933070866142
 20
28.42716535433071
 10
20.08169291338583
 20
28.42716535433071
 10
20.08759842519685
 20
28.42716535433071
 10
20.09055118110236
 20
28.42716535433071
 10
20.09251968503936
 20
28.4261811023622
 10
20.09744094488189
 20
28.42421259842519
 10
20.09940944881889
 20
28.42322834645669
 10
20.1013779527559
 20
28.42125984251968
 10
20.10334645669291
 20
28.42027559055118
 10
20.10433070866141
 20
28.41830708661417
 10
20.10728346456692
 20
28.41437007874015
 10
20.10826771653543
 20
28.41240157480314
 10
20.10925196850393
 20
28.41043307086614
 10
20.10925196850393
 20
28.40748031496063
 10
20.10925196850393
 20
28.40551181102362
 10
20.10925196850393
 20
28.28346456692913
  0
LWPOLYLINE
  5
384
330
1E
100
AcDbEntity
  8
7
100
AcDbPolyline
 90
       15
 70
     0
 43
0.0098425196850394
 10
20.10925196850393
 20
28.28346456692913
 10
20.10925196850393
 20
28.28051181102362
 10
20.10925196850393
 20
28.27755905511811
 10
20.10826771653543
 20
28.27460629921259
 10
20.10728346456692
 20
28.27263779527559
 10
20.10433070866141
 20
28.26870078740157
 10
20.10334645669291
 20
28.26673228346456
 10
20.1013779527559
 20
28.26574803149606
 10
20.09744094488189
 20
28.26377952755905
 10
20.09547244094488
 20
28.26279527559055
 10
20.09251968503936
 20
28.26181102362204
 10
20.08759842519685
 20
28.26082677165354
 10
20.08169291338583
 20
28.26082677165354
 10
19.97933070866142
 20
28.26082677165354
 10
19.97933070866142
 20
28.42716535433071
  0
LWPOLYLINE
  5
395
330
1E
100
AcDbEntity
  8
7
100
AcDbPolyline
 90
       20
 70
     0
 43
0.0098425196850394
 10
20.03740157480315
 20
28.39271653543307
 10
20.03740157480315
 20
28.3021653543307
 10
20.05314960629921
 20
28.3021653543307
 10
20.05413385826771
 20
28.3021653543307
 10
20.05610236220472
 20
28.3021653543307
 10
20.05708661417322
 20
28.30314960629921
 10
20.06003937007874
 20
28.30511811023622
 10
20.06003937007874
 20
28.30807086614173
 10
20.06102362204724
 20
28.31003937007874
 10
20.06102362204724
 20
28.31299212598425
 10
20.06102362204724
 20
28.38188976377952
 10
20.06102362204724
 20
28.38385826771653
 10
20.06003937007874
 20
28.38582677165354
 10
20.05905511811023
 20
28.38779527559055
 10
20.05807086614173
 20
28.38976377952755
 10
20.05610236220472
 20
28.39074803149606
 10
20.05511811023622
 20
28.39173228346457
 10
20.05314960629921
 20
28.39271653543307
 10
20.0511811023622
 20
28.39271653543307
 10
20.03740157480315
 20
28.39271653543307
  0
LWPOLYLINE
  5
3AB
330
1E
100
AcDbEntity
  8
7
100
AcDbPolyline
 90
       19
 70
     0
 43
0.0098425196850394
 10
19.61023622047244
 20
28.44586614173228
 10
19.61023622047244
 20
28.36712598425196
 10
19.62795275590551
 20
28.36712598425196
 10
19.63090551181102
 20
28.36811023622047
 10
19.63287401574803
 20
28.36811023622047
 10
19.63385826771653
 20
28.37007874015748
 10
19.63582677165354
 20
28.37106299212598
 10
19.63779527559055
 20
28.375
 10
19.63877952755905
 20
28.37696850393701
 10
19.63877952755905
 20
28.37795275590551
 10
19.63877952755905
 20
28.43405511811024
 10
19.63779527559055
 20
28.43700787401575
 10
19.63779527559055
 20
28.43897637795275
 10
19.63681102362204
 20
28.44094488188976
 10
19.63582677165354
 20
28.44291338582677
 10
19.63385826771653
 20
28.44488188976377
 10
19.63090551181102
 20
28.44586614173228
 10
19.62795275590551
 20
28.44586614173228
 10
19.61023622047244
 20
28.44586614173228
  0
LWPOLYLINE
  5
3C0
330
1E
100
AcDbEntity
  8
7
100
AcDbPolyline
 90
       15
 70
     0
 43
0.0098425196850394
 10
19.28346456692913
 20
28.48818897637795
 10
19.29133858267716
 20
28.4753937007874
 10
19.29822834645669
 20
28.46062992125984
 10
19.30511811023622
 20
28.44094488188976
 10
19.30807086614173
 20
28.43011811023622
 10
19.30905511811023
 20
28.41830708661417
 10
19.30905511811023
 20
28.40551181102362
 10
19.30807086614173
 20
28.39271653543307
 10
19.30610236220472
 20
28.37893700787401
 10
19.3011811023622
 20
28.36318897637795
 10
19.29429133858267
 20
28.34940944881889
 10
19.28543307086614
 20
28.33464566929134
 10
19.28149606299212
 20
28.33661417322834
 10
19.29035433070866
 20
28.3513779527559
 10
19.29724409448819
 20
28.36515748031496
  0
LWPOLYLINE
  5
3D1
330
1E
100
AcDbEntity
  8
7
100
AcDbPolyline
 90
       11
 70
     0
 43
0.0098425196850394
 10
19.29724409448819
 20
28.36515748031496
 10
19.30216535433071
 20
28.37992125984252
 10
19.30413385826772
 20
28.39271653543307
 10
19.30511811023622
 20
28.40551181102362
 10
19.30511811023622
 20
28.41732283464567
 10
19.30314960629921
 20
28.42913385826771
 10
19.3011811023622
 20
28.44094488188976
 10
19.29527559055118
 20
28.45866141732283
 10
19.28740157480315
 20
28.47342519685039
 10
19.27952755905511
 20
28.48622047244094
 10
19.28346456692913
 20
28.48818897637795
  0
LWPOLYLINE
  5
3DE
330
1E
100
AcDbEntity
  8
7
100
AcDbPolyline
 90
        5
 70
     0
 43
0.0098425196850394
 10
19.26082677165354
 20
28.48425196850394
 10
19.25688976377952
 20
28.48129921259842
 10
19.24901574803149
 20
28.47145669291338
 10
19.23818897637795
 20
28.45767716535433
 10
19.22834645669291
 20
28.43897637795275
  0
LWPOLYLINE
  5
3E5
330
1E
100
AcDbEntity
  8
7
100
AcDbPolyline
 90
       16
 70
     0
 43
0.0098425196850394
 10
19.22834645669291
 20
28.43897637795275
 10
19.2263779527559
 20
28.43503937007874
 10
19.2253937007874
 20
28.43011811023622
 10
19.22244094488189
 20
28.41830708661417
 10
19.22244094488189
 20
28.40551181102362
 10
19.22440944881889
 20
28.39271653543307
 10
19.2263779527559
 20
28.38582677165354
 10
19.22933070866141
 20
28.38090551181102
 10
19.23622047244094
 20
28.36614173228346
 10
19.24606299212598
 20
28.3523622047244
 10
19.26082677165354
 20
28.33759842519684
 10
19.25885826771653
 20
28.33464566929134
 10
19.24409448818897
 20
28.34940944881889
 10
19.23326771653543
 20
28.36417322834645
 10
19.2253937007874
 20
28.37795275590551
 10
19.22244094488189
 20
28.38582677165354
  0
LWPOLYLINE
  5
3F7
330
1E
100
AcDbEntity
  8
7
100
AcDbPolyline
 90
       12
 70
     0
 43
0.0098425196850394
 10
19.22244094488189
 20
28.38582677165354
 10
19.22047244094488
 20
28.39173228346457
 10
19.21850393700787
 20
28.40551181102362
 10
19.21850393700787
 20
28.41830708661417
 10
19.22145669291338
 20
28.43011811023622
 10
19.22244094488189
 20
28.43503937007874
 10
19.2253937007874
 20
28.44192913385827
 10
19.23523622047244
 20
28.46062992125984
 10
19.24606299212598
 20
28.47440944881889
 10
19.25492125984252
 20
28.48425196850394
 10
19.25885826771653
 20
28.48720472440945
 10
19.26082677165354
 20
28.48425196850394
  0
LWPOLYLINE
  5
405
330
1E
100
AcDbEntity
  8
7
100
AcDbPolyline
 90
        7
 70
     0
 43
0.0098425196850394
 10
19.29527559055118
 20
28.33759842519684
 10
19.31200787401574
 20
28.3523622047244
 10
19.31791338582677
 20
28.35925196850393
 10
19.32283464566929
 20
28.36614173228346
 10
19.33070866141732
 20
28.37992125984252
 10
19.33267716535433
 20
28.38582677165354
 10
19.33562992125984
 20
28.39271653543307
  0
LWPOLYLINE
  5
40E
330
1E
100
AcDbEntity
  8
7
100
AcDbPolyline
 90
       18
 70
     0
 43
0.0098425196850394
 10
19.33562992125984
 20
28.39271653543307
 10
19.33661417322834
 20
28.40551181102362
 10
19.33661417322834
 20
28.41830708661417
 10
19.33464566929134
 20
28.42913385826771
 10
19.33070866141732
 20
28.43897637795275
 10
19.3257874015748
 20
28.44980314960629
 10
19.31988188976378
 20
28.45767716535433
 10
19.30905511811023
 20
28.47244094488189
 10
19.30314960629921
 20
28.47834645669291
 10
19.29921259842519
 20
28.48228346456693
 10
19.29527559055118
 20
28.48523622047244
 10
19.29822834645669
 20
28.48818897637795
 10
19.30216535433071
 20
28.48425196850394
 10
19.30610236220472
 20
28.48031496062992
 10
19.31200787401574
 20
28.4753937007874
 10
19.32283464566929
 20
28.46062992125984
 10
19.32874015748031
 20
28.4517716535433
 10
19.33464566929134
 20
28.44094488188976
  0
LWPOLYLINE
  5
422
330
1E
100
AcDbEntity
  8
7
100
AcDbPolyline
 90
       13
 70
     0
 43
0.0098425196850394
 10
19.33464566929134
 20
28.44094488188976
 10
19.33759842519685
 20
28.43011811023622
 10
19.34055118110236
 20
28.41830708661417
 10
19.34055118110236
 20
28.40551181102362
 10
19.33858267716535
 20
28.39173228346457
 10
19.33661417322834
 20
28.38484251968504
 10
19.33464566929134
 20
28.37795275590551
 10
19.32972440944881
 20
28.37106299212598
 10
19.3257874015748
 20
28.36318897637795
 10
19.32086614173228
 20
28.35629921259842
 10
19.31397637795275
 20
28.34940944881889
 10
19.29822834645669
 20
28.33464566929134
 10
19.29527559055118
 20
28.33759842519684
  0
LINE
  5
431
330
1E
100
AcDbEntity
  8
7
100
AcDbLine
 10
19.35334645669291
 20
28.38484251968504
 30
0.0
 11
19.34153543307086
 21
28.37795275590551
 31
0.0
  0
LWPOLYLINE
  5
432
330
1E
100
AcDbEntity
  8
7
100
AcDbPolyline
 90
       16
 70
     0
 43
0.0098425196850394
 10
19.34153543307086
 20
28.37795275590551
 10
19.33562992125984
 20
28.37401574803149
 10
19.3267716535433
 20
28.37204724409449
 10
19.30905511811023
 20
28.36515748031496
 10
19.29822834645669
 20
28.36318897637795
 10
19.28641732283464
 20
28.36220472440944
 10
19.27460629921259
 20
28.36220472440944
 10
19.26181102362204
 20
28.36318897637795
 10
19.24803149606299
 20
28.36515748031496
 10
19.23326771653543
 20
28.37007874015748
 10
19.21948818897637
 20
28.3759842519685
 10
19.20570866141732
 20
28.38484251968504
 10
19.20767716535433
 20
28.38779527559055
 10
19.22244094488189
 20
28.37992125984252
 10
19.23523622047244
 20
28.37303149606299
 10
19.24901574803149
 20
28.36909448818897
  0
LWPOLYLINE
  5
444
330
1E
100
AcDbEntity
  8
7
100
AcDbPolyline
 90
       11
 70
     0
 43
0.0098425196850394
 10
19.24901574803149
 20
28.36909448818897
 10
19.26181102362204
 20
28.36614173228346
 10
19.27460629921259
 20
28.36515748031496
 10
19.28641732283464
 20
28.36515748031496
 10
19.29724409448819
 20
28.36712598425196
 10
19.30708661417322
 20
28.36909448818897
 10
19.32480314960629
 20
28.375
 10
19.33267716535433
 20
28.37795275590551
 10
19.33956692913385
 20
28.38090551181102
 10
19.3503937007874
 20
28.38779527559055
 10
19.35334645669291
 20
28.38484251968504
  0
LWPOLYLINE
  5
451
330
1E
100
AcDbEntity
  8
7
100
AcDbPolyline
 90
        6
 70
     0
 43
0.0098425196850394
 10
20.36614173228346
 20
28.26082677165354
 10
20.36614173228346
 20
28.39370078740157
 10
20.32972440944881
 20
28.39370078740157
 10
20.32972440944881
 20
28.42716535433071
 10
20.45374015748031
 20
28.42716535433071
 10
20.45374015748031
 20
28.39370078740157
  0
LWPOLYLINE
  5
459
330
1E
100
AcDbEntity
  8
7
100
AcDbPolyline
 90
        4
 70
     0
 43
0.0098425196850394
 10
20.45374015748031
 20
28.39370078740157
 10
20.41732283464567
 20
28.39370078740157
 10
20.41732283464567
 20
28.26082677165354
 10
20.36614173228346
 20
28.26082677165354
  0
LWPOLYLINE
  5
45F
330
1E
100
AcDbEntity
  8
7
100
AcDbPolyline
 90
        4
 70
     0
 43
0.0098425196850394
 10
19.75787401574803
 20
28.37007874015748
 10
19.74114173228346
 20
28.3248031496063
 10
19.77460629921259
 20
28.3248031496063
 10
19.75787401574803
 20
28.37007874015748
  0
LWPOLYLINE
  5
465
330
1E
100
AcDbEntity
  8
7
100
AcDbPolyline
 90
        7
 70
     0
 43
0.0098425196850394
 10
19.35531496062992
 20
28.41141732283464
 10
19.35531496062992
 20
28.41633858267716
 10
19.35433070866142
 20
28.42027559055118
 10
19.35334645669291
 20
28.4251968503937
 10
19.35236220472441
 20
28.43011811023622
 10
19.3513779527559
 20
28.43503937007874
 10
19.3494094488189
 20
28.43897637795275
  0
LWPOLYLINE
  5
46E
330
1E
100
AcDbEntity
  8
7
100
AcDbPolyline
 90
       20
 70
     0
 43
0.0098425196850394
 10
19.3494094488189
 20
28.43897637795275
 10
19.34744094488189
 20
28.44389763779527
 10
19.34547244094488
 20
28.44783464566929
 10
19.34350393700787
 20
28.4517716535433
 10
19.34055118110236
 20
28.45570866141732
 10
19.33759842519685
 20
28.45964566929133
 10
19.33366141732283
 20
28.46358267716535
 10
19.33070866141732
 20
28.46653543307086
 10
19.3267716535433
 20
28.46948818897637
 10
19.32283464566929
 20
28.47244094488189
 10
19.31889763779527
 20
28.4753937007874
 10
19.31496062992126
 20
28.47834645669291
 10
19.31102362204724
 20
28.48031496062992
 10
19.30610236220472
 20
28.48228346456693
 10
19.30216535433071
 20
28.48326771653543
 10
19.29724409448819
 20
28.48523622047244
 10
19.29232283464567
 20
28.48622047244094
 10
19.28740157480315
 20
28.48622047244094
 10
19.28248031496062
 20
28.48720472440945
 10
19.27854330708661
 20
28.48720472440945
  0
LWPOLYLINE
  5
484
330
1E
100
AcDbEntity
  8
7
100
AcDbPolyline
 90
       17
 70
     0
 43
0.0098425196850394
 10
19.27854330708661
 20
28.48720472440945
 10
19.27362204724409
 20
28.48622047244094
 10
19.26870078740157
 20
28.48622047244094
 10
19.26377952755905
 20
28.48523622047244
 10
19.25885826771653
 20
28.48425196850394
 10
19.25492125984252
 20
28.48228346456693
 10
19.25
 20
28.48129921259842
 10
19.24606299212598
 20
28.47933070866142
 10
19.24114173228346
 20
28.4763779527559
 10
19.23720472440944
 20
28.47440944881889
 10
19.23326771653543
 20
28.47145669291338
 10
19.22933070866141
 20
28.46850393700787
 10
19.2263779527559
 20
28.46555118110236
 10
19.22244094488189
 20
28.46161417322834
 10
19.21948818897637
 20
28.45767716535433
 10
19.21653543307086
 20
28.45374015748031
 10
19.21456692913386
 20
28.44980314960629
  0
LWPOLYLINE
  5
497
330
1E
100
AcDbEntity
  8
7
100
AcDbPolyline
 90
       18
 70
     0
 43
0.0098425196850394
 10
19.21456692913386
 20
28.44980314960629
 10
19.21161417322834
 20
28.44586614173228
 10
19.20964566929134
 20
28.44192913385827
 10
19.20767716535433
 20
28.43700787401575
 10
19.20669291338582
 20
28.43208661417323
 10
19.20570866141732
 20
28.42814960629921
 10
19.20472440944881
 20
28.42322834645669
 10
19.20374015748031
 20
28.41830708661417
 10
19.20374015748031
 20
28.41338582677165
 10
19.20374015748031
 20
28.40846456692913
 10
19.20374015748031
 20
28.40354330708661
 10
19.20472440944881
 20
28.39960629921259
 10
19.20570866141732
 20
28.39468503937007
 10
19.20669291338582
 20
28.38976377952755
 10
19.20767716535433
 20
28.38484251968504
 10
19.20964566929134
 20
28.38090551181102
 10
19.21161417322834
 20
28.3759842519685
 10
19.21456692913386
 20
28.37204724409449
  0
ARC
  5
4AB
330
1E
100
AcDbEntity
  8
7
100
AcDbCircle
 10
19.2796403379265
 20
28.41178641732283
 30
0.0
 40
0.0762479535513435
100
AcDbArc
 50
211.4081254872176
 51
283.343850442191
  0
ARC
  5
4AC
330
1E
100
AcDbEntity
  8
7
100
AcDbCircle
 10
19.28041953740157
 20
28.4105843996063
 30
0.0
 40
0.0749000546171873
100
AcDbArc
 50
282.97618821455
 51
0.6371580113458563
  0
LINE
  5
4AD
330
1E
100
AcDbEntity
  8
7
100
AcDbLine
 10
20.50295275590551
 20
28.55610236220472
 30
0.0
 11
19.10334645669291
 21
28.55610236220472
 31
0.0
  0
LINE
  5
4AE
330
1E
100
AcDbEntity
  8
7
100
AcDbLine
 10
19.10334645669291
 20
28.18405511811024
 30
0.0
 11
19.10334645669291
 21
28.55610236220472
 31
0.0
  0
LINE
  5
4AF
330
1E
100
AcDbEntity
  8
7
100
AcDbLine
 10
20.50295275590551
 20
28.18405511811024
 30
0.0
 11
19.10334645669291
 21
28.18405511811024
 31
0.0
  0
LINE
  5
4B0
330
1E
100
AcDbEntity
  8
7
100
AcDbLine
 10
20.50295275590551
 20
28.55610236220472
 30
0.0
 11
20.50295275590551
 21
28.18405511811024
 31
0.0
  0
LINE
  5
4B1
330
1E
100
AcDbEntity
  8
7
100
AcDbLine
 10
21.48129921259842
 20
28.68110236220472
 30
0.0
 11
19.1013779527559
 21
28.68110236220472
 31
0.0
  0
LINE
  5
4B2
330
1E
100
AcDbEntity
  8
7
100
AcDbLine
 10
19.04133858267716
 20
27.24114173228346
 30
0.0
 11
19.04133858267716
 21
28.62106299212598
 31
0.0
  0
LINE
  5
4B3
330
1E
100
AcDbEntity
  8
7
100
AcDbLine
 10
21.54133858267716
 20
27.24114173228346
 30
0.0
 11
21.54133858267716
 21
28.62106299212598
 31
0.0
  0
LINE
  5
4B4
330
1E
100
AcDbEntity
  8
7
100
AcDbLine
 10
19.1013779527559
 20
27.18110236220472
 30
0.0
 11
21.48129921259842
 21
27.18110236220472
 31
0.0
  0
LWPOLYLINE
  5
4B5
330
1E
100
AcDbEntity
  8
7
100
AcDbPolyline
 90
        3
 70
     0
 43
0.0098425196850394
 10
19.04232283464567
 20
27.24114173228346
 10
19.04724409448818
 20
27.21850393700787
 10
19.06003937007874
 20
27.1998031496063
  0
LWPOLYLINE
  5
4BA
330
1E
100
AcDbEntity
  8
7
100
AcDbPolyline
 90
        3
 70
     0
 43
0.0098425196850394
 10
19.06003937007874
 20
27.1998031496063
 10
19.07874015748031
 20
27.18700787401575
 10
19.1013779527559
 20
27.18208661417323
  0
LWPOLYLINE
  5
4BF
330
1E
100
AcDbEntity
  8
7
100
AcDbPolyline
 90
        5
 70
     0
 43
0.0098425196850394
 10
21.48129921259842
 20
27.18208661417323
 10
21.50393700787402
 20
27.18700787401575
 10
21.52263779527559
 20
27.1998031496063
 10
21.53543307086614
 20
27.21850393700787
 10
21.54035433070866
 20
27.24114173228346
  0
LWPOLYLINE
  5
4C6
330
1E
100
AcDbEntity
  8
7
100
AcDbPolyline
 90
        3
 70
     0
 43
0.0098425196850394
 10
21.54035433070866
 20
28.62106299212598
 10
21.53543307086614
 20
28.64370078740157
 10
21.52263779527559
 20
28.66240157480314
  0
LWPOLYLINE
  5
4CB
330
1E
100
AcDbEntity
  8
7
100
AcDbPolyline
 90
        3
 70
     0
 43
0.0098425196850394
 10
21.52263779527559
 20
28.66240157480314
 10
21.50393700787402
 20
28.6751968503937
 10
21.48129921259842
 20
28.68011811023622
  0
LWPOLYLINE
  5
4D0
330
1E
100
AcDbEntity
  8
7
100
AcDbPolyline
 90
        5
 70
     0
 43
0.0098425196850394
 10
19.1013779527559
 20
28.68011811023622
 10
19.07874015748031
 20
28.6751968503937
 10
19.06003937007874
 20
28.66240157480314
 10
19.04724409448818
 20
28.64370078740157
 10
19.04232283464567
 20
28.62106299212598
  0
LWPOLYLINE
  5
4D7
330
1E
100
AcDbEntity
  8
7
100
AcDbPolyline
 90
        3
 70
     0
 43
0.0098425196850394
 10
24.13484251968504
 20
27.40944881889763
 10
24.13484251968504
 20
27.40846456692913
 10
24.13484251968504
 20
27.40649606299212
  0
LINE
  5
4DC
330
1E
100
AcDbEntity
  8
7
100
AcDbLine
 10
24.13484251968504
 20
27.48228346456693
 30
0.0
 11
24.13484251968504
 21
27.48129921259842
 31
0.0
  0
LWPOLYLINE
  5
4DD
330
1E
100
AcDbEntity
  8
7
100
AcDbPolyline
 90
        7
 70
     0
 43
0.0098425196850394
 10
24.13484251968504
 20
27.49606299212598
 10
24.13090551181102
 20
27.52066929133858
 10
24.12303149606299
 20
27.54232283464567
 10
24.11122047244094
 20
27.56299212598425
 10
24.09547244094488
 20
27.58169291338582
 10
24.07775590551181
 20
27.59744094488189
 10
24.0501968503937
 20
27.61220472440944
  0
LWPOLYLINE
  5
4E6
330
1E
100
AcDbEntity
  8
7
100
AcDbPolyline
 90
        4
 70
     0
 43
0.0098425196850394
 10
24.13484251968504
 20
27.49606299212598
 10
24.13484251968504
 20
27.48917322834645
 10
24.13484251968504
 20
27.48326771653543
 10
24.13484251968504
 20
27.48228346456693
  0
LINE
  5
4EC
330
1E
100
AcDbEntity
  8
7
100
AcDbLine
 10
24.13484251968504
 20
27.48129921259842
 30
0.0
 11
24.13484251968504
 21
27.48031496062992
 31
0.0
  0
LWPOLYLINE
  5
4ED
330
1E
100
AcDbEntity
  8
7
100
AcDbPolyline
 90
        3
 70
     0
 43
0.0098425196850394
 10
24.13484251968504
 20
27.42027559055118
 10
24.13188976377953
 20
27.43011811023622
 10
24.13090551181102
 20
27.43110236220472
  0
LWPOLYLINE
  5
4F2
330
1E
100
AcDbEntity
  8
7
100
AcDbPolyline
 90
        3
 70
     0
 43
0.0098425196850394
 10
24.13484251968504
 20
27.42027559055118
 10
24.13484251968504
 20
27.41633858267716
 10
24.13484251968504
 20
27.40944881889763
  0
LWPOLYLINE
  5
4F7
330
1E
100
AcDbEntity
  8
7
100
AcDbPolyline
 90
        4
 70
     0
 43
0.0098425196850394
 10
24.13484251968504
 20
27.40649606299212
 10
24.13484251968504
 20
27.39862204724409
 10
24.13484251968504
 20
27.39074803149606
 10
24.13484251968504
 20
27.38779527559055
  0
LINE
  5
4FD
330
1E
100
AcDbEntity
  8
7
100
AcDbLine
 10
24.13385826771653
 20
27.37992125984252
 30
0.0
 11
24.13484251968504
 21
27.38779527559055
 31
0.0
  0
LINE
  5
4FE
330
1E
100
AcDbEntity
  8
7
100
AcDbLine
 10
24.13484251968504
 20
27.36417322834645
 30
0.0
 11
24.12992125984252
 21
27.34350393700787
 31
0.0
  0
LINE
  5
4FF
330
1E
100
AcDbEntity
  8
7
100
AcDbLine
 10
24.13484251968504
 20
27.37992125984252
 30
0.0
 11
24.13484251968504
 21
27.37795275590551
 31
0.0
  0
LWPOLYLINE
  5
500
330
1E
100
AcDbEntity
  8
7
100
AcDbPolyline
 90
        5
 70
     0
 43
0.0098425196850394
 10
24.09547244094488
 20
27.34251968503937
 10
24.11220472440945
 20
27.3513779527559
 10
24.12303149606299
 20
27.35925196850393
 10
24.13090551181102
 20
27.36909448818897
 10
24.13484251968504
 20
27.37795275590551
  0
LWPOLYLINE
  5
507
330
1E
100
AcDbEntity
  8
7
100
AcDbPolyline
 90
        3
 70
     0
 43
0.0098425196850394
 10
24.09547244094488
 20
27.40452755905511
 10
24.0994094488189
 20
27.37401574803149
 10
24.09547244094488
 20
27.34251968503937
  0
LINE
  5
50C
330
1E
100
AcDbEntity
  8
7
100
AcDbLine
 10
24.13484251968504
 20
27.43996062992126
 30
0.0
 11
24.125
 21
27.42322834645669
 31
0.0
  0
LWPOLYLINE
  5
50D
330
1E
100
AcDbEntity
  8
7
100
AcDbPolyline
 90
        4
 70
     0
 43
0.0098425196850394
 10
24.125
 20
27.42322834645669
 10
24.11515748031496
 20
27.41535433070866
 10
24.1003937007874
 20
27.40748031496063
 10
24.09547244094488
 20
27.40452755905511
  0
LWPOLYLINE
  5
513
330
1E
100
AcDbEntity
  8
7
100
AcDbPolyline
 90
        6
 70
     0
 43
0.0098425196850394
 10
24.13484251968504
 20
27.43996062992126
 10
24.13484251968504
 20
27.44389763779527
 10
24.13484251968504
 20
27.4507874015748
 10
24.13484251968504
 20
27.45866141732283
 10
24.13484251968504
 20
27.46751968503937
 10
24.13484251968504
 20
27.47244094488189
  0
LWPOLYLINE
  5
51B
330
1E
100
AcDbEntity
  8
7
100
AcDbPolyline
 90
        6
 70
     0
 43
0.0098425196850394
 10
24.0501968503937
 20
27.58858267716535
 10
24.08070866141732
 20
27.56988188976377
 10
24.09842519685039
 20
27.55511811023621
 10
24.11220472440945
 20
27.53641732283464
 10
24.12401574803149
 20
27.51673228346456
 10
24.13090551181102
 20
27.49507874015748
  0
LINE
  5
523
330
1E
100
AcDbEntity
  8
7
100
AcDbLine
 10
24.13090551181102
 20
27.49507874015748
 30
0.0
 11
24.13484251968504
 21
27.47244094488189
 31
0.0
  0
LWPOLYLINE
  5
524
330
1E
100
AcDbEntity
  8
7
100
AcDbPolyline
 90
        3
 70
     0
 43
0.0098425196850394
 10
24.0501968503937
 20
27.61220472440944
 10
24.0501968503937
 20
27.60236220472441
 10
24.0501968503937
 20
27.58858267716535
  0
LINE
  5
529
330
1E
100
AcDbEntity
  8
7
100
AcDbLine
 10
24.12992125984252
 20
27.49606299212598
 30
0.0
 11
24.13484251968504
 21
27.49606299212598
 31
0.0
  0
LINE
  5
52A
330
1E
100
AcDbEntity
  8
7
100
AcDbLine
 10
24.13484251968504
 20
27.38779527559055
 30
0.0
 11
24.09744094488189
 21
27.38779527559055
 31
0.0
  0
LINE
  5
52B
330
1E
100
AcDbEntity
  8
7
100
AcDbLine
 10
24.12106299212598
 20
27.42027559055118
 30
0.0
 11
24.13484251968504
 21
27.42027559055118
 31
0.0
  0
LINE
  5
52C
330
1E
100
AcDbEntity
  8
7
100
AcDbLine
 10
24.13484251968504
 20
27.37795275590551
 30
0.0
 11
24.09842519685039
 21
27.37795275590551
 31
0.0
  0
LWPOLYLINE
  5
52D
330
1E
100
AcDbEntity
  8
7
100
AcDbPolyline
 90
        3
 70
     0
 43
0.0098425196850394
 10
24.13484251968504
 20
28.45570866141732
 10
24.13484251968504
 20
28.45472440944881
 10
24.13484251968504
 20
28.45275590551181
  0
LINE
  5
532
330
1E
100
AcDbEntity
  8
7
100
AcDbLine
 10
24.13484251968504
 20
28.36614173228346
 30
0.0
 11
24.13287401574803
 21
28.35826771653543
 31
0.0
  0
LWPOLYLINE
  5
533
330
1E
100
AcDbEntity
  8
7
100
AcDbPolyline
 90
        3
 70
     0
 43
0.0098425196850394
 10
24.13484251968504
 20
28.38090551181102
 10
24.13484251968504
 20
28.38188976377952
 10
24.13484251968504
 20
28.37992125984252
  0
LWPOLYLINE
  5
538
330
1E
100
AcDbEntity
  8
7
100
AcDbPolyline
 90
        5
 70
     0
 43
0.0098425196850394
 10
24.09547244094488
 20
28.34251968503937
 10
24.11220472440945
 20
28.3513779527559
 10
24.12303149606299
 20
28.35925196850393
 10
24.13090551181102
 20
28.36909448818897
 10
24.13484251968504
 20
28.37992125984252
  0
LWPOLYLINE
  5
53F
330
1E
100
AcDbEntity
  8
7
100
AcDbPolyline
 90
        3
 70
     0
 43
0.0098425196850394
 10
24.09547244094488
 20
28.40452755905511
 10
24.0994094488189
 20
28.37401574803149
 10
24.09547244094488
 20
28.34251968503937
  0
LWPOLYLINE
  5
544
330
1E
100
AcDbEntity
  8
7
100
AcDbPolyline
 90
        6
 70
     0
 43
0.0098425196850394
 10
24.13484251968504
 20
28.44192913385827
 10
24.13188976377953
 20
28.43307086614173
 10
24.125
 20
28.42322834645669
 10
24.11515748031496
 20
28.41535433070866
 10
24.1003937007874
 20
28.40748031496063
 10
24.09547244094488
 20
28.40452755905511
  0
LWPOLYLINE
  5
54C
330
1E
100
AcDbEntity
  8
7
100
AcDbPolyline
 90
        3
 70
     0
 43
0.0098425196850394
 10
24.13484251968504
 20
28.44192913385827
 10
24.13484251968504
 20
28.44685039370078
 10
24.13484251968504
 20
28.45275590551181
  0
LWPOLYLINE
  5
551
330
1E
100
AcDbEntity
  8
7
100
AcDbPolyline
 90
        4
 70
     0
 43
0.0098425196850394
 10
24.13484251968504
 20
28.45570866141732
 10
24.13484251968504
 20
28.46358267716535
 10
24.13484251968504
 20
28.47244094488189
 10
24.13484251968504
 20
28.47440944881889
  0
LWPOLYLINE
  5
557
330
1E
100
AcDbEntity
  8
7
100
AcDbPolyline
 90
        9
 70
     0
 43
0.0098425196850394
 10
24.0501968503937
 20
28.59153543307087
 10
24.0511811023622
 20
28.59055118110236
 10
24.07185039370078
 20
28.57972440944882
 10
24.09055118110236
 20
28.56496062992126
 10
24.10629921259842
 20
28.54822834645669
 10
24.11909448818898
 20
28.52854330708661
 10
24.12795275590551
 20
28.50787401574803
 10
24.13385826771653
 20
28.48523622047244
 10
24.13484251968504
 20
28.47440944881889
  0
LWPOLYLINE
  5
562
330
1E
100
AcDbEntity
  8
7
100
AcDbPolyline
 90
        3
 70
     0
 43
0.0098425196850394
 10
24.0501968503937
 20
28.61417322834645
 10
24.0501968503937
 20
28.60433070866141
 10
24.0501968503937
 20
28.59153543307087
  0
LWPOLYLINE
  5
567
330
1E
100
AcDbEntity
  8
7
100
AcDbPolyline
 90
        7
 70
     0
 43
0.0098425196850394
 10
24.13484251968504
 20
28.49803149606299
 10
24.125
 20
28.53740157480315
 10
24.11515748031496
 20
28.55807086614173
 10
24.1003937007874
 20
28.57775590551181
 10
24.08366141732283
 20
28.59350393700787
 10
24.06299212598425
 20
28.60728346456692
 10
24.0501968503937
 20
28.61417322834645
  0
LWPOLYLINE
  5
570
330
1E
100
AcDbEntity
  8
7
100
AcDbPolyline
 90
        4
 70
     0
 43
0.0098425196850394
 10
24.13484251968504
 20
28.49803149606299
 10
24.13484251968504
 20
28.49114173228346
 10
24.13484251968504
 20
28.48622047244094
 10
24.13484251968504
 20
28.48326771653543
  0
LINE
  5
576
330
1E
100
AcDbEntity
  8
7
100
AcDbLine
 10
24.13484251968504
 20
28.42224409448819
 30
0.0
 11
24.12992125984252
 21
28.43110236220472
 31
0.0
  0
LWPOLYLINE
  5
577
330
1E
100
AcDbEntity
  8
7
100
AcDbPolyline
 90
        6
 70
     0
 43
0.0098425196850394
 10
24.13484251968504
 20
28.42224409448819
 10
24.13484251968504
 20
28.41830708661417
 10
24.13484251968504
 20
28.41141732283464
 10
24.13484251968504
 20
28.40354330708661
 10
24.13484251968504
 20
28.39566929133858
 10
24.13484251968504
 20
28.38976377952755
  0
LWPOLYLINE
  5
57F
330
1E
100
AcDbEntity
  8
7
100
AcDbPolyline
 90
        3
 70
     0
 43
0.0098425196850394
 10
24.13287401574803
 20
28.38188976377952
 10
24.13484251968504
 20
28.38976377952755
 10
24.09744094488189
 20
28.38976377952755
  0
LINE
  5
584
330
1E
100
AcDbEntity
  8
7
100
AcDbLine
 10
24.12893700787401
 20
28.49803149606299
 30
0.0
 11
24.13484251968504
 21
28.49803149606299
 31
0.0
  0
LINE
  5
585
330
1E
100
AcDbEntity
  8
7
100
AcDbLine
 10
24.13484251968504
 20
28.37992125984252
 30
0.0
 11
24.09842519685039
 21
28.37992125984252
 31
0.0
  0
LINE
  5
586
330
1E
100
AcDbEntity
  8
7
100
AcDbLine
 10
24.12401574803149
 20
28.42224409448819
 30
0.0
 11
24.13484251968504
 21
28.42224409448819
 31
0.0
  0
LINE
  5
587
330
1E
100
AcDbEntity
  8
7
100
AcDbLine
 10
4.075787401574802
 20
27.05610236220472
 30
0.0
 11
4.075787401574802
 21
27.67814960629921
 31
0.0
  0
LINE
  5
588
330
1E
100
AcDbEntity
  8
7
100
AcDbLine
 10
5.174212598425196
 20
28.80610236220472
 30
0.0
 11
5.174212598425196
 21
27.05610236220472
 31
0.0
  0
LINE
  5
589
330
1E
100
AcDbEntity
  8
7
100
AcDbLine
 10
4.075787401574802
 20
28.80610236220472
 30
0.0
 11
5.174212598425196
 21
28.80610236220472
 31
0.0
  0
LINE
  5
58A
330
1E
100
AcDbEntity
  8
7
100
AcDbLine
 10
4.075787401574802
 20
28.18503937007874
 30
0.0
 11
4.075787401574802
 21
28.80610236220472
 31
0.0
  0
LWPOLYLINE
  5
58B
330
1E
100
AcDbEntity
  8
7
100
AcDbPolyline
 90
       14
 70
     0
 43
0.0098425196850394
 10
4.995078740157479
 20
27.30610236220472
 10
4.991141732283463
 20
27.33464566929133
 10
4.979330708661416
 20
27.36023622047244
 10
4.960629921259841
 20
27.38188976377952
 10
4.936023622047243
 20
27.39763779527558
 10
4.909448818897637
 20
27.40551181102362
 10
4.879921259842519
 20
27.40551181102362
 10
4.853346456692912
 20
27.39763779527558
 10
4.828740157480314
 20
27.38188976377952
 10
4.810039370078739
 20
27.36023622047244
 10
4.798228346456692
 20
27.33464566929133
 10
4.794291338582676
 20
27.30610236220472
 10
4.798228346456692
 20
27.27755905511811
 10
4.810039370078739
 20
27.251968503937
  0
LWPOLYLINE
  5
59B
330
1E
100
AcDbEntity
  8
7
100
AcDbPolyline
 90
       10
 70
     0
 43
0.0098425196850394
 10
4.810039370078739
 20
27.251968503937
 10
4.828740157480314
 20
27.23031496062992
 10
4.853346456692912
 20
27.21456692913386
 10
4.879921259842519
 20
27.20669291338582
 10
4.909448818897637
 20
27.20669291338582
 10
4.936023622047243
 20
27.21456692913386
 10
4.960629921259841
 20
27.23031496062992
 10
4.979330708661416
 20
27.251968503937
 10
4.991141732283463
 20
27.27755905511811
 10
4.995078740157479
 20
27.30610236220472
  0
LWPOLYLINE
  5
5A7
330
1E
100
AcDbEntity
  8
7
100
AcDbPolyline
 90
        4
 70
     0
 43
0.0098425196850394
 10
4.995078740157479
 20
27.93110236220472
 10
4.991141732283463
 20
27.95964566929133
 10
4.979330708661416
 20
27.98523622047244
 10
4.960629921259841
 20
28.00688976377952
  0
LWPOLYLINE
  5
5AD
330
1E
100
AcDbEntity
  8
7
100
AcDbPolyline
 90
       15
 70
     0
 43
0.0098425196850394
 10
4.960629921259841
 20
28.00688976377952
 10
4.936023622047243
 20
28.02263779527558
 10
4.909448818897637
 20
28.03051181102362
 10
4.879921259842519
 20
28.03051181102362
 10
4.853346456692912
 20
28.02263779527558
 10
4.828740157480314
 20
28.00688976377952
 10
4.810039370078739
 20
27.98523622047244
 10
4.798228346456692
 20
27.95964566929133
 10
4.794291338582676
 20
27.93110236220472
 10
4.798228346456692
 20
27.90255905511811
 10
4.810039370078739
 20
27.876968503937
 10
4.828740157480314
 20
27.85531496062992
 10
4.853346456692912
 20
27.83956692913386
 10
4.879921259842519
 20
27.83169291338582
 10
4.909448818897637
 20
27.83169291338582
  0
LWPOLYLINE
  5
5BE
330
1E
100
AcDbEntity
  8
7
100
AcDbPolyline
 90
        6
 70
     0
 43
0.0098425196850394
 10
4.909448818897637
 20
27.83169291338582
 10
4.936023622047243
 20
27.83956692913386
 10
4.960629921259841
 20
27.85531496062992
 10
4.979330708661416
 20
27.876968503937
 10
4.991141732283463
 20
27.90255905511811
 10
4.995078740157479
 20
27.93110236220472
  0
LWPOLYLINE
  5
5C6
330
1E
100
AcDbEntity
  8
7
100
AcDbPolyline
 90
        7
 70
     0
 43
0.0098425196850394
 10
4.995078740157479
 20
28.55610236220472
 10
4.991141732283463
 20
28.58464566929134
 10
4.979330708661416
 20
28.61023622047244
 10
4.960629921259841
 20
28.63188976377952
 10
4.936023622047243
 20
28.64763779527558
 10
4.909448818897637
 20
28.65551181102362
 10
4.879921259842519
 20
28.65551181102362
  0
LWPOLYLINE
  5
5CF
330
1E
100
AcDbEntity
  8
7
100
AcDbPolyline
 90
       15
 70
     0
 43
0.0098425196850394
 10
4.879921259842519
 20
28.65551181102362
 10
4.853346456692912
 20
28.64763779527558
 10
4.828740157480314
 20
28.63188976377952
 10
4.810039370078739
 20
28.61023622047244
 10
4.798228346456692
 20
28.58464566929134
 10
4.794291338582676
 20
28.55610236220472
 10
4.798228346456692
 20
28.52755905511811
 10
4.810039370078739
 20
28.501968503937
 10
4.828740157480314
 20
28.48031496062992
 10
4.853346456692912
 20
28.46456692913386
 10
4.879921259842519
 20
28.45669291338582
 10
4.909448818897637
 20
28.45669291338582
 10
4.936023622047243
 20
28.46456692913386
 10
4.960629921259841
 20
28.48031496062992
 10
4.979330708661416
 20
28.501968503937
  0
LWPOLYLINE
  5
5E0
330
1E
100
AcDbEntity
  8
7
100
AcDbPolyline
 90
        3
 70
     0
 43
0.0098425196850394
 10
4.979330708661416
 20
28.501968503937
 10
4.991141732283463
 20
28.52755905511811
 10
4.995078740157479
 20
28.55610236220472
  0
LINE
  5
5E5
330
1E
100
AcDbEntity
  8
7
100
AcDbLine
 10
5.174212598425196
 20
27.05610236220472
 30
0.0
 11
4.075787401574802
 21
27.05610236220472
 31
0.0
  0
LINE
  5
5E6
330
1E
100
AcDbEntity
  8
7
100
AcDbLine
 10
4.075787401574802
 20
28.18503937007874
 30
0.0
 11
4.044291338582676
 21
28.18503937007874
 31
0.0
  0
LINE
  5
5E7
330
1E
100
AcDbEntity
  8
7
100
AcDbLine
 10
4.075787401574802
 20
27.67814960629921
 30
0.0
 11
4.044291338582676
 21
27.67814960629921
 31
0.0
  0
LWPOLYLINE
  5
5E8
330
1E
100
AcDbEntity
  8
7
100
AcDbPolyline
 90
        3
 70
     0
 43
0.0098425196850394
 10
3.781496062992125
 20
27.67814960629921
 10
3.785433070866141
 20
27.67814960629921
 10
3.799212598425196
 20
27.67814960629921
  0
LWPOLYLINE
  5
5ED
330
1E
100
AcDbEntity
  8
7
100
AcDbPolyline
 90
       11
 70
     0
 43
0.0098425196850394
 10
3.799212598425196
 20
27.67814960629921
 10
3.819881889763779
 20
27.67814960629921
 10
3.846456692913385
 20
27.67814960629921
 10
3.878937007874015
 20
27.67814960629921
 10
3.912401574803149
 20
27.67814960629921
 10
3.946850393700787
 20
27.67814960629921
 10
3.978346456692913
 20
27.67814960629921
 10
4.005905511811023
 20
27.67814960629921
 10
4.026574803149605
 20
27.67814960629921
 10
4.039370078740157
 20
27.67814960629921
 10
4.044291338582676
 20
27.67814960629921
  0
LWPOLYLINE
  5
5FA
330
1E
100
AcDbEntity
  8
7
100
AcDbPolyline
 90
        8
 70
     0
 43
0.0098425196850394
 10
3.781496062992125
 20
28.18503937007874
 10
3.785433070866141
 20
28.18503937007874
 10
3.799212598425196
 20
28.18503937007874
 10
3.819881889763779
 20
28.18503937007874
 10
3.846456692913385
 20
28.18503937007874
 10
3.878937007874015
 20
28.18503937007874
 10
3.912401574803149
 20
28.18503937007874
 10
3.946850393700787
 20
28.18503937007874
  0
LWPOLYLINE
  5
604
330
1E
100
AcDbEntity
  8
7
100
AcDbPolyline
 90
        6
 70
     0
 43
0.0098425196850394
 10
3.946850393700787
 20
28.18503937007874
 10
3.978346456692913
 20
28.18503937007874
 10
4.005905511811023
 20
28.18503937007874
 10
4.026574803149605
 20
28.18503937007874
 10
4.039370078740157
 20
28.18503937007874
 10
4.044291338582676
 20
28.18503937007874
  0
LINE
  5
60C
330
1E
100
AcDbEntity
  8
7
100
AcDbLine
 10
4.044291338582676
 20
28.71259842519684
 30
0.0
 11
4.044291338582676
 21
28.80610236220472
 31
0.0
  0
LINE
  5
60D
330
1E
100
AcDbEntity
  8
7
100
AcDbLine
 10
3.980314960629921
 20
28.80610236220472
 30
0.0
 11
4.044291338582676
 21
28.80610236220472
 31
0.0
  0
LINE
  5
60E
330
1E
100
AcDbEntity
  8
7
100
AcDbLine
 10
3.980314960629921
 20
28.80610236220472
 30
0.0
 11
3.980314960629921
 21
28.71259842519684
 31
0.0
  0
LINE
  5
60F
330
1E
100
AcDbEntity
  8
7
100
AcDbLine
 10
3.980314960629921
 20
28.20472440944882
 30
0.0
 11
3.980314960629921
 21
28.18503937007874
 31
0.0
  0
LINE
  5
610
330
1E
100
AcDbEntity
  8
7
100
AcDbLine
 10
3.980314960629921
 20
27.67814960629921
 30
0.0
 11
3.980314960629921
 21
27.65748031496062
 31
0.0
  0
LINE
  5
611
330
1E
100
AcDbEntity
  8
7
100
AcDbLine
 10
4.044291338582676
 20
27.65748031496062
 30
0.0
 11
4.044291338582676
 21
27.67814960629921
 31
0.0
  0
LINE
  5
612
330
1E
100
AcDbEntity
  8
7
100
AcDbLine
 10
4.044291338582676
 20
28.18503937007874
 30
0.0
 11
4.044291338582676
 21
28.20472440944882
 31
0.0
  0
LINE
  5
613
330
1E
100
AcDbEntity
  8
7
100
AcDbLine
 10
4.044291338582676
 20
28.71259842519684
 30
0.0
 11
4.044291338582676
 21
28.20472440944882
 31
0.0
  0
LINE
  5
614
330
1E
100
AcDbEntity
  8
7
100
AcDbLine
 10
4.044291338582676
 20
27.65748031496062
 30
0.0
 11
4.044291338582676
 21
27.1505905511811
 31
0.0
  0
LINE
  5
615
330
1E
100
AcDbEntity
  8
7
100
AcDbLine
 10
4.044291338582676
 20
27.05610236220472
 30
0.0
 11
4.044291338582676
 21
27.1505905511811
 31
0.0
  0
LINE
  5
616
330
1E
100
AcDbEntity
  8
7
100
AcDbLine
 10
3.980314960629921
 20
27.05610236220472
 30
0.0
 11
4.044291338582676
 21
27.05610236220472
 31
0.0
  0
LINE
  5
617
330
1E
100
AcDbEntity
  8
7
100
AcDbLine
 10
3.980314960629921
 20
27.1505905511811
 30
0.0
 11
3.980314960629921
 21
27.05610236220472
 31
0.0
  0
LWPOLYLINE
  5
618
330
1E
100
AcDbEntity
  8
7
100
AcDbPolyline
 90
       10
 70
     0
 43
0.0098425196850394
 10
4.044291338582676
 20
27.65748031496062
 10
4.039370078740157
 20
27.65748031496062
 10
4.026574803149605
 20
27.65748031496062
 10
4.005905511811023
 20
27.65748031496062
 10
3.978346456692913
 20
27.65748031496062
 10
3.946850393700787
 20
27.65748031496062
 10
3.912401574803149
 20
27.65748031496062
 10
3.878937007874015
 20
27.65748031496062
 10
3.846456692913385
 20
27.65748031496062
 10
3.819881889763779
 20
27.65748031496062
  0
LWPOLYLINE
  5
624
330
1E
100
AcDbEntity
  8
7
100
AcDbPolyline
 90
        4
 70
     0
 43
0.0098425196850394
 10
3.819881889763779
 20
27.65748031496062
 10
3.799212598425196
 20
27.65748031496062
 10
3.785433070866141
 20
27.65748031496062
 10
3.781496062992125
 20
27.65748031496062
  0
LWPOLYLINE
  5
62A
330
1E
100
AcDbEntity
  8
7
100
AcDbPolyline
 90
       12
 70
     0
 43
0.0098425196850394
 10
4.044291338582676
 20
27.1505905511811
 10
4.039370078740157
 20
27.1505905511811
 10
4.026574803149605
 20
27.1505905511811
 10
4.005905511811023
 20
27.1505905511811
 10
3.978346456692913
 20
27.1505905511811
 10
3.946850393700787
 20
27.1505905511811
 10
3.912401574803149
 20
27.1505905511811
 10
3.878937007874015
 20
27.1505905511811
 10
3.846456692913385
 20
27.1505905511811
 10
3.819881889763779
 20
27.1505905511811
 10
3.799212598425196
 20
27.1505905511811
 10
3.785433070866141
 20
27.1505905511811
  0
LINE
  5
638
330
1E
100
AcDbEntity
  8
7
100
AcDbLine
 10
3.785433070866141
 20
27.1505905511811
 30
0.0
 11
3.781496062992125
 21
27.1505905511811
 31
0.0
  0
LWPOLYLINE
  5
639
330
1E
100
AcDbEntity
  8
7
100
AcDbPolyline
 90
       13
 70
     0
 43
0.0098425196850394
 10
4.044291338582676
 20
28.71259842519684
 10
4.039370078740157
 20
28.71259842519684
 10
4.026574803149605
 20
28.71259842519684
 10
4.005905511811023
 20
28.71259842519684
 10
3.978346456692913
 20
28.71259842519684
 10
3.946850393700787
 20
28.71259842519684
 10
3.912401574803149
 20
28.71259842519684
 10
3.878937007874015
 20
28.71259842519684
 10
3.846456692913385
 20
28.71259842519684
 10
3.819881889763779
 20
28.71259842519684
 10
3.799212598425196
 20
28.71259842519684
 10
3.785433070866141
 20
28.71259842519684
 10
3.781496062992125
 20
28.71259842519684
  0
LWPOLYLINE
  5
648
330
1E
100
AcDbEntity
  8
7
100
AcDbPolyline
 90
       13
 70
     0
 43
0.0098425196850394
 10
4.044291338582676
 20
28.20472440944882
 10
4.039370078740157
 20
28.20472440944882
 10
4.026574803149605
 20
28.20472440944882
 10
4.005905511811023
 20
28.20472440944882
 10
3.978346456692913
 20
28.20472440944882
 10
3.946850393700787
 20
28.20472440944882
 10
3.912401574803149
 20
28.20472440944882
 10
3.878937007874015
 20
28.20472440944882
 10
3.846456692913385
 20
28.20472440944882
 10
3.819881889763779
 20
28.20472440944882
 10
3.799212598425196
 20
28.20472440944882
 10
3.785433070866141
 20
28.20472440944882
 10
3.781496062992125
 20
28.20472440944882
  0
LWPOLYLINE
  5
657
330
1E
100
AcDbEntity
  8
7
100
AcDbPolyline
 90
       14
 70
     0
 43
0.0098425196850394
 10
23.30314960629921
 20
28.55610236220472
 10
23.29921259842519
 20
28.58464566929134
 10
23.28740157480315
 20
28.61023622047244
 10
23.26870078740157
 20
28.63188976377952
 10
23.24409448818897
 20
28.64763779527558
 10
23.21751968503936
 20
28.65551181102362
 10
23.18799212598425
 20
28.65551181102362
 10
23.16141732283464
 20
28.64763779527558
 10
23.13681102362204
 20
28.63188976377952
 10
23.11811023622047
 20
28.61023622047244
 10
23.10629921259842
 20
28.58464566929134
 10
23.10236220472441
 20
28.55610236220472
 10
23.10629921259842
 20
28.52755905511811
 10
23.11811023622047
 20
28.501968503937
  0
LWPOLYLINE
  5
667
330
1E
100
AcDbEntity
  8
7
100
AcDbPolyline
 90
       10
 70
     0
 43
0.0098425196850394
 10
23.11811023622047
 20
28.501968503937
 10
23.13681102362204
 20
28.48031496062992
 10
23.16141732283464
 20
28.46456692913386
 10
23.18799212598425
 20
28.45669291338582
 10
23.21751968503936
 20
28.45669291338582
 10
23.24409448818897
 20
28.46456692913386
 10
23.26870078740157
 20
28.48031496062992
 10
23.28740157480315
 20
28.501968503937
 10
23.29921259842519
 20
28.52755905511811
 10
23.30314960629921
 20
28.55610236220472
  0
LWPOLYLINE
  5
673
330
1E
100
AcDbEntity
  8
7
100
AcDbPolyline
 90
        3
 70
     0
 43
0.0098425196850394
 10
23.30314960629921
 20
27.93110236220472
 10
23.29921259842519
 20
27.95964566929133
 10
23.28740157480315
 20
27.98523622047244
  0
LWPOLYLINE
  5
678
330
1E
100
AcDbEntity
  8
7
100
AcDbPolyline
 90
       14
 70
     0
 43
0.0098425196850394
 10
23.28740157480315
 20
27.98523622047244
 10
23.26870078740157
 20
28.00688976377952
 10
23.24409448818897
 20
28.02263779527558
 10
23.21751968503936
 20
28.03051181102362
 10
23.18799212598425
 20
28.03051181102362
 10
23.16141732283464
 20
28.02263779527558
 10
23.13681102362204
 20
28.00688976377952
 10
23.11811023622047
 20
27.98523622047244
 10
23.10629921259842
 20
27.95964566929133
 10
23.10236220472441
 20
27.93110236220472
 10
23.10629921259842
 20
27.90255905511811
 10
23.11811023622047
 20
27.876968503937
 10
23.13681102362204
 20
27.85531496062992
 10
23.16141732283464
 20
27.83956692913386
  0
LWPOLYLINE
  5
688
330
1E
100
AcDbEntity
  8
7
100
AcDbPolyline
 90
        8
 70
     0
 43
0.0098425196850394
 10
23.16141732283464
 20
27.83956692913386
 10
23.18799212598425
 20
27.83169291338582
 10
23.21751968503936
 20
27.83169291338582
 10
23.24409448818897
 20
27.83956692913386
 10
23.26870078740157
 20
27.85531496062992
 10
23.28740157480315
 20
27.876968503937
 10
23.29921259842519
 20
27.90255905511811
 10
23.30314960629921
 20
27.93110236220472
  0
LWPOLYLINE
  5
692
330
1E
100
AcDbEntity
  8
7
100
AcDbPolyline
 90
        6
 70
     0
 43
0.0098425196850394
 10
23.30314960629921
 20
27.30610236220472
 10
23.29921259842519
 20
27.33464566929133
 10
23.28740157480315
 20
27.36023622047244
 10
23.26870078740157
 20
27.38188976377952
 10
23.24409448818897
 20
27.39763779527558
 10
23.21751968503936
 20
27.40551181102362
  0
LWPOLYLINE
  5
69A
330
1E
100
AcDbEntity
  8
7
100
AcDbPolyline
 90
       15
 70
     0
 43
0.0098425196850394
 10
23.21751968503936
 20
27.40551181102362
 10
23.18799212598425
 20
27.40551181102362
 10
23.16141732283464
 20
27.39763779527558
 10
23.13681102362204
 20
27.38188976377952
 10
23.11811023622047
 20
27.36023622047244
 10
23.10629921259842
 20
27.33464566929133
 10
23.10236220472441
 20
27.30610236220472
 10
23.10629921259842
 20
27.27755905511811
 10
23.11811023622047
 20
27.251968503937
 10
23.13681102362204
 20
27.23031496062992
 10
23.16141732283464
 20
27.21456692913386
 10
23.18799212598425
 20
27.20669291338582
 10
23.21751968503936
 20
27.20669291338582
 10
23.24409448818897
 20
27.21456692913386
 10
23.26870078740157
 20
27.23031496062992
  0
LWPOLYLINE
  5
6AB
330
1E
100
AcDbEntity
  8
7
100
AcDbPolyline
 90
        4
 70
     0
 43
0.0098425196850394
 10
23.26870078740157
 20
27.23031496062992
 10
23.28740157480315
 20
27.251968503937
 10
23.29921259842519
 20
27.27755905511811
 10
23.30314960629921
 20
27.30610236220472
  0
LINE
  5
6B1
330
1E
100
AcDbEntity
  8
7
100
AcDbLine
 10
23.89468503937008
 20
27.05610236220472
 30
0.0
 11
22.92224409448818
 21
27.05610236220472
 31
0.0
  0
LINE
  5
6B2
330
1E
100
AcDbEntity
  8
7
100
AcDbLine
 10
23.89468503937008
 20
28.80610236220472
 30
0.0
 11
23.89468503937008
 21
27.05610236220472
 31
0.0
  0
LINE
  5
6B3
330
1E
100
AcDbEntity
  8
7
100
AcDbLine
 10
22.92224409448818
 20
28.80610236220472
 30
0.0
 11
23.89468503937008
 21
28.80610236220472
 31
0.0
  0
LINE
  5
6B4
330
1E
100
AcDbEntity
  8
7
100
AcDbLine
 10
22.92224409448818
 20
27.05610236220472
 30
0.0
 11
22.92224409448818
 21
28.80610236220472
 31
0.0
  0
LWPOLYLINE
  5
6B5
330
1E
100
AcDbEntity
  8
7
100
AcDbPolyline
 90
        6
 70
     0
 43
0.0098425196850394
 10
23.89468503937008
 20
27.05610236220472
 10
23.92421259842519
 20
27.05610236220472
 10
23.9507874015748
 20
27.05610236220472
 10
23.97145669291338
 20
27.05610236220472
 10
23.98425196850393
 20
27.05610236220472
 10
23.98917322834646
 20
27.05610236220472
  0
LWPOLYLINE
  5
6BD
330
1E
100
AcDbEntity
  8
7
100
AcDbPolyline
 90
        6
 70
     0
 43
0.0098425196850394
 10
23.89468503937008
 20
28.80610236220472
 10
23.92421259842519
 20
28.80610236220472
 10
23.9507874015748
 20
28.80610236220472
 10
23.97145669291338
 20
28.80610236220472
 10
23.98425196850393
 20
28.80610236220472
 10
23.98917322834646
 20
28.80610236220472
  0
LINE
  5
6C5
330
1E
100
AcDbEntity
  8
7
100
AcDbLine
 10
23.98917322834646
 20
27.05610236220472
 30
0.0
 11
23.98917322834646
 21
28.80610236220472
 31
0.0
  0
LINE
  5
6C6
330
1E
100
AcDbEntity
  8
7
100
AcDbLine
 10
5.845472440944881
 20
28.43110236220472
 30
0.0
 11
5.845472440944881
 21
28.16732283464567
 31
0.0
  0
LINE
  5
6C7
330
1E
100
AcDbEntity
  8
7
100
AcDbLine
 10
6.124999999999999
 20
27.69488188976378
 30
0.0
 11
6.124999999999999
 21
27.43110236220472
 31
0.0
  0
LINE
  5
6C8
330
1E
100
AcDbEntity
  8
7
100
AcDbLine
 10
21.84448818897637
 20
28.43110236220472
 30
0.0
 11
21.84448818897637
 21
28.16732283464567
 31
0.0
  0
LINE
  5
6C9
330
1E
100
AcDbEntity
  8
7
100
AcDbLine
 10
22.12401574803149
 20
27.69488188976378
 30
0.0
 11
22.12401574803149
 21
27.43110236220472
 31
0.0
  0
LINE
  5
6CA
330
1E
100
AcDbEntity
  8
7
100
AcDbLine
 10
5.174212598425196
 20
28.80610236220472
 30
0.0
 11
22.92224409448818
 21
28.80610236220472
 31
0.0
  0
LINE
  5
6CB
330
1E
100
AcDbEntity
  8
7
100
AcDbLine
 10
22.92224409448818
 20
27.05610236220472
 30
0.0
 11
5.174212598425196
 21
27.05610236220472
 31
0.0
  0
LWPOLYLINE
  5
6CC
330
1E
100
AcDbEntity
  8
7
100
AcDbPolyline
 90
        4
 70
     0
 43
0.0098425196850394
 10
6.133858267716535
 20
27.71161417322834
 10
6.17027559055118
 20
27.74212598425196
 10
6.200787401574802
 20
27.77755905511811
 10
6.224409448818897
 20
27.81791338582677
  0
LWPOLYLINE
  5
6D2
330
1E
100
AcDbEntity
  8
7
100
AcDbPolyline
 90
        9
 70
     0
 43
0.0098425196850394
 10
6.224409448818897
 20
27.81791338582677
 10
6.241141732283463
 20
27.86122047244094
 10
6.249015748031495
 20
27.90748031496063
 10
6.249015748031495
 20
27.95472440944882
 10
6.241141732283463
 20
28.0009842519685
 10
6.224409448818897
 20
28.04429133858267
 10
6.200787401574802
 20
28.08464566929133
 10
6.17027559055118
 20
28.12007874015748
 10
6.133858267716535
 20
28.1505905511811
  0
LWPOLYLINE
  5
6DD
330
1E
100
AcDbEntity
  8
7
100
AcDbPolyline
 90
        3
 70
     0
 43
0.0098425196850394
 10
6.133858267716535
 20
27.71161417322834
 10
6.126968503937007
 20
27.70374015748031
 10
6.124999999999999
 20
27.69488188976378
  0
LINE
  5
6E2
330
1E
100
AcDbEntity
  8
7
100
AcDbLine
 10
5.845472440944881
 20
27.43110236220472
 30
0.0
 11
6.124999999999999
 21
27.43110236220472
 31
0.0
  0
LINE
  5
6E3
330
1E
100
AcDbEntity
  8
7
100
AcDbLine
 10
5.845472440944881
 20
27.69488188976378
 30
0.0
 11
5.845472440944881
 21
27.43110236220472
 31
0.0
  0
LWPOLYLINE
  5
6E4
330
1E
100
AcDbEntity
  8
7
100
AcDbPolyline
 90
        3
 70
     0
 43
0.0098425196850394
 10
5.844488188976377
 20
27.69488188976378
 10
5.842519685039369
 20
27.70374015748031
 10
5.835629921259841
 20
27.71161417322834
  0
LWPOLYLINE
  5
6E9
330
1E
100
AcDbEntity
  8
7
100
AcDbPolyline
 90
       12
 70
     0
 43
0.0098425196850394
 10
5.836614173228346
 20
28.1505905511811
 10
5.8001968503937
 20
28.12007874015748
 10
5.769685039370077
 20
28.08464566929133
 10
5.746062992125983
 20
28.04429133858267
 10
5.729330708661416
 20
28.0009842519685
 10
5.721456692913385
 20
27.95472440944882
 10
5.721456692913385
 20
27.90748031496063
 10
5.729330708661416
 20
27.86122047244094
 10
5.746062992125983
 20
27.81791338582677
 10
5.769685039370077
 20
27.77755905511811
 10
5.8001968503937
 20
27.74212598425196
 10
5.836614173228346
 20
27.71161417322834
  0
LWPOLYLINE
  5
6F7
330
1E
100
AcDbEntity
  8
7
100
AcDbPolyline
 90
        3
 70
     0
 43
0.0098425196850394
 10
5.835629921259841
 20
28.1505905511811
 10
5.842519685039369
 20
28.15846456692913
 10
5.844488188976377
 20
28.16732283464567
  0
LWPOLYLINE
  5
6FC
330
1E
100
AcDbEntity
  8
7
100
AcDbPolyline
 90
        3
 70
     0
 43
0.0098425196850394
 10
5.845472440944881
 20
28.43110236220472
 10
6.124999999999999
 20
28.43110236220472
 10
6.124999999999999
 20
28.16732283464567
  0
LWPOLYLINE
  5
701
330
1E
100
AcDbEntity
  8
7
100
AcDbPolyline
 90
        3
 70
     0
 43
0.0098425196850394
 10
6.124999999999999
 20
28.16732283464567
 10
6.126968503937007
 20
28.15846456692913
 10
6.133858267716535
 20
28.1505905511811
  0
LINE
  5
706
330
1E
100
AcDbEntity
  8
7
100
AcDbLine
 10
8.159448818897637
 20
28.05610236220472
 30
0.0
 11
8.159448818897637
 21
27.80610236220472
 31
0.0
  0
LINE
  5
707
330
1E
100
AcDbEntity
  8
7
100
AcDbLine
 10
9.473425196850392
 20
28.05610236220472
 30
0.0
 11
9.473425196850392
 21
27.80610236220472
 31
0.0
  0
LINE
  5
708
330
1E
100
AcDbEntity
  8
7
100
AcDbLine
 10
12.23523622047244
 20
28.30610236220472
 30
0.0
 11
15.73523622047244
 21
28.30610236220472
 31
0.0
  0
LWPOLYLINE
  5
709
330
1E
100
AcDbEntity
  8
7
100
AcDbPolyline
 90
        4
 70
     0
 43
0.0098425196850394
 10
15.73523622047244
 20
27.55708661417322
 10
15.79133858267716
 20
27.56102362204724
 10
15.84547244094488
 20
27.57381889763779
 10
15.89763779527559
 20
27.59448818897638
  0
LWPOLYLINE
  5
70F
330
1E
100
AcDbEntity
  8
7
100
AcDbPolyline
 90
       16
 70
     0
 43
0.0098425196850394
 10
15.89763779527559
 20
27.59448818897638
 10
15.94586614173228
 20
27.62204724409448
 10
15.98917322834645
 20
27.65649606299212
 10
16.02755905511811
 20
27.69783464566929
 10
16.05905511811023
 20
27.74409448818897
 10
16.08366141732283
 20
27.79429133858267
 10
16.09940944881889
 20
27.84744094488189
 10
16.10826771653543
 20
27.90354330708661
 10
16.10826771653543
 20
27.95866141732283
 10
16.09940944881889
 20
28.01476377952756
 10
16.08366141732283
 20
28.06791338582677
 10
16.05905511811023
 20
28.11811023622047
 10
16.02755905511811
 20
28.16437007874015
 10
15.98917322834645
 20
28.20570866141732
 10
15.94586614173228
 20
28.24015748031495
 10
15.89763779527559
 20
28.26771653543307
  0
LWPOLYLINE
  5
721
330
1E
100
AcDbEntity
  8
7
100
AcDbPolyline
 90
        4
 70
     0
 43
0.0098425196850394
 10
15.89763779527559
 20
28.26771653543307
 10
15.84547244094488
 20
28.28838582677165
 10
15.79133858267716
 20
28.3011811023622
 10
15.73523622047244
 20
28.30511811023622
  0
LINE
  5
727
330
1E
100
AcDbEntity
  8
7
100
AcDbLine
 10
12.23523622047244
 20
27.55610236220472
 30
0.0
 11
15.73523622047244
 21
27.55610236220472
 31
0.0
  0
LWPOLYLINE
  5
728
330
1E
100
AcDbEntity
  8
7
100
AcDbPolyline
 90
        4
 70
     0
 43
0.0098425196850394
 10
12.23523622047244
 20
28.30511811023622
 10
12.17913385826771
 20
28.3011811023622
 10
12.125
 20
28.28838582677165
 10
12.07283464566929
 20
28.26771653543307
  0
LWPOLYLINE
  5
72E
330
1E
100
AcDbEntity
  8
7
100
AcDbPolyline
 90
       14
 70
     0
 43
0.0098425196850394
 10
12.07283464566929
 20
28.26771653543307
 10
12.02460629921259
 20
28.24015748031495
 10
11.98129921259842
 20
28.20570866141732
 10
11.94291338582677
 20
28.16437007874015
 10
11.91141732283464
 20
28.11811023622047
 10
11.88681102362204
 20
28.06791338582677
 10
11.87106299212598
 20
28.01476377952756
 10
11.86220472440944
 20
27.95866141732283
 10
11.86220472440944
 20
27.90354330708661
 10
11.87106299212598
 20
27.84744094488189
 10
11.88681102362204
 20
27.79429133858267
 10
11.91141732283464
 20
27.74409448818897
 10
11.94291338582677
 20
27.69783464566929
 10
11.98129921259842
 20
27.65649606299212
  0
LWPOLYLINE
  5
73E
330
1E
100
AcDbEntity
  8
7
100
AcDbPolyline
 90
        6
 70
     0
 43
0.0098425196850394
 10
11.98129921259842
 20
27.65649606299212
 10
12.02460629921259
 20
27.62204724409448
 10
12.07283464566929
 20
27.59448818897638
 10
12.125
 20
27.57381889763779
 10
12.17913385826771
 20
27.56102362204724
 10
12.23523622047244
 20
27.55708661417322
  0
LWPOLYLINE
  5
746
330
1E
100
AcDbEntity
  8
7
100
AcDbPolyline
 90
        6
 70
     0
 43
0.0098425196850394
 10
22.92224409448818
 20
28.01968503937008
 10
22.90255905511811
 20
27.99311023622047
 10
22.88976377952756
 20
27.96358267716535
 10
22.88582677165354
 20
27.93110236220472
 10
22.88976377952756
 20
27.89862204724409
 10
22.90255905511811
 20
27.86909448818898
  0
LINE
  5
74E
330
1E
100
AcDbEntity
  8
7
100
AcDbLine
 10
22.90255905511811
 20
27.86909448818898
 30
0.0
 11
22.92224409448818
 21
27.84251968503937
 31
0.0
  0
LINE
  5
74F
330
1E
100
AcDbEntity
  8
7
100
AcDbLine
 10
21.84448818897637
 20
27.69488188976378
 30
0.0
 11
21.84448818897637
 21
27.43110236220472
 31
0.0
  0
LWPOLYLINE
  5
750
330
1E
100
AcDbEntity
  8
7
100
AcDbPolyline
 90
        3
 70
     0
 43
0.0098425196850394
 10
21.84350393700787
 20
27.69488188976378
 10
21.84153543307086
 20
27.70374015748031
 10
21.83464566929134
 20
27.71161417322834
  0
LWPOLYLINE
  5
755
330
1E
100
AcDbEntity
  8
7
100
AcDbPolyline
 90
       12
 70
     0
 43
0.0098425196850394
 10
21.83562992125984
 20
28.1505905511811
 10
21.79921259842519
 20
28.12007874015748
 10
21.76870078740157
 20
28.08464566929133
 10
21.74507874015748
 20
28.04429133858267
 10
21.72834645669291
 20
28.0009842519685
 10
21.72047244094488
 20
27.95472440944882
 10
21.72047244094488
 20
27.90748031496063
 10
21.72834645669291
 20
27.86122047244094
 10
21.74507874015748
 20
27.81791338582677
 10
21.76870078740157
 20
27.77755905511811
 10
21.79921259842519
 20
27.74212598425196
 10
21.83562992125984
 20
27.71161417322834
  0
LWPOLYLINE
  5
763
330
1E
100
AcDbEntity
  8
7
100
AcDbPolyline
 90
        3
 70
     0
 43
0.0098425196850394
 10
21.83464566929134
 20
28.1505905511811
 10
21.84153543307086
 20
28.15846456692913
 10
21.84350393700787
 20
28.16732283464567
  0
LWPOLYLINE
  5
768
330
1E
100
AcDbEntity
  8
7
100
AcDbPolyline
 90
        3
 70
     0
 43
0.0098425196850394
 10
21.84448818897637
 20
28.43110236220472
 10
22.12401574803149
 20
28.43110236220472
 10
22.12401574803149
 20
28.16732283464567
  0
LWPOLYLINE
  5
76D
330
1E
100
AcDbEntity
  8
7
100
AcDbPolyline
 90
        3
 70
     0
 43
0.0098425196850394
 10
22.12401574803149
 20
28.16732283464567
 10
22.1259842519685
 20
28.15846456692913
 10
22.13287401574803
 20
28.1505905511811
  0
LWPOLYLINE
  5
772
330
1E
100
AcDbEntity
  8
7
100
AcDbPolyline
 90
       12
 70
     0
 43
0.0098425196850394
 10
22.13287401574803
 20
27.71161417322834
 10
22.16929133858267
 20
27.74212598425196
 10
22.1998031496063
 20
27.77755905511811
 10
22.22342519685039
 20
27.81791338582677
 10
22.24015748031496
 20
27.86122047244094
 10
22.24803149606299
 20
27.90748031496063
 10
22.24803149606299
 20
27.95472440944882
 10
22.24015748031496
 20
28.0009842519685
 10
22.22342519685039
 20
28.04429133858267
 10
22.1998031496063
 20
28.08464566929133
 10
22.16929133858267
 20
28.12007874015748
 10
22.13287401574803
 20
28.1505905511811
  0
LWPOLYLINE
  5
780
330
1E
100
AcDbEntity
  8
7
100
AcDbPolyline
 90
        3
 70
     0
 43
0.0098425196850394
 10
22.13287401574803
 20
27.71161417322834
 10
22.1259842519685
 20
27.70374015748031
 10
22.12401574803149
 20
27.69488188976378
  0
LINE
  5
785
330
1E
100
AcDbEntity
  8
7
100
AcDbLine
 10
21.84448818897637
 20
27.43110236220472
 30
0.0
 11
22.12401574803149
 21
27.43110236220472
 31
0.0
  0
LINE
  5
786
330
1E
100
AcDbEntity
  8
7
100
AcDbLine
 10
4.075787401574802
 20
28.74606299212598
 30
0.0
 11
4.044291338582676
 21
28.74606299212598
 31
0.0
  0
LINE
  5
787
330
1E
100
AcDbEntity
  8
7
100
AcDbLine
 10
4.044291338582676
 20
27.11614173228346
 30
0.0
 11
4.075787401574802
 21
27.11614173228346
 31
0.0
  0
LWPOLYLINE
  5
788
330
1E
100
AcDbEntity
  8
7
100
AcDbPolyline
 90
        3
 70
     0
 43
0.0098425196850394
 10
8.159448818897637
 20
28.05610236220472
 10
8.182086614173227
 20
28.05610236220472
 10
8.201771653543307
 20
28.05610236220472
  0
LWPOLYLINE
  5
78D
330
1E
100
AcDbEntity
  8
7
100
AcDbPolyline
 90
        5
 70
     0
 43
0.0098425196850394
 10
8.159448818897637
 20
27.80610236220472
 10
8.182086614173227
 20
27.80610236220472
 10
8.201771653543307
 20
27.80610236220472
 10
8.201771653543307
 20
28.05610236220472
 10
8.352362204724409
 20
28.05610236220472
  0
LWPOLYLINE
  5
794
330
1E
100
AcDbEntity
  8
7
100
AcDbPolyline
 90
        3
 70
     0
 43
0.0098425196850394
 10
8.201771653543307
 20
27.80610236220472
 10
8.352362204724409
 20
27.80610236220472
 10
8.352362204724409
 20
28.05610236220472
  0
LWPOLYLINE
  5
799
330
1E
100
AcDbEntity
  8
7
100
AcDbPolyline
 90
        3
 70
     0
 43
0.0098425196850394
 10
9.473425196850392
 20
27.80610236220472
 10
9.450787401574801
 20
27.80610236220472
 10
9.431102362204724
 20
27.80610236220472
  0
LWPOLYLINE
  5
79E
330
1E
100
AcDbEntity
  8
7
100
AcDbPolyline
 90
        5
 70
     0
 43
0.0098425196850394
 10
9.473425196850392
 20
28.05610236220472
 10
9.450787401574801
 20
28.05610236220472
 10
9.431102362204724
 20
28.05610236220472
 10
9.431102362204724
 20
27.80610236220472
 10
9.279527559055116
 20
27.80610236220472
  0
LWPOLYLINE
  5
7A5
330
1E
100
AcDbEntity
  8
7
100
AcDbPolyline
 90
        3
 70
     0
 43
0.0098425196850394
 10
9.431102362204724
 20
28.05610236220472
 10
9.279527559055116
 20
28.05610236220472
 10
9.279527559055116
 20
27.80610236220472
  0
LWPOLYLINE
  5
7AA
330
1E
100
AcDbEntity
  8
7
100
AcDbPolyline
 90
        3
 70
     0
 43
0.0098425196850394
 10
8.352362204724409
 20
27.80610236220472
 10
8.383858267716535
 20
27.80610236220472
 10
8.421259842519685
 20
27.80610236220472
  0
LWPOLYLINE
  5
7AF
330
1E
100
AcDbEntity
  8
7
100
AcDbPolyline
 90
        3
 70
     0
 43
0.0098425196850394
 10
8.352362204724409
 20
28.05610236220472
 10
8.383858267716535
 20
28.05610236220472
 10
8.421259842519685
 20
28.05610236220472
  0
LINE
  5
7B4
330
1E
100
AcDbEntity
  8
7
100
AcDbLine
 10
8.421259842519685
 20
27.80610236220472
 30
0.0
 11
8.421259842519685
 21
28.05610236220472
 31
0.0
  0
LWPOLYLINE
  5
7B5
330
1E
100
AcDbEntity
  8
7
100
AcDbPolyline
 90
        3
 70
     0
 43
0.0098425196850394
 10
9.279527559055116
 20
28.05610236220472
 10
9.24803149606299
 20
28.05610236220472
 10
9.211614173228346
 20
28.05610236220472
  0
LWPOLYLINE
  5
7BA
330
1E
100
AcDbEntity
  8
7
100
AcDbPolyline
 90
        3
 70
     0
 43
0.0098425196850394
 10
9.279527559055116
 20
27.80610236220472
 10
9.24803149606299
 20
27.80610236220472
 10
9.211614173228346
 20
27.80610236220472
  0
LINE
  5
7BF
330
1E
100
AcDbEntity
  8
7
100
AcDbLine
 10
9.211614173228346
 20
28.05610236220472
 30
0.0
 11
9.211614173228346
 21
27.80610236220472
 31
0.0
  0
LINE
  5
7C0
330
1E
100
AcDbEntity
  8
7
100
AcDbLine
 10
9.211614173228346
 20
28.05610236220472
 30
0.0
 11
8.421259842519685
 21
28.05610236220472
 31
0.0
  0
LINE
  5
7C1
330
1E
100
AcDbEntity
  8
7
100
AcDbLine
 10
9.211614173228346
 20
27.80610236220472
 30
0.0
 11
8.421259842519685
 21
27.80610236220472
 31
0.0
  0
LINE
  5
7C2
330
1E
100
AcDbEntity
  8
7
100
AcDbLine
 10
4.075787401574802
 20
27.05610236220472
 30
0.0
 11
4.044291338582676
 21
27.05610236220472
 31
0.0
  0
LINE
  5
7C3
330
1E
100
AcDbEntity
  8
7
100
AcDbLine
 10
4.044291338582676
 20
28.80610236220472
 30
0.0
 11
4.075787401574802
 21
28.80610236220472
 31
0.0
  0
LWPOLYLINE
  5
7C4
330
1E
100
AcDbEntity
  8
7
100
AcDbPolyline
 90
        5
 70
     0
 43
0.0098425196850394
 10
20.8001968503937
 20
9.182086614173227
 10
20.82381889763779
 20
9.182086614173227
 10
20.84842519685039
 20
9.182086614173227
 10
20.87499999999999
 20
9.182086614173227
 10
20.8996062992126
 20
9.182086614173227
  0
LWPOLYLINE
  5
7CB
330
1E
100
AcDbEntity
  8
7
100
AcDbPolyline
 90
        8
 70
     0
 43
0.0098425196850394
 10
20.93700787401574
 20
9.182086614173227
 10
21.01082677165354
 20
9.182086614173227
 10
21.02263779527559
 20
9.182086614173227
 10
21.01082677165354
 20
9.182086614173227
 10
20.93700787401574
 20
9.182086614173227
 10
21.00984251968504
 20
9.182086614173227
 10
21.03444881889763
 20
9.182086614173227
 10
21.01082677165354
 20
9.182086614173227
  0
LINE
  5
7D5
330
1E
100
AcDbEntity
  8
7
100
AcDbLine
 10
21.17224409448819
 20
9.182086614173227
 30
0.0
 11
21.07283464566929
 21
9.182086614173227
 31
0.0
  0
LINE
  5
7D6
330
1E
100
AcDbEntity
  8
7
100
AcDbLine
 10
21.24803149606299
 20
9.182086614173227
 30
0.0
 11
21.25885826771653
 21
9.182086614173227
 31
0.0
  0
LINE
  5
7D7
330
1E
100
AcDbEntity
  8
7
100
AcDbLine
 10
21.24311023622047
 20
9.182086614173227
 30
0.0
 11
21.2746062992126
 21
9.182086614173227
 31
0.0
  0
LWPOLYLINE
  5
7D8
330
1E
100
AcDbEntity
  8
7
100
AcDbPolyline
 90
        3
 70
     0
 43
0.0098425196850394
 10
20.66929133858268
 20
9.182086614173227
 10
20.69389763779527
 20
9.182086614173227
 10
20.71850393700787
 20
9.182086614173227
  0
LWPOLYLINE
  5
7DD
330
1E
100
AcDbEntity
  8
7
100
AcDbPolyline
 90
        3
 70
     0
 43
0.0098425196850394
 10
20.73720472440944
 20
9.182086614173227
 10
20.76181102362204
 20
9.182086614173227
 10
20.78641732283464
 20
9.182086614173227
  0
LINE
  5
7E2
330
1E
100
AcDbEntity
  8
7
100
AcDbLine
 10
20.75
 20
9.182086614173227
 30
0.0
 11
20.77460629921259
 21
9.182086614173227
 31
0.0
  0
LWPOLYLINE
  5
7E3
330
1E
100
AcDbEntity
  8
7
100
AcDbPolyline
 90
        5
 70
     0
 43
0.0098425196850394
 10
20.80511811023622
 20
9.182086614173227
 10
20.84153543307086
 20
9.182086614173227
 10
20.85433070866141
 20
9.182086614173227
 10
20.84153543307086
 20
9.182086614173227
 10
20.80511811023622
 20
9.182086614173227
  0
LWPOLYLINE
  5
7EA
330
1E
100
AcDbEntity
  8
7
100
AcDbPolyline
 90
        3
 70
     0
 43
0.0098425196850394
 10
20.92322834645669
 20
9.182086614173227
 10
20.87303149606299
 20
9.182086614173227
 10
20.92322834645669
 20
9.182086614173227
  0
LINE
  5
7EF
330
1E
100
AcDbEntity
  8
7
100
AcDbLine
 10
20.91043307086614
 20
9.182086614173227
 30
0.0
 11
20.87303149606299
 21
9.182086614173227
 31
0.0
  0
LINE
  5
7F0
330
1E
100
AcDbEntity
  8
7
100
AcDbLine
 10
21.02755905511811
 20
9.182086614173227
 30
0.0
 11
21.04035433070866
 21
9.182086614173227
 31
0.0
  0
LINE
  5
7F1
330
1E
100
AcDbEntity
  8
7
100
AcDbLine
 10
21.02755905511811
 20
9.182086614173227
 30
0.0
 11
21.04035433070866
 21
9.182086614173227
 31
0.0
  0
LINE
  5
7F2
330
1E
100
AcDbEntity
  8
7
100
AcDbLine
 10
21.07775590551181
 20
9.182086614173227
 30
0.0
 11
21.126968503937
 21
9.182086614173227
 31
0.0
  0
LWPOLYLINE
  5
7F3
330
1E
100
AcDbEntity
  8
7
100
AcDbPolyline
 90
        4
 70
     0
 43
0.0098425196850394
 10
21.21358267716535
 20
9.182086614173227
 10
21.2253937007874
 20
9.182086614173227
 10
21.25
 20
9.182086614173227
 10
21.26377952755905
 20
9.182086614173227
  0
LWPOLYLINE
  5
7F9
330
1E
100
AcDbEntity
  8
7
100
AcDbPolyline
 90
        8
 70
     0
 43
0.0098425196850394
 10
21.28149606299212
 20
9.182086614173227
 10
21.29330708661417
 20
9.182086614173227
 10
21.31889763779527
 20
9.182086614173227
 10
21.33169291338583
 20
9.182086614173227
 10
21.31889763779527
 20
9.182086614173227
 10
21.29429133858268
 20
9.182086614173227
 10
21.28149606299212
 20
9.182086614173227
 10
21.29429133858268
 20
9.182086614173227
  0
LWPOLYLINE
  5
803
330
1E
100
AcDbEntity
  8
7
100
AcDbPolyline
 90
        3
 70
     0
 43
0.0098425196850394
 10
21.29429133858268
 20
9.182086614173227
 10
21.31889763779527
 20
9.182086614173227
 10
21.33169291338583
 20
9.182086614173227
  0
LWPOLYLINE
  5
808
330
1E
100
AcDbEntity
  8
7
100
AcDbPolyline
 90
        3
 70
     0
 43
0.0098425196850394
 10
21.3503937007874
 20
9.182086614173227
 10
21.375
 20
9.182086614173227
 10
21.39960629921259
 20
9.182086614173227
  0
LINE
  5
80D
330
1E
100
AcDbEntity
  8
7
100
AcDbLine
 10
21.36220472440944
 20
9.182086614173227
 30
0.0
 11
21.38681102362204
 21
9.182086614173227
 31
0.0
  0
LWPOLYLINE
  5
80E
330
1E
100
AcDbEntity
  8
7
100
AcDbPolyline
 90
        9
 70
     0
 43
0.0098425196850394
 10
20.58169291338582
 20
9.182086614173227
 10
20.58661417322834
 20
9.182086614173227
 10
20.57480314960629
 20
9.182086614173227
 10
20.56200787401575
 20
9.182086614173227
 10
20.5501968503937
 20
9.182086614173227
 10
20.54330708661417
 20
9.182086614173227
 10
20.5501968503937
 20
9.182086614173227
 10
20.56200787401575
 20
9.182086614173227
 10
20.57480314960629
 20
9.182086614173227
  0
LWPOLYLINE
  5
819
330
1E
100
AcDbEntity
  8
7
100
AcDbPolyline
 90
        5
 70
     0
 43
0.0098425196850394
 10
20.57480314960629
 20
9.182086614173227
 10
20.58661417322834
 20
9.182086614173227
 10
20.59350393700787
 20
9.182086614173227
 10
20.58661417322834
 20
9.182086614173227
 10
20.59350393700787
 20
9.182086614173227
  0
LWPOLYLINE
  5
820
330
1E
100
AcDbEntity
  8
7
100
AcDbPolyline
 90
        3
 70
     0
 43
0.0098425196850394
 10
20.63090551181102
 20
9.182086614173227
 10
20.64271653543307
 20
9.182086614173227
 10
20.63090551181102
 20
9.182086614173227
  0
LWPOLYLINE
  5
825
330
1E
100
AcDbEntity
  8
7
100
AcDbPolyline
 90
        7
 70
     0
 43
0.0098425196850394
 10
20.72933070866141
 20
9.182086614173227
 10
20.71653543307086
 20
9.182086614173227
 10
20.69291338582677
 20
9.182086614173227
 10
20.68011811023622
 20
9.182086614173227
 10
20.69291338582677
 20
9.182086614173227
 10
20.71751968503936
 20
9.182086614173227
 10
20.72933070866141
 20
9.182086614173227
  0
LINE
  5
82E
330
1E
100
AcDbEntity
  8
7
100
AcDbLine
 10
20.75984251968504
 20
9.182086614173227
 30
0.0
 11
20.77263779527559
 21
9.182086614173227
 31
0.0
  0
LINE
  5
82F
330
1E
100
AcDbEntity
  8
7
100
AcDbLine
 10
20.78543307086614
 20
9.182086614173227
 30
0.0
 11
20.77362204724409
 21
9.182086614173227
 31
0.0
  0
LINE
  5
830
330
1E
100
AcDbEntity
  8
7
100
AcDbLine
 10
20.79133858267716
 20
9.182086614173227
 30
0.0
 11
20.75393700787401
 21
9.182086614173227
 31
0.0
  0
LINE
  5
831
330
1E
100
AcDbEntity
  8
7
100
AcDbLine
 10
20.79133858267716
 20
9.182086614173227
 30
0.0
 11
20.75393700787401
 21
9.182086614173227
 31
0.0
  0
LINE
  5
832
330
1E
100
AcDbEntity
  8
7
100
AcDbLine
 10
24.13385826771653
 20
14.58267716535432
 30
0.0
 11
24.13484251968504
 21
14.58267716535432
 31
0.0
  0
LINE
  5
833
330
1E
100
AcDbEntity
  8
7
100
AcDbLine
 10
23.77362204724409
 20
14.39960629921259
 30
0.0
 11
23.84842519685039
 21
14.39960629921259
 31
0.0
  0
LINE
  5
834
330
1E
100
AcDbEntity
  8
7
100
AcDbLine
 10
23.84842519685039
 20
14.67421259842519
 30
0.0
 11
23.77362204724409
 21
14.67421259842519
 31
0.0
  0
LINE
  5
835
330
1E
100
AcDbEntity
  8
7
100
AcDbLine
 10
4.195866141732283
 20
14.67421259842519
 30
0.0
 11
4.121062992125983
 21
14.67421259842519
 31
0.0
  0
LINE
  5
836
330
1E
100
AcDbEntity
  8
7
100
AcDbLine
 10
4.121062992125983
 20
14.39960629921259
 30
0.0
 11
4.195866141732283
 21
14.39960629921259
 31
0.0
  0
LINE
  5
837
330
1E
100
AcDbEntity
  8
7
100
AcDbLine
 10
4.418307086614173
 20
14.64468503937007
 30
0.0
 11
4.195866141732283
 21
14.64468503937007
 31
0.0
  0
LINE
  5
838
330
1E
100
AcDbEntity
  8
7
100
AcDbLine
 10
4.195866141732283
 20
14.42814960629921
 30
0.0
 11
4.418307086614173
 21
14.42814960629921
 31
0.0
  0
LINE
  5
839
330
1E
100
AcDbEntity
  8
7
100
AcDbLine
 10
4.48031496062992
 20
14.60925196850393
 30
0.0
 11
4.442913385826771
 21
14.60925196850393
 31
0.0
  0
LINE
  5
83A
330
1E
100
AcDbEntity
  8
7
100
AcDbLine
 10
4.442913385826771
 20
14.46358267716535
 30
0.0
 11
4.48031496062992
 21
14.46358267716535
 31
0.0
  0
LINE
  5
83B
330
1E
100
AcDbEntity
  8
7
100
AcDbLine
 10
23.5511811023622
 20
14.42814960629921
 30
0.0
 11
23.77362204724409
 21
14.42814960629921
 31
0.0
  0
LINE
  5
83C
330
1E
100
AcDbEntity
  8
7
100
AcDbLine
 10
23.77362204724409
 20
14.64468503937007
 30
0.0
 11
23.5511811023622
 21
14.64468503937007
 31
0.0
  0
LINE
  5
83D
330
1E
100
AcDbEntity
  8
7
100
AcDbLine
 10
23.48818897637795
 20
14.46358267716535
 30
0.0
 11
23.5265748031496
 21
14.46358267716535
 31
0.0
  0
LINE
  5
83E
330
1E
100
AcDbEntity
  8
7
100
AcDbLine
 10
23.5265748031496
 20
14.60925196850393
 30
0.0
 11
23.48818897637795
 21
14.60925196850393
 31
0.0
  0
LINE
  5
83F
330
1E
100
AcDbEntity
  8
7
100
AcDbLine
 10
24.13484251968504
 20
14.49015748031496
 30
0.0
 11
24.06299212598425
 21
14.49015748031496
 31
0.0
  0
LINE
  5
840
330
1E
100
AcDbEntity
  8
7
100
AcDbLine
 10
5.032480314960629
 20
15.03248031496062
 30
0.0
 11
5.032480314960629
 21
15.10728346456692
 31
0.0
  0
LINE
  5
841
330
1E
100
AcDbEntity
  8
7
100
AcDbLine
 10
4.756889763779526
 20
15.10728346456692
 30
0.0
 11
4.756889763779526
 21
15.03248031496062
 31
0.0
  0
LINE
  5
842
330
1E
100
AcDbEntity
  8
7
100
AcDbLine
 10
23.34055118110236
 20
15.03248031496062
 30
0.0
 11
23.34055118110236
 21
15.10728346456692
 31
0.0
  0
LINE
  5
843
330
1E
100
AcDbEntity
  8
7
100
AcDbLine
 10
23.06496062992125
 20
15.10728346456692
 30
0.0
 11
23.06496062992125
 21
15.03248031496062
 31
0.0
  0
LWPOLYLINE
  5
844
330
1E
100
AcDbEntity
  8
7
100
AcDbPolyline
 90
        3
 70
     0
 43
0.0098425196850394
 10
3.919291338582677
 20
14.3503937007874
 10
3.948818897637795
 20
14.33956692913385
 10
3.980314960629921
 20
14.33661417322834
  0
LWPOLYLINE
  5
849
330
1E
100
AcDbEntity
  8
7
100
AcDbPolyline
 90
        3
 70
     0
 43
0.0098425196850394
 10
3.980314960629921
 20
14.73622047244094
 10
3.948818897637795
 20
14.73326771653543
 10
3.919291338582677
 20
14.72244094488188
  0
LWPOLYLINE
  5
84E
330
1E
100
AcDbEntity
  8
7
100
AcDbPolyline
 90
        3
 70
     0
 43
0.0098425196850394
 10
4.418307086614173
 20
14.63484251968504
 10
4.4251968503937
 20
14.61712598425196
 10
4.442913385826771
 20
14.61023622047244
  0
LWPOLYLINE
  5
853
330
1E
100
AcDbEntity
  8
7
100
AcDbPolyline
 90
        3
 70
     0
 43
0.0098425196850394
 10
4.442913385826771
 20
14.46358267716535
 10
4.4251968503937
 20
14.45669291338582
 10
4.418307086614173
 20
14.43897637795275
  0
LWPOLYLINE
  5
858
330
1E
100
AcDbEntity
  8
7
100
AcDbPolyline
 90
        3
 70
     0
 43
0.0098425196850394
 10
24.13090551181102
 20
14.625
 10
24.12795275590551
 20
14.63484251968504
 10
24.12401574803149
 20
14.64468503937007
  0
LWPOLYLINE
  5
85D
330
1E
100
AcDbEntity
  8
7
100
AcDbPolyline
 90
        4
 70
     0
 43
0.0098425196850394
 10
24.09645669291338
 20
14.68897637795275
 10
24.06594488188976
 20
14.71456692913385
 10
24.02952755905511
 20
14.73031496062992
 10
23.98917322834646
 20
14.73622047244094
  0
LWPOLYLINE
  5
863
330
1E
100
AcDbEntity
  8
7
100
AcDbPolyline
 90
        6
 70
     0
 43
0.0098425196850394
 10
23.98917322834646
 20
14.33661417322834
 10
24.02755905511811
 20
14.34153543307086
 10
24.06299212598425
 20
14.35728346456692
 10
24.09350393700787
 20
14.38090551181102
 10
24.11712598425197
 20
14.41240157480315
 10
24.13090551181102
 20
14.44783464566929
  0
LWPOLYLINE
  5
86B
330
1E
100
AcDbEntity
  8
7
100
AcDbPolyline
 90
        3
 70
     0
 43
0.0098425196850394
 10
23.5511811023622
 20
14.43897637795275
 10
23.54429133858267
 20
14.45669291338582
 10
23.5265748031496
 20
14.46358267716535
  0
LWPOLYLINE
  5
870
330
1E
100
AcDbEntity
  8
7
100
AcDbPolyline
 90
        3
 70
     0
 43
0.0098425196850394
 10
23.5265748031496
 20
14.61023622047244
 10
23.54429133858267
 20
14.61712598425196
 10
23.5511811023622
 20
14.63484251968504
  0
LINE
  5
875
330
1E
100
AcDbEntity
  8
7
100
AcDbLine
 10
19.04133858267716
 20
9.183070866141731
 30
0.0
 11
21.53444881889763
 21
9.183070866141731
 31
0.0
  0
LINE
  5
876
330
1E
100
AcDbEntity
  8
7
100
AcDbLine
 10
20.5
 20
9.192913385826772
 30
0.0
 11
19.10334645669291
 21
9.192913385826772
 31
0.0
  0
LINE
  5
877
330
1E
100
AcDbEntity
  8
7
100
AcDbLine
 10
20.5
 20
9.192913385826772
 30
0.0
 11
19.10334645669291
 21
9.192913385826772
 31
0.0
  0
LWPOLYLINE
  5
878
330
1E
100
AcDbEntity
  8
7
100
AcDbPolyline
 90
        3
 70
     0
 43
0.0098425196850394
 10
20.26673228346456
 20
9.192913385826772
 10
20.31988188976378
 20
9.192913385826772
 10
20.26673228346456
 20
9.192913385826772
  0
LWPOLYLINE
  5
87D
330
1E
100
AcDbEntity
  8
7
100
AcDbPolyline
 90
        7
 70
     0
 43
0.0098425196850394
 10
19.24311023622047
 20
9.192913385826772
 10
19.3513779527559
 20
9.192913385826772
 10
19.36122047244094
 20
9.192913385826772
 10
19.37007874015748
 20
9.192913385826772
 10
19.37893700787402
 20
9.192913385826772
 10
19.38385826771653
 20
9.192913385826772
 10
19.38779527559055
 20
9.192913385826772
  0
LINE
  5
886
330
1E
100
AcDbEntity
  8
7
100
AcDbLine
 10
19.38779527559055
 20
9.192913385826772
 30
0.0
 11
19.44685039370078
 21
9.192913385826772
 31
0.0
  0
LWPOLYLINE
  5
887
330
1E
100
AcDbEntity
  8
7
100
AcDbPolyline
 90
       20
 70
     0
 43
0.0098425196850394
 10
19.43799212598425
 20
9.192913385826772
 10
19.43405511811023
 20
9.192913385826772
 10
19.43011811023622
 20
9.192913385826772
 10
19.42716535433071
 20
9.192913385826772
 10
19.42421259842519
 20
9.192913385826772
 10
19.42224409448819
 20
9.192913385826772
 10
19.41830708661417
 20
9.192913385826772
 10
19.41535433070866
 20
9.192913385826772
 10
19.41240157480315
 20
9.192913385826772
 10
19.40846456692913
 20
9.192913385826772
 10
19.40551181102362
 20
9.192913385826772
 10
19.4015748031496
 20
9.192913385826772
 10
19.39763779527559
 20
9.192913385826772
 10
19.39370078740157
 20
9.192913385826772
 10
19.38976377952755
 20
9.192913385826772
 10
19.38188976377952
 20
9.192913385826772
 10
19.376968503937
 20
9.192913385826772
 10
19.37303149606299
 20
9.192913385826772
 10
19.36712598425197
 20
9.192913385826772
 10
19.36318897637795
 20
9.192913385826772
  0
LWPOLYLINE
  5
89D
330
1E
100
AcDbEntity
  8
7
100
AcDbPolyline
 90
        4
 70
     0
 43
0.0098425196850394
 10
19.36318897637795
 20
9.192913385826772
 10
19.35236220472441
 20
9.192913385826772
 10
19.11909448818897
 20
9.192913385826772
 10
19.24311023622047
 20
9.192913385826772
  0
LWPOLYLINE
  5
8A3
330
1E
100
AcDbEntity
  8
7
100
AcDbPolyline
 90
       12
 70
     0
 43
0.0098425196850394
 10
19.35531496062992
 20
9.192913385826772
 10
19.35236220472441
 20
9.192913385826772
 10
19.34350393700787
 20
9.192913385826772
 10
19.32874015748031
 20
9.192913385826772
 10
19.31003937007874
 20
9.192913385826772
 10
19.28740157480315
 20
9.192913385826772
 10
19.27460629921259
 20
9.192913385826772
 10
19.26082677165354
 20
9.192913385826772
 10
19.24704724409449
 20
9.192913385826772
 10
19.23326771653543
 20
9.192913385826772
 10
19.21751968503937
 20
9.192913385826772
 10
19.20275590551181
 20
9.192913385826772
  0
LWPOLYLINE
  5
8B1
330
1E
100
AcDbEntity
  8
7
100
AcDbPolyline
 90
       14
 70
     0
 43
0.0098425196850394
 10
19.20275590551181
 20
9.192913385826772
 10
19.20472440944881
 20
9.192913385826772
 10
19.21948818897637
 20
9.192913385826772
 10
19.23425196850393
 20
9.192913385826772
 10
19.24803149606299
 20
9.192913385826772
 10
19.26082677165354
 20
9.192913385826772
 10
19.27460629921259
 20
9.192913385826772
 10
19.28641732283464
 20
9.192913385826772
 10
19.30905511811023
 20
9.192913385826772
 10
19.3267716535433
 20
9.192913385826772
 10
19.34055118110236
 20
9.192913385826772
 10
19.3503937007874
 20
9.192913385826772
 10
19.35334645669291
 20
9.192913385826772
 10
19.35531496062992
 20
9.192913385826772
  0
LWPOLYLINE
  5
8C1
330
1E
100
AcDbEntity
  8
7
100
AcDbPolyline
 90
        5
 70
     0
 43
0.0098425196850394
 10
19.73031496062992
 20
9.192913385826772
 10
19.72834645669291
 20
9.192913385826772
 10
19.7253937007874
 20
9.192913385826772
 10
19.72244094488189
 20
9.192913385826772
 10
19.71948818897637
 20
9.192913385826772
  0
LWPOLYLINE
  5
8C8
330
1E
100
AcDbEntity
  8
7
100
AcDbPolyline
 90
       20
 70
     0
 43
0.0098425196850394
 10
19.71948818897637
 20
9.192913385826772
 10
19.71751968503937
 20
9.192913385826772
 10
19.71456692913386
 20
9.192913385826772
 10
19.71062992125984
 20
9.192913385826772
 10
19.70767716535433
 20
9.192913385826772
 10
19.70472440944881
 20
9.192913385826772
 10
19.69881889763779
 20
9.192913385826772
 10
19.69192913385827
 20
9.192913385826772
 10
19.68503937007874
 20
9.192913385826772
 10
19.68208661417323
 20
9.192913385826772
 10
19.67814960629921
 20
9.192913385826772
 10
19.66929133858267
 20
9.192913385826772
 10
19.66437007874016
 20
9.192913385826772
 10
19.66043307086614
 20
9.192913385826772
 10
19.50885826771653
 20
9.192913385826772
 10
19.60531496062992
 20
9.192913385826772
 10
19.66240157480315
 20
9.192913385826772
 10
19.67027559055118
 20
9.192913385826772
 10
19.67421259842519
 20
9.192913385826772
 10
19.67814960629921
 20
9.192913385826772
  0
LINE
  5
8DE
330
1E
100
AcDbEntity
  8
7
100
AcDbLine
 10
19.67814960629921
 20
9.192913385826772
 30
0.0
 11
19.69192913385827
 21
9.192913385826772
 31
0.0
  0
LWPOLYLINE
  5
8DF
330
1E
100
AcDbEntity
  8
7
100
AcDbPolyline
 90
       17
 70
     0
 43
0.0098425196850394
 10
19.35629921259842
 20
9.192913385826772
 10
19.35531496062992
 20
9.192913385826772
 10
19.35433070866142
 20
9.192913385826772
 10
19.35334645669291
 20
9.192913385826772
 10
19.3513779527559
 20
9.192913385826772
 10
19.3494094488189
 20
9.192913385826772
 10
19.34744094488189
 20
9.192913385826772
 10
19.34448818897637
 20
9.192913385826772
 10
19.34153543307086
 20
9.192913385826772
 10
19.33858267716535
 20
9.192913385826772
 10
19.33562992125984
 20
9.192913385826772
 10
19.33169291338582
 20
9.192913385826772
 10
19.32775590551181
 20
9.192913385826772
 10
19.32381889763779
 20
9.192913385826772
 10
19.31988188976378
 20
9.192913385826772
 10
19.31594488188976
 20
9.192913385826772
 10
19.31102362204724
 20
9.192913385826772
  0
LWPOLYLINE
  5
8F2
330
1E
100
AcDbEntity
  8
7
100
AcDbPolyline
 90
       20
 70
     0
 43
0.0098425196850394
 10
19.31102362204724
 20
9.192913385826772
 10
19.30708661417322
 20
9.192913385826772
 10
19.30216535433071
 20
9.192913385826772
 10
19.29724409448819
 20
9.192913385826772
 10
19.29232283464567
 20
9.192913385826772
 10
19.28838582677165
 20
9.192913385826772
 10
19.28346456692913
 20
9.192913385826772
 10
19.27854330708661
 20
9.192913385826772
 10
19.27362204724409
 20
9.192913385826772
 10
19.26870078740157
 20
9.192913385826772
 10
19.26377952755905
 20
9.192913385826772
 10
19.25885826771653
 20
9.192913385826772
 10
19.25393700787402
 20
9.192913385826772
 10
19.24901574803149
 20
9.192913385826772
 10
19.24507874015748
 20
9.192913385826772
 10
19.24015748031496
 20
9.192913385826772
 10
19.23622047244094
 20
9.192913385826772
 10
19.23228346456692
 20
9.192913385826772
 10
19.22834645669291
 20
9.192913385826772
 10
19.2253937007874
 20
9.192913385826772
  0
LINE
  5
908
330
1E
100
AcDbEntity
  8
7
100
AcDbLine
 10
19.2017716535433
 20
9.192913385826772
 30
0.0
 11
19.2253937007874
 21
9.192913385826772
 31
0.0
  0
LINE
  5
909
330
1E
100
AcDbEntity
  8
7
100
AcDbLine
 10
19.22145669291338
 20
9.192913385826772
 30
0.0
 11
19.32775590551181
 21
9.192913385826772
 31
0.0
  0
LWPOLYLINE
  5
90A
330
1E
100
AcDbEntity
  8
7
100
AcDbPolyline
 90
       13
 70
     0
 43
0.0098425196850394
 10
19.32775590551181
 20
9.192913385826772
 10
19.33169291338582
 20
9.192913385826772
 10
19.33562992125984
 20
9.192913385826772
 10
19.33858267716535
 20
9.192913385826772
 10
19.34153543307086
 20
9.192913385826772
 10
19.34448818897637
 20
9.192913385826772
 10
19.34744094488189
 20
9.192913385826772
 10
19.3494094488189
 20
9.192913385826772
 10
19.3513779527559
 20
9.192913385826772
 10
19.35334645669291
 20
9.192913385826772
 10
19.35433070866142
 20
9.192913385826772
 10
19.35531496062992
 20
9.192913385826772
 10
19.35629921259842
 20
9.192913385826772
  0
LWPOLYLINE
  5
919
330
1E
100
AcDbEntity
  8
7
100
AcDbPolyline
 90
        7
 70
     0
 43
0.0098425196850394
 10
19.69192913385827
 20
9.192913385826772
 10
19.66141732283464
 20
9.192913385826772
 10
19.71555118110236
 20
9.192913385826772
 10
19.72440944881889
 20
9.192913385826772
 10
19.77952755905511
 20
9.192913385826772
 10
19.79133858267716
 20
9.192913385826772
 10
19.87204724409449
 20
9.192913385826772
  0
LWPOLYLINE
  5
922
330
1E
100
AcDbEntity
  8
7
100
AcDbPolyline
 90
       16
 70
     0
 43
0.0098425196850394
 10
19.34251968503937
 20
9.192913385826772
 10
19.33169291338582
 20
9.192913385826772
 10
19.31988188976378
 20
9.192913385826772
 10
19.30511811023622
 20
9.192913385826772
 10
19.28641732283464
 20
9.192913385826772
 10
19.2755905511811
 20
9.192913385826772
 10
19.26476377952756
 20
9.192913385826772
 10
19.25393700787402
 20
9.192913385826772
 10
19.24212598425197
 20
9.192913385826772
 10
19.22933070866141
 20
9.192913385826772
 10
19.21751968503937
 20
9.192913385826772
 10
19.21948818897637
 20
9.192913385826772
 10
19.23129921259842
 20
9.192913385826772
 10
19.24311023622047
 20
9.192913385826772
 10
19.25492125984252
 20
9.192913385826772
 10
19.26476377952756
 20
9.192913385826772
  0
LWPOLYLINE
  5
934
330
1E
100
AcDbEntity
  8
7
100
AcDbPolyline
 90
        8
 70
     0
 43
0.0098425196850394
 10
19.26476377952756
 20
9.192913385826772
 10
19.2755905511811
 20
9.192913385826772
 10
19.28543307086614
 20
9.192913385826772
 10
19.30314960629921
 20
9.192913385826772
 10
19.31791338582677
 20
9.192913385826772
 10
19.32972440944881
 20
9.192913385826772
 10
19.33956692913385
 20
9.192913385826772
 10
19.34251968503937
 20
9.192913385826772
  0
LWPOLYLINE
  5
93E
330
1E
100
AcDbEntity
  8
7
100
AcDbPolyline
 90
       12
 70
     0
 43
0.0098425196850394
 10
19.2765748031496
 20
9.192913385826772
 10
19.26870078740157
 20
9.192913385826772
 10
19.26279527559055
 20
9.192913385826772
 10
19.25984251968504
 20
9.192913385826772
 10
19.25688976377952
 20
9.192913385826772
 10
19.25492125984252
 20
9.192913385826772
 10
19.25295275590551
 20
9.192913385826772
 10
19.25393700787402
 20
9.192913385826772
 10
19.25688976377952
 20
9.192913385826772
 10
19.26082677165354
 20
9.192913385826772
 10
19.26771653543307
 20
9.192913385826772
 10
19.2765748031496
 20
9.192913385826772
  0
LWPOLYLINE
  5
94C
330
1E
100
AcDbEntity
  8
7
100
AcDbPolyline
 90
       14
 70
     0
 43
0.0098425196850394
 10
19.2765748031496
 20
9.192913385826772
 10
19.27263779527559
 20
9.192913385826772
 10
19.26476377952756
 20
9.192913385826772
 10
19.25787401574803
 20
9.192913385826772
 10
19.25295275590551
 20
9.192913385826772
 10
19.25
 20
9.192913385826772
 10
19.24901574803149
 20
9.192913385826772
 10
19.25
 20
9.192913385826772
 10
19.25295275590551
 20
9.192913385826772
 10
19.25590551181102
 20
9.192913385826772
 10
19.25885826771653
 20
9.192913385826772
 10
19.26574803149606
 20
9.192913385826772
 10
19.27263779527559
 20
9.192913385826772
 10
19.2765748031496
 20
9.192913385826772
  0
LWPOLYLINE
  5
95C
330
1E
100
AcDbEntity
  8
7
100
AcDbPolyline
 90
        8
 70
     0
 43
0.0098425196850394
 10
20.126968503937
 20
9.192913385826772
 10
20.12795275590551
 20
9.192913385826772
 10
20.12893700787401
 20
9.192913385826772
 10
20.12992125984252
 20
9.192913385826772
 10
20.13287401574803
 20
9.192913385826772
 10
20.13385826771653
 20
9.192913385826772
 10
20.13484251968504
 20
9.192913385826772
 10
20.13779527559055
 20
9.192913385826772
  0
LINE
  5
966
330
1E
100
AcDbEntity
  8
7
100
AcDbLine
 10
20.13779527559055
 20
9.192913385826772
 30
0.0
 11
20.24901574803149
 21
9.192913385826772
 31
0.0
  0
LWPOLYLINE
  5
967
330
1E
100
AcDbEntity
  8
7
100
AcDbPolyline
 90
       11
 70
     0
 43
0.0098425196850394
 10
20.20472440944881
 20
9.192913385826772
 10
20.20374015748031
 20
9.192913385826772
 10
20.20177165354331
 20
9.192913385826772
 10
20.2007874015748
 20
9.192913385826772
 10
20.18700787401574
 20
9.192913385826772
 10
20.18503937007874
 20
9.192913385826772
 10
20.18405511811023
 20
9.192913385826772
 10
20.18307086614173
 20
9.192913385826772
 10
20.18208661417323
 20
9.192913385826772
 10
20.18110236220472
 20
9.192913385826772
 10
20.126968503937
 20
9.192913385826772
  0
LWPOLYLINE
  5
974
330
1E
100
AcDbEntity
  8
7
100
AcDbPolyline
 90
        6
 70
     0
 43
0.0098425196850394
 10
19.87204724409449
 20
9.192913385826772
 10
19.89665354330709
 20
9.192913385826772
 10
19.95767716535433
 20
9.192913385826772
 10
19.91141732283464
 20
9.192913385826772
 10
19.88877952755905
 20
9.192913385826772
 10
19.82381889763779
 20
9.192913385826772
  0
LWPOLYLINE
  5
97C
330
1E
100
AcDbEntity
  8
7
100
AcDbPolyline
 90
        3
 70
     0
 43
0.0098425196850394
 10
19.82381889763779
 20
9.192913385826772
 10
19.78149606299212
 20
9.192913385826772
 10
19.73031496062992
 20
9.192913385826772
  0
LWPOLYLINE
  5
981
330
1E
100
AcDbEntity
  8
7
100
AcDbPolyline
 90
       17
 70
     0
 43
0.0098425196850394
 10
19.97933070866142
 20
9.192913385826772
 10
20.08169291338583
 20
9.192913385826772
 10
20.08759842519685
 20
9.192913385826772
 10
20.09055118110236
 20
9.192913385826772
 10
20.09251968503936
 20
9.192913385826772
 10
20.09744094488189
 20
9.192913385826772
 10
20.09940944881889
 20
9.192913385826772
 10
20.1013779527559
 20
9.192913385826772
 10
20.10334645669291
 20
9.192913385826772
 10
20.10433070866141
 20
9.192913385826772
 10
20.10728346456692
 20
9.192913385826772
 10
20.10826771653543
 20
9.192913385826772
 10
20.10925196850393
 20
9.192913385826772
 10
20.10826771653543
 20
9.192913385826772
 10
20.10728346456692
 20
9.192913385826772
 10
20.10433070866141
 20
9.192913385826772
 10
20.10334645669291
 20
9.192913385826772
  0
LWPOLYLINE
  5
994
330
1E
100
AcDbEntity
  8
7
100
AcDbPolyline
 90
        8
 70
     0
 43
0.0098425196850394
 10
20.10334645669291
 20
9.192913385826772
 10
20.1013779527559
 20
9.192913385826772
 10
20.09744094488189
 20
9.192913385826772
 10
20.09547244094488
 20
9.192913385826772
 10
20.09251968503936
 20
9.192913385826772
 10
20.08759842519685
 20
9.192913385826772
 10
20.08169291338583
 20
9.192913385826772
 10
19.97933070866142
 20
9.192913385826772
  0
LWPOLYLINE
  5
99E
330
1E
100
AcDbEntity
  8
7
100
AcDbPolyline
 90
       12
 70
     0
 43
0.0098425196850394
 10
20.03740157480315
 20
9.192913385826772
 10
20.05314960629921
 20
9.192913385826772
 10
20.05413385826771
 20
9.192913385826772
 10
20.05610236220472
 20
9.192913385826772
 10
20.05708661417322
 20
9.192913385826772
 10
20.06003937007874
 20
9.192913385826772
 10
20.06102362204724
 20
9.192913385826772
 10
20.06003937007874
 20
9.192913385826772
 10
20.05905511811023
 20
9.192913385826772
 10
20.05807086614173
 20
9.192913385826772
 10
20.05610236220472
 20
9.192913385826772
 10
20.05511811023622
 20
9.192913385826772
  0
LWPOLYLINE
  5
9AC
330
1E
100
AcDbEntity
  8
7
100
AcDbPolyline
 90
        4
 70
     0
 43
0.0098425196850394
 10
20.05511811023622
 20
9.192913385826772
 10
20.05314960629921
 20
9.192913385826772
 10
20.0511811023622
 20
9.192913385826772
 10
20.03740157480315
 20
9.192913385826772
  0
LWPOLYLINE
  5
9B2
330
1E
100
AcDbEntity
  8
7
100
AcDbPolyline
 90
       15
 70
     0
 43
0.0098425196850394
 10
19.61023622047244
 20
9.192913385826772
 10
19.62795275590551
 20
9.192913385826772
 10
19.63090551181102
 20
9.192913385826772
 10
19.63287401574803
 20
9.192913385826772
 10
19.63385826771653
 20
9.192913385826772
 10
19.63582677165354
 20
9.192913385826772
 10
19.63779527559055
 20
9.192913385826772
 10
19.63877952755905
 20
9.192913385826772
 10
19.63779527559055
 20
9.192913385826772
 10
19.63681102362204
 20
9.192913385826772
 10
19.63582677165354
 20
9.192913385826772
 10
19.63385826771653
 20
9.192913385826772
 10
19.63090551181102
 20
9.192913385826772
 10
19.62795275590551
 20
9.192913385826772
 10
19.61023622047244
 20
9.192913385826772
  0
LWPOLYLINE
  5
9C3
330
1E
100
AcDbEntity
  8
7
100
AcDbPolyline
 90
       20
 70
     0
 43
0.0098425196850394
 10
19.28346456692913
 20
9.192913385826772
 10
19.29133858267716
 20
9.192913385826772
 10
19.29822834645669
 20
9.192913385826772
 10
19.30511811023622
 20
9.192913385826772
 10
19.30807086614173
 20
9.192913385826772
 10
19.30905511811023
 20
9.192913385826772
 10
19.30807086614173
 20
9.192913385826772
 10
19.30610236220472
 20
9.192913385826772
 10
19.3011811023622
 20
9.192913385826772
 10
19.29429133858267
 20
9.192913385826772
 10
19.28543307086614
 20
9.192913385826772
 10
19.28149606299212
 20
9.192913385826772
 10
19.29035433070866
 20
9.192913385826772
 10
19.29724409448819
 20
9.192913385826772
 10
19.30216535433071
 20
9.192913385826772
 10
19.30413385826772
 20
9.192913385826772
 10
19.30511811023622
 20
9.192913385826772
 10
19.30314960629921
 20
9.192913385826772
 10
19.3011811023622
 20
9.192913385826772
 10
19.29527559055118
 20
9.192913385826772
  0
LWPOLYLINE
  5
9D9
330
1E
100
AcDbEntity
  8
7
100
AcDbPolyline
 90
        4
 70
     0
 43
0.0098425196850394
 10
19.29527559055118
 20
9.192913385826772
 10
19.28740157480315
 20
9.192913385826772
 10
19.27952755905511
 20
9.192913385826772
 10
19.28346456692913
 20
9.192913385826772
  0
LWPOLYLINE
  5
9DF
330
1E
100
AcDbEntity
  8
7
100
AcDbPolyline
 90
       15
 70
     0
 43
0.0098425196850394
 10
19.26082677165354
 20
9.192913385826772
 10
19.25688976377952
 20
9.192913385826772
 10
19.24901574803149
 20
9.192913385826772
 10
19.23818897637795
 20
9.192913385826772
 10
19.22834645669291
 20
9.192913385826772
 10
19.2263779527559
 20
9.192913385826772
 10
19.2253937007874
 20
9.192913385826772
 10
19.22244094488189
 20
9.192913385826772
 10
19.22440944881889
 20
9.192913385826772
 10
19.2263779527559
 20
9.192913385826772
 10
19.22933070866141
 20
9.192913385826772
 10
19.23622047244094
 20
9.192913385826772
 10
19.24606299212598
 20
9.192913385826772
 10
19.26082677165354
 20
9.192913385826772
 10
19.25885826771653
 20
9.192913385826772
  0
LWPOLYLINE
  5
9F0
330
1E
100
AcDbEntity
  8
7
100
AcDbPolyline
 90
       15
 70
     0
 43
0.0098425196850394
 10
19.25885826771653
 20
9.192913385826772
 10
19.24409448818897
 20
9.192913385826772
 10
19.23326771653543
 20
9.192913385826772
 10
19.2253937007874
 20
9.192913385826772
 10
19.22244094488189
 20
9.192913385826772
 10
19.22047244094488
 20
9.192913385826772
 10
19.21850393700787
 20
9.192913385826772
 10
19.22145669291338
 20
9.192913385826772
 10
19.22244094488189
 20
9.192913385826772
 10
19.2253937007874
 20
9.192913385826772
 10
19.23523622047244
 20
9.192913385826772
 10
19.24606299212598
 20
9.192913385826772
 10
19.25492125984252
 20
9.192913385826772
 10
19.25885826771653
 20
9.192913385826772
 10
19.26082677165354
 20
9.192913385826772
  0
LWPOLYLINE
  5
A01
330
1E
100
AcDbEntity
  8
7
100
AcDbPolyline
 90
        6
 70
     0
 43
0.0098425196850394
 10
19.29527559055118
 20
9.192913385826772
 10
19.31200787401574
 20
9.192913385826772
 10
19.31791338582677
 20
9.192913385826772
 10
19.32283464566929
 20
9.192913385826772
 10
19.33070866141732
 20
9.192913385826772
 10
19.33267716535433
 20
9.192913385826772
  0
LINE
  5
A09
330
1E
100
AcDbEntity
  8
7
100
AcDbLine
 10
19.29527559055118
 20
9.192913385826772
 30
0.0
 11
19.34055118110236
 21
9.192913385826772
 31
0.0
  0
LWPOLYLINE
  5
A0A
330
1E
100
AcDbEntity
  8
7
100
AcDbPolyline
 90
        8
 70
     0
 43
0.0098425196850394
 10
19.33661417322834
 20
9.192913385826772
 10
19.33464566929134
 20
9.192913385826772
 10
19.32972440944881
 20
9.192913385826772
 10
19.3257874015748
 20
9.192913385826772
 10
19.32086614173228
 20
9.192913385826772
 10
19.31397637795275
 20
9.192913385826772
 10
19.29822834645669
 20
9.192913385826772
 10
19.29527559055118
 20
9.192913385826772
  0
LWPOLYLINE
  5
A14
330
1E
100
AcDbEntity
  8
7
100
AcDbPolyline
 90
        9
 70
     0
 43
0.0098425196850394
 10
19.35334645669291
 20
9.192913385826772
 10
19.34153543307086
 20
9.192913385826772
 10
19.33562992125984
 20
9.192913385826772
 10
19.3267716535433
 20
9.192913385826772
 10
19.30905511811023
 20
9.192913385826772
 10
19.29822834645669
 20
9.192913385826772
 10
19.28641732283464
 20
9.192913385826772
 10
19.27460629921259
 20
9.192913385826772
 10
19.26181102362204
 20
9.192913385826772
  0
LWPOLYLINE
  5
A1F
330
1E
100
AcDbEntity
  8
7
100
AcDbPolyline
 90
       19
 70
     0
 43
0.0098425196850394
 10
19.26181102362204
 20
9.192913385826772
 10
19.24803149606299
 20
9.192913385826772
 10
19.23326771653543
 20
9.192913385826772
 10
19.21948818897637
 20
9.192913385826772
 10
19.20570866141732
 20
9.192913385826772
 10
19.20767716535433
 20
9.192913385826772
 10
19.22244094488189
 20
9.192913385826772
 10
19.23523622047244
 20
9.192913385826772
 10
19.24901574803149
 20
9.192913385826772
 10
19.26181102362204
 20
9.192913385826772
 10
19.27460629921259
 20
9.192913385826772
 10
19.28641732283464
 20
9.192913385826772
 10
19.29724409448819
 20
9.192913385826772
 10
19.30708661417322
 20
9.192913385826772
 10
19.32480314960629
 20
9.192913385826772
 10
19.33267716535433
 20
9.192913385826772
 10
19.33956692913385
 20
9.192913385826772
 10
19.3503937007874
 20
9.192913385826772
 10
19.35334645669291
 20
9.192913385826772
  0
LWPOLYLINE
  5
A34
330
1E
100
AcDbEntity
  8
7
100
AcDbPolyline
 90
        5
 70
     0
 43
0.0098425196850394
 10
20.36614173228346
 20
9.192913385826772
 10
20.32972440944881
 20
9.192913385826772
 10
20.45374015748031
 20
9.192913385826772
 10
20.41732283464567
 20
9.192913385826772
 10
20.36614173228346
 20
9.192913385826772
  0
LWPOLYLINE
  5
A3B
330
1E
100
AcDbEntity
  8
7
100
AcDbPolyline
 90
        4
 70
     0
 43
0.0098425196850394
 10
19.75787401574803
 20
9.192913385826772
 10
19.74114173228346
 20
9.192913385826772
 10
19.77460629921259
 20
9.192913385826772
 10
19.75787401574803
 20
9.192913385826772
  0
LWPOLYLINE
  5
A41
330
1E
100
AcDbEntity
  8
7
100
AcDbPolyline
 90
        6
 70
     0
 43
0.0098425196850394
 10
19.35531496062992
 20
9.192913385826772
 10
19.35433070866142
 20
9.192913385826772
 10
19.35334645669291
 20
9.192913385826772
 10
19.35236220472441
 20
9.192913385826772
 10
19.3513779527559
 20
9.192913385826772
 10
19.3494094488189
 20
9.192913385826772
  0
LWPOLYLINE
  5
A49
330
1E
100
AcDbEntity
  8
7
100
AcDbPolyline
 90
       20
 70
     0
 43
0.0098425196850394
 10
19.3494094488189
 20
9.192913385826772
 10
19.34744094488189
 20
9.192913385826772
 10
19.34547244094488
 20
9.192913385826772
 10
19.34350393700787
 20
9.192913385826772
 10
19.34055118110236
 20
9.192913385826772
 10
19.33759842519685
 20
9.192913385826772
 10
19.33366141732283
 20
9.192913385826772
 10
19.33070866141732
 20
9.192913385826772
 10
19.3267716535433
 20
9.192913385826772
 10
19.32283464566929
 20
9.192913385826772
 10
19.31889763779527
 20
9.192913385826772
 10
19.31496062992126
 20
9.192913385826772
 10
19.31102362204724
 20
9.192913385826772
 10
19.30610236220472
 20
9.192913385826772
 10
19.30216535433071
 20
9.192913385826772
 10
19.29724409448819
 20
9.192913385826772
 10
19.29232283464567
 20
9.192913385826772
 10
19.28740157480315
 20
9.192913385826772
 10
19.28248031496062
 20
9.192913385826772
 10
19.27854330708661
 20
9.192913385826772
  0
LWPOLYLINE
  5
A5F
330
1E
100
AcDbEntity
  8
7
100
AcDbPolyline
 90
       20
 70
     0
 43
0.0098425196850394
 10
19.27854330708661
 20
9.192913385826772
 10
19.27362204724409
 20
9.192913385826772
 10
19.26870078740157
 20
9.192913385826772
 10
19.26377952755905
 20
9.192913385826772
 10
19.25885826771653
 20
9.192913385826772
 10
19.25492125984252
 20
9.192913385826772
 10
19.25
 20
9.192913385826772
 10
19.24606299212598
 20
9.192913385826772
 10
19.24114173228346
 20
9.192913385826772
 10
19.23720472440944
 20
9.192913385826772
 10
19.23326771653543
 20
9.192913385826772
 10
19.22933070866141
 20
9.192913385826772
 10
19.2263779527559
 20
9.192913385826772
 10
19.22244094488189
 20
9.192913385826772
 10
19.21948818897637
 20
9.192913385826772
 10
19.21653543307086
 20
9.192913385826772
 10
19.21456692913386
 20
9.192913385826772
 10
19.21161417322834
 20
9.192913385826772
 10
19.20964566929134
 20
9.192913385826772
 10
19.20767716535433
 20
9.192913385826772
  0
LINE
  5
A75
330
1E
100
AcDbEntity
  8
7
100
AcDbLine
 10
19.20374015748031
 20
9.192913385826772
 30
0.0
 11
19.25885826771653
 21
9.192913385826772
 31
0.0
  0
LINE
  5
A76
330
1E
100
AcDbEntity
  8
7
100
AcDbLine
 10
19.25885826771653
 20
9.192913385826772
 30
0.0
 11
19.3513779527559
 21
9.192913385826772
 31
0.0
  0
LWPOLYLINE
  5
A77
330
1E
100
AcDbEntity
  8
7
100
AcDbPolyline
 90
        5
 70
     0
 43
0.0098425196850394
 10
19.3513779527559
 20
9.192913385826772
 10
19.35236220472441
 20
9.192913385826772
 10
19.35334645669291
 20
9.192913385826772
 10
19.35433070866142
 20
9.192913385826772
 10
19.35531496062992
 20
9.192913385826772
  0
LINE
  5
A7E
330
1E
100
AcDbEntity
  8
7
100
AcDbLine
 10
20.50295275590551
 20
9.192913385826772
 30
0.0
 11
19.10334645669291
 21
9.192913385826772
 31
0.0
  0
LINE
  5
A7F
330
1E
100
AcDbEntity
  8
7
100
AcDbLine
 10
20.50295275590551
 20
9.192913385826772
 30
0.0
 11
19.10334645669291
 21
9.192913385826772
 31
0.0
  0
LWPOLYLINE
  5
A80
330
1E
100
AcDbEntity
  8
7
100
AcDbPolyline
 90
        3
 70
     0
 43
0.0098425196850394
 10
3.833661417322834
 20
14.49606299212598
 10
3.833661417322834
 20
14.49704724409448
 10
3.833661417322834
 20
14.49803149606299
  0
LWPOLYLINE
  5
A85
330
1E
100
AcDbEntity
  8
7
100
AcDbPolyline
 90
        3
 70
     0
 43
0.0098425196850394
 10
3.833661417322834
 20
14.5757874015748
 10
3.833661417322834
 20
14.5767716535433
 10
3.833661417322834
 20
14.57775590551181
  0
LWPOLYLINE
  5
A8A
330
1E
100
AcDbEntity
  8
7
100
AcDbPolyline
 90
        7
 70
     0
 43
0.0098425196850394
 10
3.834645669291338
 20
14.59547244094488
 10
3.838582677165354
 20
14.62204724409448
 10
3.846456692913385
 20
14.64566929133858
 10
3.858267716535432
 20
14.66732283464566
 10
3.873031496062992
 20
14.68799212598425
 10
3.891732283464566
 20
14.70472440944881
 10
3.919291338582677
 20
14.72145669291338
  0
LWPOLYLINE
  5
A93
330
1E
100
AcDbEntity
  8
7
100
AcDbPolyline
 90
        4
 70
     0
 43
0.0098425196850394
 10
3.834645669291338
 20
14.59547244094488
 10
3.834645669291338
 20
14.58661417322834
 10
3.833661417322834
 20
14.57972440944882
 10
3.833661417322834
 20
14.57775590551181
  0
LWPOLYLINE
  5
A99
330
1E
100
AcDbEntity
  8
7
100
AcDbPolyline
 90
        3
 70
     0
 43
0.0098425196850394
 10
3.833661417322834
 20
14.5757874015748
 10
3.834645669291338
 20
14.57185039370078
 10
3.834645669291338
 20
14.56988188976378
  0
LWPOLYLINE
  5
A9E
330
1E
100
AcDbEntity
  8
7
100
AcDbPolyline
 90
        5
 70
     0
 43
0.0098425196850394
 10
3.873031496062992
 20
14.56988188976378
 10
3.857283464566929
 20
14.56988188976378
 10
3.845472440944881
 20
14.56988188976378
 10
3.838582677165354
 20
14.56988188976378
 10
3.834645669291338
 20
14.56988188976378
  0
LWPOLYLINE
  5
AA5
330
1E
100
AcDbEntity
  8
7
100
AcDbPolyline
 90
        3
 70
     0
 43
0.0098425196850394
 10
3.873031496062992
 20
14.50295275590551
 10
3.87007874015748
 20
14.53641732283464
 10
3.873031496062992
 20
14.56988188976378
  0
LWPOLYLINE
  5
AAA
330
1E
100
AcDbEntity
  8
7
100
AcDbPolyline
 90
        5
 70
     0
 43
0.0098425196850394
 10
3.834645669291338
 20
14.50295275590551
 10
3.83759842519685
 20
14.50295275590551
 10
3.844488188976377
 20
14.50295275590551
 10
3.854330708661417
 20
14.50295275590551
 10
3.869094488188976
 20
14.50295275590551
  0
LINE
  5
AB1
330
1E
100
AcDbEntity
  8
7
100
AcDbLine
 10
3.869094488188976
 20
14.50295275590551
 30
0.0
 11
3.873031496062992
 21
14.50295275590551
 31
0.0
  0
LWPOLYLINE
  5
AB2
330
1E
100
AcDbEntity
  8
7
100
AcDbPolyline
 90
        3
 70
     0
 43
0.0098425196850394
 10
3.834645669291338
 20
14.50295275590551
 10
3.834645669291338
 20
14.501968503937
 10
3.833661417322834
 20
14.49803149606299
  0
LWPOLYLINE
  5
AB7
330
1E
100
AcDbEntity
  8
7
100
AcDbPolyline
 90
        4
 70
     0
 43
0.0098425196850394
 10
3.833661417322834
 20
14.49606299212598
 10
3.834645669291338
 20
14.48917322834645
 10
3.834645669291338
 20
14.48031496062992
 10
3.834645669291338
 20
14.47834645669291
  0
LWPOLYLINE
  5
ABD
330
1E
100
AcDbEntity
  8
7
100
AcDbPolyline
 90
        6
 70
     0
 43
0.0098425196850394
 10
3.919291338582677
 20
14.3523622047244
 10
3.918307086614173
 20
14.3523622047244
 10
3.89763779527559
 20
14.36417322834645
 10
3.878937007874015
 20
14.37992125984252
 10
3.863188976377952
 20
14.39862204724409
 10
3.850393700787401
 20
14.41929133858267
  0
LWPOLYLINE
  5
AC5
330
1E
100
AcDbEntity
  8
7
100
AcDbPolyline
 90
        4
 70
     0
 43
0.0098425196850394
 10
3.850393700787401
 20
14.41929133858267
 10
3.840551181102362
 20
14.44291338582677
 10
3.835629921259842
 20
14.46653543307086
 10
3.834645669291338
 20
14.47834645669291
  0
LINE
  5
ACB
330
1E
100
AcDbEntity
  8
7
100
AcDbLine
 10
3.919291338582677
 20
14.3503937007874
 30
0.0
 11
3.919291338582677
 21
14.3523622047244
 31
0.0
  0
LWPOLYLINE
  5
ACC
330
1E
100
AcDbEntity
  8
7
100
AcDbPolyline
 90
        3
 70
     0
 43
0.0098425196850394
 10
3.919291338582677
 20
14.72145669291338
 10
3.919291338582677
 20
14.72244094488188
 10
3.919291338582677
 20
14.72342519685039
  0
LWPOLYLINE
  5
AD1
330
1E
100
AcDbEntity
  8
7
100
AcDbPolyline
 90
        6
 70
     0
 43
0.0098425196850394
 10
4.418307086614173
 20
14.64468503937007
 10
4.418307086614173
 20
14.64074803149606
 10
4.418307086614173
 20
14.62795275590551
 10
4.418307086614173
 20
14.60728346456693
 10
4.418307086614173
 20
14.58169291338582
 10
4.418307086614173
 20
14.55216535433071
  0
LWPOLYLINE
  5
AD9
330
1E
100
AcDbEntity
  8
7
100
AcDbPolyline
 90
        7
 70
     0
 43
0.0098425196850394
 10
4.418307086614173
 20
14.55216535433071
 10
4.418307086614173
 20
14.52165354330708
 10
4.418307086614173
 20
14.49212598425196
 10
4.418307086614173
 20
14.46555118110236
 10
4.418307086614173
 20
14.44586614173228
 10
4.418307086614173
 20
14.43307086614173
 10
4.418307086614173
 20
14.42814960629921
  0
LWPOLYLINE
  5
AE2
330
1E
100
AcDbEntity
  8
7
100
AcDbPolyline
 90
        9
 70
     0
 43
0.0098425196850394
 10
4.48031496062992
 20
14.60925196850393
 10
4.48031496062992
 20
14.60531496062992
 10
4.48031496062992
 20
14.59251968503937
 10
4.48031496062992
 20
14.57283464566929
 10
4.48031496062992
 20
14.54921259842519
 10
4.48031496062992
 20
14.52362204724409
 10
4.48031496062992
 20
14.5
 10
4.48031496062992
 20
14.48129921259842
 10
4.48031496062992
 20
14.46850393700787
  0
LINE
  5
AED
330
1E
100
AcDbEntity
  8
7
100
AcDbLine
 10
4.48031496062992
 20
14.46850393700787
 30
0.0
 11
4.48031496062992
 21
14.46358267716535
 31
0.0
  0
LWPOLYLINE
  5
AEE
330
1E
100
AcDbEntity
  8
7
100
AcDbPolyline
 90
       10
 70
     0
 43
0.0098425196850394
 10
4.442913385826771
 20
14.60925196850393
 10
4.442913385826771
 20
14.60531496062992
 10
4.442913385826771
 20
14.59251968503937
 10
4.442913385826771
 20
14.57283464566929
 10
4.442913385826771
 20
14.54921259842519
 10
4.442913385826771
 20
14.52362204724409
 10
4.442913385826771
 20
14.5
 10
4.442913385826771
 20
14.48129921259842
 10
4.442913385826771
 20
14.46850393700787
 10
4.442913385826771
 20
14.46358267716535
  0
LWPOLYLINE
  5
AFA
330
1E
100
AcDbEntity
  8
7
100
AcDbPolyline
 90
        3
 70
     0
 43
0.0098425196850394
 10
24.13484251968504
 20
14.51968503937007
 10
24.13484251968504
 20
14.51870078740157
 10
24.13484251968504
 20
14.51673228346456
  0
LWPOLYLINE
  5
AFF
330
1E
100
AcDbEntity
  8
7
100
AcDbPolyline
 90
        4
 70
     0
 43
0.0098425196850394
 10
24.13484251968504
 20
14.53346456692913
 10
24.13484251968504
 20
14.52854330708661
 10
24.13484251968504
 20
14.52263779527559
 10
24.13484251968504
 20
14.51968503937007
  0
LWPOLYLINE
  5
B05
330
1E
100
AcDbEntity
  8
7
100
AcDbPolyline
 90
        3
 70
     0
 43
0.0098425196850394
 10
24.13484251968504
 20
14.51673228346456
 10
24.13484251968504
 20
14.50885826771653
 10
24.13484251968504
 20
14.5
  0
LINE
  5
B0A
330
1E
100
AcDbEntity
  8
7
100
AcDbLine
 10
24.13385826771653
 20
14.49015748031496
 30
0.0
 11
24.13484251968504
 21
14.5
 31
0.0
  0
LWPOLYLINE
  5
B0B
330
1E
100
AcDbEntity
  8
7
100
AcDbPolyline
 90
        3
 70
     0
 43
0.0098425196850394
 10
24.13484251968504
 20
14.47440944881889
 10
24.13188976377953
 20
14.45275590551181
 10
24.13090551181102
 20
14.44881889763779
  0
LWPOLYLINE
  5
B10
330
1E
100
AcDbEntity
  8
7
100
AcDbPolyline
 90
        3
 70
     0
 43
0.0098425196850394
 10
24.13484251968504
 20
14.48818897637795
 10
24.13484251968504
 20
14.49015748031496
 10
24.13484251968504
 20
14.48917322834645
  0
LINE
  5
B15
330
1E
100
AcDbEntity
  8
7
100
AcDbLine
 10
24.13484251968504
 20
14.48917322834645
 30
0.0
 11
24.13484251968504
 21
14.48818897637795
 31
0.0
  0
LWPOLYLINE
  5
B16
330
1E
100
AcDbEntity
  8
7
100
AcDbPolyline
 90
        9
 70
     0
 43
0.0098425196850394
 10
24.0501968503937
 20
14.43996062992126
 10
24.0511811023622
 20
14.43996062992126
 10
24.07185039370078
 20
14.44488188976378
 10
24.09055118110236
 20
14.4507874015748
 10
24.10629921259842
 20
14.45767716535432
 10
24.11909448818898
 20
14.46653543307086
 10
24.12795275590551
 20
14.47440944881889
 10
24.13385826771653
 20
14.48425196850393
 10
24.13484251968504
 20
14.48818897637795
  0
LWPOLYLINE
  5
B21
330
1E
100
AcDbEntity
  8
7
100
AcDbPolyline
 90
        3
 70
     0
 43
0.0098425196850394
 10
24.0501968503937
 20
14.49704724409448
 10
24.0501968503937
 20
14.46751968503937
 10
24.0501968503937
 20
14.43996062992126
  0
LINE
  5
B26
330
1E
100
AcDbEntity
  8
7
100
AcDbLine
 10
24.13484251968504
 20
14.54527559055118
 30
0.0
 11
24.125
 21
14.52854330708661
 31
0.0
  0
LWPOLYLINE
  5
B27
330
1E
100
AcDbEntity
  8
7
100
AcDbPolyline
 90
        6
 70
     0
 43
0.0098425196850394
 10
24.125
 20
14.52854330708661
 10
24.11515748031496
 20
14.52066929133858
 10
24.1003937007874
 20
14.51279527559055
 10
24.08366141732283
 20
14.50590551181102
 10
24.06299212598425
 20
14.5
 10
24.0501968503937
 20
14.49704724409448
  0
LWPOLYLINE
  5
B2F
330
1E
100
AcDbEntity
  8
7
100
AcDbPolyline
 90
        6
 70
     0
 43
0.0098425196850394
 10
24.13484251968504
 20
14.54527559055118
 10
24.13484251968504
 20
14.54921259842519
 10
24.13484251968504
 20
14.55610236220472
 10
24.13484251968504
 20
14.56397637795275
 10
24.13484251968504
 20
14.57283464566929
 10
24.13484251968504
 20
14.57775590551181
  0
LWPOLYLINE
  5
B37
330
1E
100
AcDbEntity
  8
7
100
AcDbPolyline
 90
        4
 70
     0
 43
0.0098425196850394
 10
24.09547244094488
 20
14.66240157480314
 10
24.11220472440945
 20
14.64173228346456
 10
24.12303149606299
 20
14.62204724409448
 10
24.13090551181102
 20
14.6003937007874
  0
LINE
  5
B3D
330
1E
100
AcDbEntity
  8
7
100
AcDbLine
 10
24.13090551181102
 20
14.6003937007874
 30
0.0
 11
24.13484251968504
 21
14.57775590551181
 31
0.0
  0
LWPOLYLINE
  5
B3E
330
1E
100
AcDbEntity
  8
7
100
AcDbPolyline
 90
        3
 70
     0
 43
0.0098425196850394
 10
24.09547244094488
 20
14.68799212598425
 10
24.0994094488189
 20
14.6751968503937
 10
24.09547244094488
 20
14.66240157480314
  0
LWPOLYLINE
  5
B43
330
1E
100
AcDbEntity
  8
7
100
AcDbPolyline
 90
        5
 70
     0
 43
0.0098425196850394
 10
24.13484251968504
 20
14.60334645669291
 10
24.125
 20
14.64271653543307
 10
24.11515748031496
 20
14.66338582677165
 10
24.1003937007874
 20
14.68307086614173
 10
24.09547244094488
 20
14.68799212598425
  0
LWPOLYLINE
  5
B4A
330
1E
100
AcDbEntity
  8
7
100
AcDbPolyline
 90
        4
 70
     0
 43
0.0098425196850394
 10
24.13484251968504
 20
14.60334645669291
 10
24.13484251968504
 20
14.59645669291338
 10
24.13484251968504
 20
14.59153543307086
 10
24.13484251968504
 20
14.58858267716535
  0
LWPOLYLINE
  5
B50
330
1E
100
AcDbEntity
  8
7
100
AcDbPolyline
 90
       12
 70
     0
 43
0.0098425196850394
 10
23.5511811023622
 20
14.42814960629921
 10
23.5511811023622
 20
14.43307086614173
 10
23.5511811023622
 20
14.44586614173228
 10
23.5511811023622
 20
14.46555118110236
 10
23.5511811023622
 20
14.49212598425196
 10
23.5511811023622
 20
14.52165354330708
 10
23.5511811023622
 20
14.55216535433071
 10
23.5511811023622
 20
14.58169291338582
 10
23.5511811023622
 20
14.60728346456693
 10
23.5511811023622
 20
14.62795275590551
 10
23.5511811023622
 20
14.64074803149606
 10
23.5511811023622
 20
14.64468503937007
  0
LWPOLYLINE
  5
B5E
330
1E
100
AcDbEntity
  8
7
100
AcDbPolyline
 90
        5
 70
     0
 43
0.0098425196850394
 10
23.48818897637795
 20
14.46358267716535
 10
23.48818897637795
 20
14.46850393700787
 10
23.48818897637795
 20
14.48129921259842
 10
23.48818897637795
 20
14.5
 10
23.48818897637795
 20
14.52362204724409
  0
LWPOLYLINE
  5
B65
330
1E
100
AcDbEntity
  8
7
100
AcDbPolyline
 90
        6
 70
     0
 43
0.0098425196850394
 10
23.48818897637795
 20
14.52362204724409
 10
23.48818897637795
 20
14.54921259842519
 10
23.48818897637795
 20
14.57283464566929
 10
23.48818897637795
 20
14.59251968503937
 10
23.48818897637795
 20
14.60531496062992
 10
23.48818897637795
 20
14.60925196850393
  0
LWPOLYLINE
  5
B6D
330
1E
100
AcDbEntity
  8
7
100
AcDbPolyline
 90
       10
 70
     0
 43
0.0098425196850394
 10
23.5265748031496
 20
14.46358267716535
 10
23.5265748031496
 20
14.46850393700787
 10
23.5265748031496
 20
14.48129921259842
 10
23.5265748031496
 20
14.5
 10
23.5265748031496
 20
14.52362204724409
 10
23.5265748031496
 20
14.54921259842519
 10
23.5265748031496
 20
14.57283464566929
 10
23.5265748031496
 20
14.59251968503937
 10
23.5265748031496
 20
14.60531496062992
 10
23.5265748031496
 20
14.60925196850393
  0
LINE
  5
B79
330
1E
100
AcDbEntity
  8
7
100
AcDbLine
 10
24.12795275590551
 20
14.53346456692913
 30
0.0
 11
24.13484251968504
 21
14.53346456692913
 31
0.0
  0
LINE
  5
B7A
330
1E
100
AcDbEntity
  8
7
100
AcDbLine
 10
24.13484251968504
 20
14.48818897637795
 30
0.0
 11
24.06299212598425
 21
14.48818897637795
 31
0.0
  0
LINE
  5
B7B
330
1E
100
AcDbEntity
  8
7
100
AcDbLine
 10
24.13484251968504
 20
14.5
 30
0.0
 11
24.06299212598425
 21
14.5
 31
0.0
  0
LINE
  5
B7C
330
1E
100
AcDbEntity
  8
7
100
AcDbLine
 10
24.12893700787401
 20
14.60334645669291
 30
0.0
 11
24.13484251968504
 21
14.60334645669291
 31
0.0
  0
LINE
  5
B7D
330
1E
100
AcDbEntity
  8
7
100
AcDbLine
 10
24.13484251968504
 20
14.58562992125984
 30
0.0
 11
24.13484251968504
 21
14.58464566929134
 31
0.0
  0
LWPOLYLINE
  5
B7E
330
1E
100
AcDbEntity
  8
7
100
AcDbPolyline
 90
        3
 70
     0
 43
0.0098425196850394
 10
24.13484251968504
 20
14.55610236220472
 10
24.13484251968504
 20
14.55511811023622
 10
24.13484251968504
 20
14.55314960629921
  0
LINE
  5
B83
330
1E
100
AcDbEntity
  8
7
100
AcDbLine
 10
24.13484251968504
 20
14.54035433070866
 30
0.0
 11
24.13188976377953
 21
14.53248031496062
 31
0.0
  0
LWPOLYLINE
  5
B84
330
1E
100
AcDbEntity
  8
7
100
AcDbPolyline
 90
        4
 70
     0
 43
0.0098425196850394
 10
24.13484251968504
 20
14.54035433070866
 10
24.13484251968504
 20
14.54429133858267
 10
24.13484251968504
 20
14.5511811023622
 10
24.13484251968504
 20
14.55314960629921
  0
LINE
  5
B8A
330
1E
100
AcDbEntity
  8
7
100
AcDbLine
 10
24.13484251968504
 20
14.58759842519685
 30
0.0
 11
24.13484251968504
 21
14.58562992125984
 31
0.0
  0
LINE
  5
B8B
330
1E
100
AcDbEntity
  8
7
100
AcDbLine
 10
24.13484251968504
 20
14.58464566929134
 30
0.0
 11
24.13484251968504
 21
14.58267716535432
 31
0.0
  0
LWPOLYLINE
  5
B8C
330
1E
100
AcDbEntity
  8
7
100
AcDbPolyline
 90
        6
 70
     0
 43
0.0098425196850394
 10
3.912401574803149
 20
15.1761811023622
 10
3.93503937007874
 20
15.18011811023622
 10
3.953740157480314
 20
15.19192913385826
 10
3.96751968503937
 20
15.21062992125984
 10
3.974409448818897
 20
15.23228346456693
 10
3.972440944881889
 20
15.25492125984252
  0
LWPOLYLINE
  5
B94
330
1E
100
AcDbEntity
  8
7
100
AcDbPolyline
 90
       13
 70
     0
 43
0.0098425196850394
 10
3.972440944881889
 20
15.25492125984252
 10
3.961614173228346
 20
15.2755905511811
 10
3.944881889763779
 20
15.29133858267716
 10
3.924212598425196
 20
15.29921259842519
 10
3.900590551181102
 20
15.29921259842519
 10
3.879921259842519
 20
15.29133858267716
 10
3.863188976377952
 20
15.2755905511811
 10
3.852362204724409
 20
15.25492125984252
 10
3.850393700787401
 20
15.23228346456693
 10
3.857283464566929
 20
15.21062992125984
 10
3.871062992125984
 20
15.19192913385826
 10
3.889763779527558
 20
15.18011811023622
 10
3.912401574803149
 20
15.1761811023622
  0
LWPOLYLINE
  5
BA3
330
1E
100
AcDbEntity
  8
7
100
AcDbPolyline
 90
        3
 70
     0
 43
0.0098425196850394
 10
4.075787401574802
 20
15.17125984251968
 10
4.075787401574802
 20
15.10728346456692
 10
5.174212598425196
 20
15.10728346456692
  0
LINE
  5
BA8
330
1E
100
AcDbEntity
  8
7
100
AcDbLine
 10
4.075787401574802
 20
15.10728346456692
 30
0.0
 11
4.044291338582676
 21
15.10728346456692
 31
0.0
  0
LINE
  5
BA9
330
1E
100
AcDbEntity
  8
7
100
AcDbLine
 10
3.980314960629921
 20
15.10728346456692
 30
0.0
 11
3.912401574803149
 21
15.10728346456692
 31
0.0
  0
LINE
  5
BAA
330
1E
100
AcDbEntity
  8
7
100
AcDbLine
 10
5.174212598425196
 20
15.17125984251968
 30
0.0
 11
5.174212598425196
 21
15.10728346456692
 31
0.0
  0
LWPOLYLINE
  5
BAB
330
1E
100
AcDbEntity
  8
7
100
AcDbPolyline
 90
        3
 70
     0
 43
0.0098425196850394
 10
5.174212598425196
 20
15.17125984251968
 10
4.075787401574802
 20
15.17125984251968
 10
4.044291338582676
 20
15.17125984251968
  0
LINE
  5
BB0
330
1E
100
AcDbEntity
  8
7
100
AcDbLine
 10
3.980314960629921
 20
15.17125984251968
 30
0.0
 11
3.912401574803149
 21
15.17125984251968
 31
0.0
  0
LWPOLYLINE
  5
BB1
330
1E
100
AcDbEntity
  8
7
100
AcDbPolyline
 90
        3
 70
     0
 43
0.0098425196850394
 10
3.978346456692913
 20
15.2263779527559
 10
3.979330708661417
 20
15.23228346456693
 10
3.979330708661417
 20
15.23818897637795
  0
LINE
  5
BB6
330
1E
100
AcDbEntity
  8
7
100
AcDbLine
 10
3.979330708661417
 20
15.22736220472441
 30
0.0
 11
3.980314960629921
 21
15.2263779527559
 31
0.0
  0
LWPOLYLINE
  5
BB7
330
1E
100
AcDbEntity
  8
7
100
AcDbPolyline
 90
        4
 70
     0
 43
0.0098425196850394
 10
5.032480314960629
 20
15.03248031496062
 10
5.028543307086613
 20
15.03248031496062
 10
5.016732283464566
 20
15.03248031496062
 10
4.998031496062991
 20
15.03248031496062
  0
LWPOLYLINE
  5
BBD
330
1E
100
AcDbEntity
  8
7
100
AcDbPolyline
 90
       11
 70
     0
 43
0.0098425196850394
 10
4.998031496062991
 20
15.03248031496062
 10
4.972440944881888
 20
15.03248031496062
 10
4.943897637795275
 20
15.03248031496062
 10
4.911417322834645
 20
15.03248031496062
 10
4.877952755905511
 20
15.03248031496062
 10
4.845472440944881
 20
15.03248031496062
 10
4.816929133858267
 20
15.03248031496062
 10
4.791338582677164
 20
15.03248031496062
 10
4.772637795275589
 20
15.03248031496062
 10
4.760826771653542
 20
15.03248031496062
 10
4.756889763779526
 20
15.03248031496062
  0
LINE
  5
BCA
330
1E
100
AcDbEntity
  8
7
100
AcDbLine
 10
4.044291338582676
 20
15.0757874015748
 30
0.0
 11
4.044291338582676
 21
15.23818897637795
 31
0.0
  0
LINE
  5
BCB
330
1E
100
AcDbEntity
  8
7
100
AcDbLine
 10
4.044291338582676
 20
13.9763779527559
 30
0.0
 11
4.044291338582676
 21
15.0757874015748
 31
0.0
  0
LINE
  5
BCC
330
1E
100
AcDbEntity
  8
7
100
AcDbLine
 10
3.980314960629921
 20
13.9763779527559
 30
0.0
 11
4.044291338582676
 21
13.9763779527559
 31
0.0
  0
LINE
  5
BCD
330
1E
100
AcDbEntity
  8
7
100
AcDbLine
 10
3.980314960629921
 20
15.0757874015748
 30
0.0
 11
4.044291338582676
 21
15.0757874015748
 31
0.0
  0
LINE
  5
BCE
330
1E
100
AcDbEntity
  8
7
100
AcDbLine
 10
3.980314960629921
 20
15.0757874015748
 30
0.0
 11
3.980314960629921
 21
13.9763779527559
 31
0.0
  0
LWPOLYLINE
  5
BCF
330
1E
100
AcDbEntity
  8
7
100
AcDbPolyline
 90
        3
 70
     0
 43
0.0098425196850394
 10
3.980314960629921
 20
15.0757874015748
 10
3.980314960629921
 20
15.23818897637795
 10
4.044291338582676
 20
15.23818897637795
  0
LWPOLYLINE
  5
BD4
330
1E
100
AcDbEntity
  8
7
100
AcDbPolyline
 90
       14
 70
     0
 43
0.0098425196850394
 10
4.043307086614173
 20
15.23818897637795
 10
4.039370078740157
 20
15.27066929133858
 10
4.02755905511811
 20
15.3001968503937
 10
4.008858267716535
 20
15.3267716535433
 10
3.984251968503937
 20
15.34744094488188
 10
3.954724409448818
 20
15.36220472440944
 10
3.923228346456692
 20
15.36909448818897
 10
3.890748031496062
 20
15.36712598425197
 10
3.86023622047244
 20
15.35826771653543
 10
3.831692913385826
 20
15.34153543307086
 10
3.809055118110236
 20
15.31889763779527
 10
3.792322834645669
 20
15.29035433070866
 10
3.783464566929133
 20
15.25984251968504
 10
3.781496062992125
 20
15.22736220472441
  0
LWPOLYLINE
  5
BE4
330
1E
100
AcDbEntity
  8
7
100
AcDbPolyline
 90
        7
 70
     0
 43
0.0098425196850394
 10
3.781496062992125
 20
15.22736220472441
 10
3.788385826771653
 20
15.19586614173228
 10
3.803149606299212
 20
15.16633858267716
 10
3.823818897637795
 20
15.14173228346456
 10
3.850393700787401
 20
15.12303149606299
 10
3.879921259842519
 20
15.11122047244094
 10
3.912401574803149
 20
15.10728346456692
  0
LINE
  5
BED
330
1E
100
AcDbEntity
  8
7
100
AcDbLine
 10
3.912401574803149
 20
15.10728346456692
 30
0.0
 11
3.912401574803149
 21
15.17125984251968
 31
0.0
  0
LWPOLYLINE
  5
BEE
330
1E
100
AcDbEntity
  8
7
100
AcDbPolyline
 90
        4
 70
     0
 43
0.0098425196850394
 10
3.979330708661417
 20
15.23818897637795
 10
3.975393700787401
 20
15.26181102362204
 10
3.96259842519685
 20
15.28248031496063
 10
3.943897637795275
 20
15.29724409448818
  0
LWPOLYLINE
  5
BF4
330
1E
100
AcDbEntity
  8
7
100
AcDbPolyline
 90
       11
 70
     0
 43
0.0098425196850394
 10
3.943897637795275
 20
15.29724409448818
 10
3.920275590551181
 20
15.30511811023622
 10
3.896653543307086
 20
15.30314960629921
 10
3.874015748031495
 20
15.29330708661417
 10
3.857283464566929
 20
15.2765748031496
 10
3.847440944881889
 20
15.25393700787401
 10
3.845472440944881
 20
15.23031496062992
 10
3.853346456692913
 20
15.20669291338582
 10
3.868110236220472
 20
15.18799212598425
 10
3.888779527559055
 20
15.1751968503937
 10
3.912401574803149
 20
15.17125984251968
  0
LINE
  5
C01
330
1E
100
AcDbEntity
  8
7
100
AcDbLine
 10
23.89468503937008
 20
15.17125984251968
 30
0.0
 11
22.92224409448818
 21
15.17125984251968
 31
0.0
  0
LINE
  5
C02
330
1E
100
AcDbEntity
  8
7
100
AcDbLine
 10
23.89468503937008
 20
15.10728346456692
 30
0.0
 11
23.89468503937008
 21
15.17125984251968
 31
0.0
  0
LINE
  5
C03
330
1E
100
AcDbEntity
  8
7
100
AcDbLine
 10
22.92224409448818
 20
15.10728346456692
 30
0.0
 11
22.92224409448818
 21
15.17125984251968
 31
0.0
  0
LINE
  5
C04
330
1E
100
AcDbEntity
  8
7
100
AcDbLine
 10
22.92224409448818
 20
15.10728346456692
 30
0.0
 11
23.89468503937008
 21
15.10728346456692
 31
0.0
  0
LWPOLYLINE
  5
C05
330
1E
100
AcDbEntity
  8
7
100
AcDbPolyline
 90
        4
 70
     0
 43
0.0098425196850394
 10
23.92421259842519
 20
15.07775590551181
 10
23.92027559055118
 20
15.09251968503937
 10
23.90944881889763
 20
15.10334645669291
 10
23.89468503937008
 20
15.10728346456692
  0
LINE
  5
C0B
330
1E
100
AcDbEntity
  8
7
100
AcDbLine
 10
23.9251968503937
 20
15.07775590551181
 30
0.0
 11
23.98917322834646
 21
15.07775590551181
 31
0.0
  0
LWPOLYLINE
  5
C0C
330
1E
100
AcDbEntity
  8
7
100
AcDbPolyline
 90
        6
 70
     0
 43
0.0098425196850394
 10
23.98818897637795
 20
15.07775590551181
 10
23.98326771653543
 20
15.10629921259842
 10
23.97047244094488
 20
15.13287401574803
 10
23.94980314960629
 20
15.15354330708661
 10
23.92322834645669
 20
15.16633858267716
 10
23.89468503937008
 20
15.17125984251968
  0
LWPOLYLINE
  5
C14
330
1E
100
AcDbEntity
  8
7
100
AcDbPolyline
 90
        3
 70
     0
 43
0.0098425196850394
 10
23.9251968503937
 20
15.07775590551181
 10
23.9251968503937
 20
14.25787401574803
 10
23.98917322834646
 20
14.25787401574803
  0
LINE
  5
C19
330
1E
100
AcDbEntity
  8
7
100
AcDbLine
 10
23.98917322834646
 20
15.07775590551181
 30
0.0
 11
23.98917322834646
 21
14.25787401574803
 31
0.0
  0
LWPOLYLINE
  5
C1A
330
1E
100
AcDbEntity
  8
7
100
AcDbPolyline
 90
       14
 70
     0
 43
0.0098425196850394
 10
23.34055118110236
 20
15.03248031496062
 10
23.33562992125984
 20
15.03248031496062
 10
23.32480314960629
 20
15.03248031496062
 10
23.30511811023622
 20
15.03248031496062
 10
23.28051181102362
 20
15.03248031496062
 10
23.2509842519685
 20
15.03248031496062
 10
23.21948818897638
 20
15.03248031496062
 10
23.18602362204724
 20
15.03248031496062
 10
23.15354330708661
 20
15.03248031496062
 10
23.12401574803149
 20
15.03248031496062
 10
23.0994094488189
 20
15.03248031496062
 10
23.08070866141732
 20
15.03248031496062
 10
23.06889763779528
 20
15.03248031496062
 10
23.06496062992125
 20
15.03248031496062
  0
LINE
  5
C2A
330
1E
100
AcDbEntity
  8
7
100
AcDbLine
 10
23.78838582677165
 20
9.183070866141731
 30
0.0
 11
4.181102362204724
 21
9.183070866141731
 31
0.0
  0
LINE
  5
C2B
330
1E
100
AcDbEntity
  8
7
100
AcDbLine
 10
4.181102362204724
 20
9.10531496062992
 30
0.0
 11
23.78838582677165
 21
9.10531496062992
 31
0.0
  0
LWPOLYLINE
  5
C2C
330
1E
100
AcDbEntity
  8
7
100
AcDbPolyline
 90
        7
 70
     0
 43
0.0098425196850394
 10
23.78838582677165
 20
9.106299212598425
 10
23.82381889763779
 20
9.111220472440944
 10
23.85629921259842
 20
9.125
 10
23.88484251968504
 20
9.146653543307087
 10
23.90649606299212
 20
9.174212598425196
 10
23.92027559055118
 20
9.207677165354331
 10
23.9251968503937
 20
9.243110236220472
  0
LWPOLYLINE
  5
C35
330
1E
100
AcDbEntity
  8
7
100
AcDbPolyline
 90
        5
 70
     0
 43
0.0098425196850394
 10
23.78838582677165
 20
9.184055118110235
 10
23.81102362204724
 20
9.188976377952755
 10
23.82972440944882
 20
9.201771653543307
 10
23.84251968503936
 20
9.220472440944881
 10
23.84744094488189
 20
9.243110236220472
  0
LINE
  5
C3C
330
1E
100
AcDbEntity
  8
7
100
AcDbLine
 10
23.9251968503937
 20
9.243110236220472
 30
0.0
 11
23.9251968503937
 21
15.00787401574803
 31
0.0
  0
LWPOLYLINE
  5
C3D
330
1E
100
AcDbEntity
  8
7
100
AcDbPolyline
 90
        5
 70
     0
 43
0.0098425196850394
 10
23.84842519685039
 20
9.243110236220472
 10
23.84842519685039
 20
15.00787401574803
 10
23.84842519685039
 20
15.03051181102362
 10
23.84842519685039
 20
15.0501968503937
 10
23.84842519685039
 20
15.06299212598425
  0
LWPOLYLINE
  5
C44
330
1E
100
AcDbEntity
  8
7
100
AcDbPolyline
 90
        3
 70
     0
 43
0.0098425196850394
 10
23.84842519685039
 20
15.06299212598425
 10
23.84842519685039
 20
15.06791338582677
 10
23.9251968503937
 20
15.06791338582677
  0
LWPOLYLINE
  5
C49
330
1E
100
AcDbEntity
  8
7
100
AcDbPolyline
 90
        7
 70
     0
 43
0.0098425196850394
 10
4.044291338582676
 20
9.243110236220472
 10
4.049212598425196
 20
9.207677165354331
 10
4.062992125984251
 20
9.1751968503937
 10
4.084645669291337
 20
9.146653543307087
 10
4.112204724409448
 20
9.125
 10
4.145669291338582
 20
9.111220472440944
 10
4.181102362204724
 20
9.106299212598425
  0
LINE
  5
C52
330
1E
100
AcDbEntity
  8
7
100
AcDbLine
 10
4.122047244094487
 20
9.243110236220472
 30
0.0
 11
4.126968503937007
 21
9.220472440944881
 31
0.0
  0
LWPOLYLINE
  5
C53
330
1E
100
AcDbEntity
  8
7
100
AcDbPolyline
 90
        4
 70
     0
 43
0.0098425196850394
 10
4.126968503937007
 20
9.220472440944881
 10
4.139763779527558
 20
9.201771653543307
 10
4.158464566929133
 20
9.188976377952755
 10
4.181102362204724
 20
9.184055118110235
  0
LINE
  5
C59
330
1E
100
AcDbEntity
  8
7
100
AcDbLine
 10
4.044291338582676
 20
9.243110236220472
 30
0.0
 11
4.044291338582676
 21
15.00787401574803
 31
0.0
  0
LWPOLYLINE
  5
C5A
330
1E
100
AcDbEntity
  8
7
100
AcDbPolyline
 90
        5
 70
     0
 43
0.0098425196850394
 10
4.121062992125983
 20
15.06791338582677
 10
4.121062992125983
 20
15.06299212598425
 10
4.121062992125983
 20
15.0501968503937
 10
4.121062992125983
 20
15.03051181102362
 10
4.121062992125983
 20
15.00787401574803
  0
LINE
  5
C61
330
1E
100
AcDbEntity
  8
7
100
AcDbLine
 10
4.121062992125983
 20
9.243110236220472
 30
0.0
 11
4.121062992125983
 21
15.00787401574803
 31
0.0
  0
LINE
  5
C62
330
1E
100
AcDbEntity
  8
7
100
AcDbLine
 10
4.044291338582676
 20
15.06791338582677
 30
0.0
 11
4.121062992125983
 21
15.06791338582677
 31
0.0
  0
LWPOLYLINE
  5
C63
330
1E
100
AcDbEntity
  8
7
100
AcDbPolyline
 90
        3
 70
     0
 43
0.0098425196850394
 10
8.159448818897637
 20
9.184055118110235
 10
8.182086614173227
 20
9.188976377952755
 10
8.200787401574801
 20
9.201771653543307
  0
LINE
  5
C68
330
1E
100
AcDbEntity
  8
7
100
AcDbLine
 10
8.219488188976377
 20
9.183070866141731
 30
0.0
 11
8.201771653543307
 21
9.199803149606299
 31
0.0
  0
LINE
  5
C69
330
1E
100
AcDbEntity
  8
7
100
AcDbLine
 10
8.293307086614172
 20
9.183070866141731
 30
0.0
 11
8.407480314960629
 21
9.297244094488188
 31
0.0
  0
LINE
  5
C6A
330
1E
100
AcDbEntity
  8
7
100
AcDbLine
 10
8.407480314960629
 20
9.297244094488188
 30
0.0
 11
8.352362204724409
 21
9.351377952755905
 31
0.0
  0
LINE
  5
C6B
330
1E
100
AcDbEntity
  8
7
100
AcDbLine
 10
8.201771653543307
 20
9.199803149606299
 30
0.0
 11
8.352362204724409
 21
9.351377952755905
 31
0.0
  0
LINE
  5
C6C
330
1E
100
AcDbEntity
  8
7
100
AcDbLine
 10
9.431102362204724
 20
9.199803149606299
 30
0.0
 11
9.413385826771653
 21
9.183070866141731
 31
0.0
  0
LWPOLYLINE
  5
C6D
330
1E
100
AcDbEntity
  8
7
100
AcDbPolyline
 90
        3
 70
     0
 43
0.0098425196850394
 10
9.432086614173227
 20
9.201771653543307
 10
9.450787401574801
 20
9.188976377952755
 10
9.473425196850392
 20
9.184055118110235
  0
LINE
  5
C72
330
1E
100
AcDbEntity
  8
7
100
AcDbLine
 10
9.339566929133857
 20
9.183070866141731
 30
0.0
 11
9.225393700787401
 21
9.297244094488188
 31
0.0
  0
LWPOLYLINE
  5
C73
330
1E
100
AcDbEntity
  8
7
100
AcDbPolyline
 90
        3
 70
     0
 43
0.0098425196850394
 10
9.431102362204724
 20
9.199803149606299
 10
9.279527559055116
 20
9.351377952755905
 10
9.225393700787401
 20
9.297244094488188
  0
LWPOLYLINE
  5
C78
330
1E
100
AcDbEntity
  8
7
100
AcDbPolyline
 90
        3
 70
     0
 43
0.0098425196850394
 10
8.421259842519685
 20
9.302165354330709
 10
8.413385826771653
 20
9.3001968503937
 10
8.407480314960629
 20
9.296259842519685
  0
LINE
  5
C7D
330
1E
100
AcDbEntity
  8
7
100
AcDbLine
 10
8.421259842519685
 20
9.303149606299212
 30
0.0
 11
8.421259842519685
 21
9.37992125984252
 31
0.0
  0
LWPOLYLINE
  5
C7E
330
1E
100
AcDbEntity
  8
7
100
AcDbPolyline
 90
        3
 70
     0
 43
0.0098425196850394
 10
8.421259842519685
 20
9.378937007874014
 10
8.383858267716535
 20
9.372047244094488
 10
8.353346456692912
 20
9.350393700787401
  0
LWPOLYLINE
  5
C83
330
1E
100
AcDbEntity
  8
7
100
AcDbPolyline
 90
        3
 70
     0
 43
0.0098425196850394
 10
4.122047244094487
 20
12.07480314960629
 10
4.126968503937007
 20
12.05216535433071
 10
4.139763779527558
 20
12.03346456692913
  0
LINE
  5
C88
330
1E
100
AcDbEntity
  8
7
100
AcDbLine
 10
4.121062992125983
 20
12.01476377952755
 30
0.0
 11
4.138779527559054
 21
12.03248031496062
 31
0.0
  0
LWPOLYLINE
  5
C89
330
1E
100
AcDbEntity
  8
7
100
AcDbPolyline
 90
        3
 70
     0
 43
0.0098425196850394
 10
4.121062992125983
 20
11.94094488188976
 10
4.23523622047244
 20
11.8267716535433
 10
4.289370078740157
 20
11.88090551181102
  0
LINE
  5
C8E
330
1E
100
AcDbEntity
  8
7
100
AcDbLine
 10
4.138779527559054
 20
12.03248031496062
 30
0.0
 11
4.289370078740157
 21
11.88090551181102
 31
0.0
  0
LWPOLYLINE
  5
C8F
330
1E
100
AcDbEntity
  8
7
100
AcDbPolyline
 90
        3
 70
     0
 43
0.0098425196850394
 10
4.241141732283463
 20
11.81299212598425
 10
4.239173228346456
 20
11.82086614173228
 10
4.23523622047244
 20
11.8267716535433
  0
LINE
  5
C94
330
1E
100
AcDbEntity
  8
7
100
AcDbLine
 10
4.241141732283463
 20
11.81299212598425
 30
0.0
 11
4.317913385826771
 21
11.81299212598425
 31
0.0
  0
LWPOLYLINE
  5
C95
330
1E
100
AcDbEntity
  8
7
100
AcDbPolyline
 90
        3
 70
     0
 43
0.0098425196850394
 10
4.317913385826771
 20
11.81299212598425
 10
4.311023622047243
 20
11.8503937007874
 10
4.289370078740157
 20
11.88090551181102
  0
LINE
  5
C9A
330
1E
100
AcDbEntity
  8
7
100
AcDbLine
 10
4.138779527559054
 20
10.80314960629921
 30
0.0
 11
4.121062992125983
 21
10.82086614173228
 31
0.0
  0
LINE
  5
C9B
330
1E
100
AcDbEntity
  8
7
100
AcDbLine
 10
4.139763779527558
 20
10.80216535433071
 30
0.0
 11
4.126968503937007
 21
10.78346456692913
 31
0.0
  0
LINE
  5
C9C
330
1E
100
AcDbEntity
  8
7
100
AcDbLine
 10
4.126968503937007
 20
10.78346456692913
 30
0.0
 11
4.122047244094487
 21
10.76082677165354
 31
0.0
  0
LINE
  5
C9D
330
1E
100
AcDbEntity
  8
7
100
AcDbLine
 10
4.121062992125983
 20
10.89468503937007
 30
0.0
 11
4.23523622047244
 21
11.00885826771653
 31
0.0
  0
LWPOLYLINE
  5
C9E
330
1E
100
AcDbEntity
  8
7
100
AcDbPolyline
 90
        3
 70
     0
 43
0.0098425196850394
 10
4.138779527559054
 20
10.80314960629921
 10
4.289370078740157
 20
10.95374015748031
 10
4.23523622047244
 20
11.00885826771653
  0
LWPOLYLINE
  5
CA3
330
1E
100
AcDbEntity
  8
7
100
AcDbPolyline
 90
        3
 70
     0
 43
0.0098425196850394
 10
4.289370078740157
 20
10.95472440944881
 10
4.311023622047243
 20
10.98523622047244
 10
4.317913385826771
 20
11.02263779527559
  0
LINE
  5
CA8
330
1E
100
AcDbEntity
  8
7
100
AcDbLine
 10
4.317913385826771
 20
11.02263779527559
 30
0.0
 11
4.241141732283463
 21
11.02263779527559
 31
0.0
  0
LWPOLYLINE
  5
CA9
330
1E
100
AcDbEntity
  8
7
100
AcDbPolyline
 90
        3
 70
     0
 43
0.0098425196850394
 10
4.23523622047244
 20
11.00885826771653
 10
4.239173228346456
 20
11.01476377952755
 10
4.241141732283463
 20
11.02263779527559
  0
LINE
  5
CAE
330
1E
100
AcDbEntity
  8
7
100
AcDbLine
 10
4.317913385826771
 20
11.02263779527559
 30
0.0
 11
4.317913385826771
 21
11.81299212598425
 31
0.0
  0
LINE
  5
CAF
330
1E
100
AcDbEntity
  8
7
100
AcDbLine
 10
4.241141732283463
 20
11.02263779527559
 30
0.0
 11
4.241141732283463
 21
11.81299212598425
 31
0.0
  0
LWPOLYLINE
  5
CB0
330
1E
100
AcDbEntity
  8
7
100
AcDbPolyline
 90
        3
 70
     0
 43
0.0098425196850394
 10
9.279527559055116
 20
9.350393700787401
 10
9.249015748031496
 20
9.372047244094488
 10
9.211614173228346
 20
9.378937007874014
  0
LINE
  5
CB5
330
1E
100
AcDbEntity
  8
7
100
AcDbLine
 10
9.211614173228346
 20
9.37992125984252
 30
0.0
 11
9.211614173228346
 21
9.303149606299212
 31
0.0
  0
LWPOLYLINE
  5
CB6
330
1E
100
AcDbEntity
  8
7
100
AcDbPolyline
 90
        3
 70
     0
 43
0.0098425196850394
 10
9.225393700787401
 20
9.296259842519685
 10
9.219488188976377
 20
9.3001968503937
 10
9.211614173228346
 20
9.302165354330709
  0
LINE
  5
CBB
330
1E
100
AcDbEntity
  8
7
100
AcDbLine
 10
9.211614173228346
 20
9.37992125984252
 30
0.0
 11
8.421259842519685
 21
9.37992125984252
 31
0.0
  0
LINE
  5
CBC
330
1E
100
AcDbEntity
  8
7
100
AcDbLine
 10
9.211614173228346
 20
9.303149606299212
 30
0.0
 11
8.421259842519685
 21
9.303149606299212
 31
0.0
  0
LINE
  5
CBD
330
1E
100
AcDbEntity
  8
7
100
AcDbLine
 10
23.9251968503937
 20
15.00787401574803
 30
0.0
 11
23.84842519685039
 21
15.00787401574803
 31
0.0
  0
LINE
  5
CBE
330
1E
100
AcDbEntity
  8
7
100
AcDbLine
 10
4.121062992125983
 20
15.00787401574803
 30
0.0
 11
4.044291338582676
 21
15.00787401574803
 31
0.0
  0
LWPOLYLINE
  5
CBF
330
1E
100
AcDbEntity
  8
7
100
AcDbPolyline
 90
        5
 70
     0
 43
0.0098425196850394
 10
4.195866141732283
 20
14.67421259842519
 10
4.195866141732283
 20
14.67027559055118
 10
4.195866141732283
 20
14.65846456692913
 10
4.195866141732283
 20
14.63976377952755
 10
4.195866141732283
 20
14.61515748031496
  0
LWPOLYLINE
  5
CC6
330
1E
100
AcDbEntity
  8
7
100
AcDbPolyline
 90
       10
 70
     0
 43
0.0098425196850394
 10
4.195866141732283
 20
14.61515748031496
 10
4.195866141732283
 20
14.58562992125984
 10
4.195866141732283
 20
14.55314960629921
 10
4.195866141732283
 20
14.51968503937007
 10
4.195866141732283
 20
14.48818897637795
 10
4.195866141732283
 20
14.45866141732283
 10
4.195866141732283
 20
14.43405511811023
 10
4.195866141732283
 20
14.41535433070866
 10
4.195866141732283
 20
14.40354330708661
 10
4.195866141732283
 20
14.39960629921259
  0
LWPOLYLINE
  5
CD2
330
1E
100
AcDbEntity
  8
7
100
AcDbPolyline
 90
        7
 70
     0
 43
0.0098425196850394
 10
23.77362204724409
 20
14.39960629921259
 10
23.77362204724409
 20
14.40354330708661
 10
23.77362204724409
 20
14.41535433070866
 10
23.77362204724409
 20
14.43405511811023
 10
23.77362204724409
 20
14.45866141732283
 10
23.77362204724409
 20
14.48818897637795
 10
23.77362204724409
 20
14.51968503937007
  0
LWPOLYLINE
  5
CDB
330
1E
100
AcDbEntity
  8
7
100
AcDbPolyline
 90
        8
 70
     0
 43
0.0098425196850394
 10
23.77362204724409
 20
14.51968503937007
 10
23.77362204724409
 20
14.55314960629921
 10
23.77362204724409
 20
14.58562992125984
 10
23.77362204724409
 20
14.61515748031496
 10
23.77362204724409
 20
14.63976377952755
 10
23.77362204724409
 20
14.65846456692913
 10
23.77362204724409
 20
14.67027559055118
 10
23.77362204724409
 20
14.67421259842519
  0
LWPOLYLINE
  5
CE5
330
1E
100
AcDbEntity
  8
7
100
AcDbPolyline
 90
        5
 70
     0
 43
0.0098425196850394
 10
37.79232283464566
 20
9.182086614173227
 10
37.66830708661418
 20
9.182086614173227
 10
37.79232283464566
 20
9.182086614173227
 10
37.66830708661418
 20
9.182086614173227
 10
37.79232283464566
 20
9.182086614173227
  0
LINE
  5
CEC
330
1E
100
AcDbEntity
  8
7
100
AcDbLine
 10
37.74311023622047
 20
9.182086614173227
 30
0.0
 11
37.79232283464566
 21
9.182086614173227
 31
0.0
  0
LWPOLYLINE
  5
CED
330
1E
100
AcDbEntity
  8
7
100
AcDbPolyline
 90
        8
 70
     0
 43
0.0098425196850394
 10
37.79232283464566
 20
9.182086614173227
 10
37.78051181102362
 20
9.182086614173227
 10
37.75590551181102
 20
9.182086614173227
 10
37.74311023622047
 20
9.182086614173227
 10
37.66830708661418
 20
9.182086614173227
 10
37.68011811023622
 20
9.182086614173227
 10
37.73129921259843
 20
9.182086614173227
 10
37.74311023622047
 20
9.182086614173227
  0
LINE
  5
CF7
330
1E
100
AcDbEntity
  8
7
100
AcDbLine
 10
37.66830708661418
 20
9.182086614173227
 30
0.0
 11
37.79232283464566
 21
9.182086614173227
 31
0.0
  0
LINE
  5
CF8
330
1E
100
AcDbEntity
  8
7
100
AcDbLine
 10
37.66830708661418
 20
9.182086614173227
 30
0.0
 11
37.79232283464566
 21
9.182086614173227
 31
0.0
  0
LINE
  5
CF9
330
1E
100
AcDbEntity
  8
7
100
AcDbLine
 10
37.78149606299212
 20
9.182086614173227
 30
0.0
 11
37.79232283464566
 21
9.182086614173227
 31
0.0
  0
LINE
  5
CFA
330
1E
100
AcDbEntity
  8
7
100
AcDbLine
 10
37.79232283464566
 20
9.182086614173227
 30
0.0
 11
37.66830708661418
 21
9.182086614173227
 31
0.0
  0
LWPOLYLINE
  5
CFB
330
1E
100
AcDbEntity
  8
7
100
AcDbPolyline
 90
        7
 70
     0
 43
0.0098425196850394
 10
37.54330708661417
 20
9.182086614173227
 10
37.60531496062991
 20
9.182086614173227
 10
37.54330708661417
 20
9.182086614173227
 10
37.60531496062991
 20
9.182086614173227
 10
37.54330708661417
 20
9.182086614173227
 10
37.60531496062991
 20
9.182086614173227
 10
37.54330708661417
 20
9.182086614173227
  0
LWPOLYLINE
  5
D04
330
1E
100
AcDbEntity
  8
7
100
AcDbPolyline
 90
        6
 70
     0
 43
0.0098425196850394
 10
37.54330708661417
 20
9.182086614173227
 10
37.55610236220472
 20
9.182086614173227
 10
37.59350393700787
 20
9.182086614173227
 10
37.60531496062991
 20
9.182086614173227
 10
37.54330708661417
 20
9.182086614173227
 10
37.60531496062991
 20
9.182086614173227
  0
LINE
  5
D0C
330
1E
100
AcDbEntity
  8
7
100
AcDbLine
 10
37.60531496062991
 20
9.182086614173227
 30
0.0
 11
37.54330708661417
 21
9.182086614173227
 31
0.0
  0
LWPOLYLINE
  5
D0D
330
1E
100
AcDbEntity
  8
7
100
AcDbPolyline
 90
        8
 70
     0
 43
0.0098425196850394
 10
37.54330708661417
 20
9.182086614173227
 10
37.60531496062991
 20
9.182086614173227
 10
37.54330708661417
 20
9.182086614173227
 10
37.60531496062991
 20
9.182086614173227
 10
37.55610236220472
 20
9.182086614173227
 10
37.54330708661417
 20
9.182086614173227
 10
37.55610236220472
 20
9.182086614173227
 10
37.60531496062991
 20
9.182086614173227
  0
LWPOLYLINE
  5
D17
330
1E
100
AcDbEntity
  8
7
100
AcDbPolyline
 90
        3
 70
     0
 43
0.0098425196850394
 10
37.5492125984252
 20
9.182086614173227
 10
37.54330708661417
 20
9.182086614173227
 10
37.5501968503937
 20
9.182086614173227
  0
LWPOLYLINE
  5
D1C
330
1E
100
AcDbEntity
  8
7
100
AcDbPolyline
 90
        7
 70
     0
 43
0.0098425196850394
 10
37.5501968503937
 20
9.182086614173227
 10
37.56889763779527
 20
9.182086614173227
 10
37.5748031496063
 20
9.182086614173227
 10
37.58070866141732
 20
9.182086614173227
 10
37.59940944881889
 20
9.182086614173227
 10
37.60531496062991
 20
9.182086614173227
 10
37.59940944881889
 20
9.182086614173227
  0
LWPOLYLINE
  5
D25
330
1E
100
AcDbEntity
  8
7
100
AcDbPolyline
 90
        3
 70
     0
 43
0.0098425196850394
 10
37.54330708661417
 20
9.182086614173227
 10
37.60531496062991
 20
9.182086614173227
 10
37.54330708661417
 20
9.182086614173227
  0
LWPOLYLINE
  5
D2A
330
1E
100
AcDbEntity
  8
7
100
AcDbPolyline
 90
        7
 70
     0
 43
0.0098425196850394
 10
37.43110236220472
 20
9.182086614173227
 10
37.4242125984252
 20
9.182086614173227
 10
37.41830708661417
 20
9.182086614173227
 10
37.4242125984252
 20
9.182086614173227
 10
37.43700787401575
 20
9.182086614173227
 10
37.46259842519685
 20
9.182086614173227
 10
37.47440944881889
 20
9.182086614173227
  0
LWPOLYLINE
  5
D33
330
1E
100
AcDbEntity
  8
7
100
AcDbPolyline
 90
        9
 70
     0
 43
0.0098425196850394
 10
37.47440944881889
 20
9.182086614173227
 10
37.48031496062992
 20
9.182086614173227
 10
37.47440944881889
 20
9.182086614173227
 10
37.46259842519685
 20
9.182086614173227
 10
37.43799212598425
 20
9.182086614173227
 10
37.4242125984252
 20
9.182086614173227
 10
37.41830708661417
 20
9.182086614173227
 10
37.43110236220472
 20
9.182086614173227
 10
37.41830708661417
 20
9.182086614173227
  0
LWPOLYLINE
  5
D3E
330
1E
100
AcDbEntity
  8
7
100
AcDbPolyline
 90
        6
 70
     0
 43
0.0098425196850394
 10
37.43110236220472
 20
9.182086614173227
 10
37.41830708661417
 20
9.182086614173227
 10
37.43110236220472
 20
9.182086614173227
 10
37.46850393700787
 20
9.182086614173227
 10
37.48031496062992
 20
9.182086614173227
 10
37.46850393700787
 20
9.182086614173227
  0
LINE
  5
D46
330
1E
100
AcDbEntity
  8
7
100
AcDbLine
 10
37.4242125984252
 20
9.182086614173227
 30
0.0
 11
37.47440944881889
 21
9.182086614173227
 31
0.0
  0
LINE
  5
D47
330
1E
100
AcDbEntity
  8
7
100
AcDbLine
 10
37.47440944881889
 20
9.182086614173227
 30
0.0
 11
37.4242125984252
 21
9.182086614173227
 31
0.0
  0
LINE
  5
D48
330
1E
100
AcDbEntity
  8
7
100
AcDbLine
 10
37.35925196850394
 20
15.37007874015747
 30
0.0
 11
36.8523622047244
 21
15.37007874015747
 31
0.0
  0
LINE
  5
D49
330
1E
100
AcDbEntity
  8
7
100
AcDbLine
 10
36.83070866141732
 20
15.37007874015747
 30
0.0
 11
36.32381889763779
 21
15.37007874015747
 31
0.0
  0
LINE
  5
D4A
330
1E
100
AcDbEntity
  8
7
100
AcDbLine
 10
37.88582677165354
 20
15.37007874015747
 30
0.0
 11
37.37893700787401
 21
15.37007874015747
 31
0.0
  0
LINE
  5
D4B
330
1E
100
AcDbEntity
  8
7
100
AcDbLine
 10
37.37893700787401
 20
15.3011811023622
 30
0.0
 11
37.35925196850394
 21
15.3011811023622
 31
0.0
  0
LINE
  5
D4C
330
1E
100
AcDbEntity
  8
7
100
AcDbLine
 10
36.8523622047244
 20
15.3011811023622
 30
0.0
 11
36.83070866141732
 21
15.3011811023622
 31
0.0
  0
LINE
  5
D4D
330
1E
100
AcDbEntity
  8
7
100
AcDbLine
 10
36.83070866141732
 20
15.1761811023622
 30
0.0
 11
37.37893700787401
 21
15.1761811023622
 31
0.0
  0
LWPOLYLINE
  5
D4E
330
1E
100
AcDbEntity
  8
7
100
AcDbPolyline
 90
        3
 70
     0
 43
0.0098425196850394
 10
37.35728346456693
 20
9.192913385826772
 10
37.72933070866141
 20
9.192913385826772
 10
37.35728346456693
 20
9.192913385826772
  0
LINE
  5
D53
330
1E
100
AcDbEntity
  8
7
100
AcDbLine
 10
37.73031496062992
 20
9.192913385826772
 30
0.0
 11
37.35728346456693
 21
9.192913385826772
 31
0.0
  0
LINE
  5
D54
330
1E
100
AcDbEntity
  8
7
100
AcDbLine
 10
37.6003937007874
 20
9.192913385826772
 30
0.0
 11
37.43405511811023
 21
9.192913385826772
 31
0.0
  0
LINE
  5
D55
330
1E
100
AcDbEntity
  8
7
100
AcDbLine
 10
37.43405511811023
 20
9.192913385826772
 30
0.0
 11
37.6003937007874
 21
9.192913385826772
 31
0.0
  0
LWPOLYLINE
  5
D56
330
1E
100
AcDbEntity
  8
7
100
AcDbPolyline
 90
       20
 70
     0
 43
0.0098425196850394
 10
37.49311023622047
 20
9.192913385826772
 10
37.49409448818898
 20
9.192913385826772
 10
37.49507874015748
 20
9.192913385826772
 10
37.49803149606299
 20
9.192913385826772
 10
37.49901574803149
 20
9.192913385826772
 10
37.5009842519685
 20
9.192913385826772
 10
37.50492125984251
 20
9.192913385826772
 10
37.50590551181102
 20
9.192913385826772
 10
37.50885826771653
 20
9.192913385826772
 10
37.51377952755905
 20
9.192913385826772
 10
37.51574803149607
 20
9.192913385826772
 10
37.51870078740157
 20
9.192913385826772
 10
37.5246062992126
 20
9.192913385826772
 10
37.52854330708661
 20
9.192913385826772
 10
37.53149606299212
 20
9.192913385826772
 10
37.53937007874015
 20
9.192913385826772
 10
37.54724409448819
 20
9.192913385826772
 10
37.55511811023622
 20
9.192913385826772
 10
37.55905511811024
 20
9.192913385826772
 10
37.56397637795275
 20
9.192913385826772
  0
LINE
  5
D6C
330
1E
100
AcDbEntity
  8
7
100
AcDbLine
 10
37.56397637795275
 20
9.192913385826772
 30
0.0
 11
37.66633858267716
 21
9.192913385826772
 31
0.0
  0
LWPOLYLINE
  5
D6D
330
1E
100
AcDbEntity
  8
7
100
AcDbPolyline
 90
       10
 70
     0
 43
0.0098425196850394
 10
37.66633858267716
 20
9.192913385826772
 10
37.66830708661418
 20
9.192913385826772
 10
37.67125984251968
 20
9.192913385826772
 10
37.67224409448819
 20
9.192913385826772
 10
37.67322834645669
 20
9.192913385826772
 10
37.6742125984252
 20
9.192913385826772
 10
37.6751968503937
 20
9.192913385826772
 10
37.6761811023622
 20
9.192913385826772
 10
37.41043307086614
 20
9.192913385826772
 10
37.49311023622047
 20
9.192913385826772
  0
LWPOLYLINE
  5
D79
330
1E
100
AcDbEntity
  8
7
100
AcDbPolyline
 90
       11
 70
     0
 43
0.0098425196850394
 10
37.59153543307086
 20
9.192913385826772
 10
37.58956692913386
 20
9.192913385826772
 10
37.58562992125984
 20
9.192913385826772
 10
37.58070866141732
 20
9.192913385826772
 10
37.5757874015748
 20
9.192913385826772
 10
37.57381889763779
 20
9.192913385826772
 10
37.57283464566929
 20
9.192913385826772
 10
37.57381889763779
 20
9.192913385826772
 10
37.5757874015748
 20
9.192913385826772
 10
37.57972440944882
 20
9.192913385826772
 10
37.58464566929134
 20
9.192913385826772
  0
LWPOLYLINE
  5
D86
330
1E
100
AcDbEntity
  8
7
100
AcDbPolyline
 90
       14
 70
     0
 43
0.0098425196850394
 10
37.58464566929134
 20
9.192913385826772
 10
37.59153543307086
 20
9.192913385826772
 10
37.59448818897638
 20
9.192913385826772
 10
37.58759842519685
 20
9.192913385826772
 10
37.58267716535433
 20
9.192913385826772
 10
37.57874015748031
 20
9.192913385826772
 10
37.57775590551181
 20
9.192913385826772
 10
37.57677165354331
 20
9.192913385826772
 10
37.57874015748031
 20
9.192913385826772
 10
37.58464566929134
 20
9.192913385826772
 10
37.58858267716535
 20
9.192913385826772
 10
37.59350393700787
 20
9.192913385826772
 10
37.59547244094488
 20
9.192913385826772
 10
37.59153543307086
 20
9.192913385826772
  0
LWPOLYLINE
  5
D96
330
1E
100
AcDbEntity
  8
7
100
AcDbPolyline
 90
        8
 70
     0
 43
0.0098425196850394
 10
37.6003937007874
 20
9.192913385826772
 10
37.60728346456693
 20
9.192913385826772
 10
37.61417322834645
 20
9.192913385826772
 10
37.62007874015748
 20
9.192913385826772
 10
37.6259842519685
 20
9.192913385826772
 10
37.62795275590551
 20
9.192913385826772
 10
37.63090551181102
 20
9.192913385826772
 10
37.63582677165354
 20
9.192913385826772
  0
LWPOLYLINE
  5
DA0
330
1E
100
AcDbEntity
  8
7
100
AcDbPolyline
 90
       15
 70
     0
 43
0.0098425196850394
 10
37.63582677165354
 20
9.192913385826772
 10
37.63779527559055
 20
9.192913385826772
 10
37.63976377952756
 20
9.192913385826772
 10
37.64271653543307
 20
9.192913385826772
 10
37.64566929133858
 20
9.192913385826772
 10
37.64862204724409
 20
9.192913385826772
 10
37.6496062992126
 20
9.192913385826772
 10
37.6505905511811
 20
9.192913385826772
 10
37.65157480314961
 20
9.192913385826772
 10
37.65255905511811
 20
9.192913385826772
 10
37.43405511811023
 20
9.192913385826772
 10
37.50492125984251
 20
9.192913385826772
 10
37.50590551181102
 20
9.192913385826772
 10
37.50688976377952
 20
9.192913385826772
 10
37.51082677165354
 20
9.192913385826772
  0
LWPOLYLINE
  5
DB1
330
1E
100
AcDbEntity
  8
7
100
AcDbPolyline
 90
        7
 70
     0
 43
0.0098425196850394
 10
37.58464566929134
 20
9.192913385826772
 10
37.58956692913386
 20
9.192913385826772
 10
37.59448818897638
 20
9.192913385826772
 10
37.59940944881889
 20
9.192913385826772
 10
37.60433070866141
 20
9.192913385826772
 10
37.60925196850394
 20
9.192913385826772
 10
37.61318897637795
 20
9.192913385826772
  0
LINE
  5
DBA
330
1E
100
AcDbEntity
  8
7
100
AcDbLine
 10
37.61318897637795
 20
9.192913385826772
 30
0.0
 11
37.66240157480314
 21
9.192913385826772
 31
0.0
  0
LWPOLYLINE
  5
DBB
330
1E
100
AcDbEntity
  8
7
100
AcDbPolyline
 90
       20
 70
     0
 43
0.0098425196850394
 10
37.65649606299212
 20
9.192913385826772
 10
37.65452755905512
 20
9.192913385826772
 10
37.65157480314961
 20
9.192913385826772
 10
37.6496062992126
 20
9.192913385826772
 10
37.64665354330709
 20
9.192913385826772
 10
37.64370078740157
 20
9.192913385826772
 10
37.63976377952756
 20
9.192913385826772
 10
37.63681102362204
 20
9.192913385826772
 10
37.63287401574803
 20
9.192913385826772
 10
37.62893700787401
 20
9.192913385826772
 10
37.625
 20
9.192913385826772
 10
37.62007874015748
 20
9.192913385826772
 10
37.61614173228347
 20
9.192913385826772
 10
37.61122047244095
 20
9.192913385826772
 10
37.60629921259843
 20
9.192913385826772
 10
37.60236220472441
 20
9.192913385826772
 10
37.59744094488189
 20
9.192913385826772
 10
37.59251968503937
 20
9.192913385826772
 10
37.58759842519685
 20
9.192913385826772
 10
37.58267716535433
 20
9.192913385826772
  0
LWPOLYLINE
  5
DD1
330
1E
100
AcDbEntity
  8
7
100
AcDbPolyline
 90
       20
 70
     0
 43
0.0098425196850394
 10
37.58267716535433
 20
9.192913385826772
 10
37.57775590551181
 20
9.192913385826772
 10
37.57283464566929
 20
9.192913385826772
 10
37.56791338582677
 20
9.192913385826772
 10
37.56299212598425
 20
9.192913385826772
 10
37.55807086614173
 20
9.192913385826772
 10
37.55413385826772
 20
9.192913385826772
 10
37.5492125984252
 20
9.192913385826772
 10
37.54527559055118
 20
9.192913385826772
 10
37.54133858267716
 20
9.192913385826772
 10
37.53740157480315
 20
9.192913385826772
 10
37.53346456692913
 20
9.192913385826772
 10
37.52952755905512
 20
9.192913385826772
 10
37.5265748031496
 20
9.192913385826772
 10
37.52362204724409
 20
9.192913385826772
 10
37.52066929133858
 20
9.192913385826772
 10
37.51771653543307
 20
9.192913385826772
 10
37.51574803149607
 20
9.192913385826772
 10
37.51377952755905
 20
9.192913385826772
 10
37.51181102362204
 20
9.192913385826772
  0
LINE
  5
DE7
330
1E
100
AcDbEntity
  8
7
100
AcDbLine
 10
37.50787401574803
 20
9.192913385826772
 30
0.0
 11
37.56988188976377
 21
9.192913385826772
 31
0.0
  0
LWPOLYLINE
  5
DE8
330
1E
100
AcDbEntity
  8
7
100
AcDbPolyline
 90
        4
 70
     0
 43
0.0098425196850394
 10
37.56988188976377
 20
9.192913385826772
 10
37.5748031496063
 20
9.192913385826772
 10
37.57972440944882
 20
9.192913385826772
 10
37.58464566929134
 20
9.192913385826772
  0
LINE
  5
DEE
330
1E
100
AcDbEntity
  8
7
100
AcDbLine
 10
37.6003937007874
 20
9.192913385826772
 30
0.0
 11
37.48917322834646
 21
9.192913385826772
 31
0.0
  0
LWPOLYLINE
  5
DEF
330
1E
100
AcDbEntity
  8
7
100
AcDbPolyline
 90
        4
 70
     0
 43
0.0098425196850394
 10
37.51082677165354
 20
9.192913385826772
 10
37.43405511811023
 20
9.192913385826772
 10
37.46456692913386
 20
9.192913385826772
 10
37.43405511811023
 20
9.192913385826772
  0
LWPOLYLINE
  5
DF5
330
1E
100
AcDbEntity
  8
7
100
AcDbPolyline
 90
        8
 70
     0
 43
0.0098425196850394
 10
37.626968503937
 20
9.192913385826772
 10
37.62204724409448
 20
9.192913385826772
 10
37.61909448818897
 20
9.192913385826772
 10
37.61515748031496
 20
9.192913385826772
 10
37.61318897637795
 20
9.192913385826772
 10
37.61417322834645
 20
9.192913385826772
 10
37.61515748031496
 20
9.192913385826772
 10
37.61811023622047
 20
9.192913385826772
  0
LWPOLYLINE
  5
DFF
330
1E
100
AcDbEntity
  8
7
100
AcDbPolyline
 90
       14
 70
     0
 43
0.0098425196850394
 10
37.61811023622047
 20
9.192913385826772
 10
37.62204724409448
 20
9.192913385826772
 10
37.626968503937
 20
9.192913385826772
 10
37.62992125984252
 20
9.192913385826772
 10
37.625
 20
9.192913385826772
 10
37.62204724409448
 20
9.192913385826772
 10
37.61909448818897
 20
9.192913385826772
 10
37.61712598425197
 20
9.192913385826772
 10
37.61614173228347
 20
9.192913385826772
 10
37.61909448818897
 20
9.192913385826772
 10
37.62204724409448
 20
9.192913385826772
 10
37.6259842519685
 20
9.192913385826772
 10
37.62992125984252
 20
9.192913385826772
 10
37.626968503937
 20
9.192913385826772
  0
LWPOLYLINE
  5
E0F
330
1E
100
AcDbEntity
  8
7
100
AcDbPolyline
 90
        5
 70
     0
 43
0.0098425196850394
 10
37.65944881889764
 20
9.192913385826772
 10
37.64468503937008
 20
9.192913385826772
 10
37.62893700787401
 20
9.192913385826772
 10
37.61909448818897
 20
9.192913385826772
 10
37.60826771653543
 20
9.192913385826772
  0
LWPOLYLINE
  5
E16
330
1E
100
AcDbEntity
  8
7
100
AcDbPolyline
 90
       18
 70
     0
 43
0.0098425196850394
 10
37.60826771653543
 20
9.192913385826772
 10
37.59645669291338
 20
9.192913385826772
 10
37.58464566929134
 20
9.192913385826772
 10
37.57283464566929
 20
9.192913385826772
 10
37.55905511811024
 20
9.192913385826772
 10
37.54625984251969
 20
9.192913385826772
 10
37.53543307086614
 20
9.192913385826772
 10
37.52263779527559
 20
9.192913385826772
 10
37.51082677165354
 20
9.192913385826772
 10
37.50885826771653
 20
9.192913385826772
 10
37.52066929133858
 20
9.192913385826772
 10
37.53248031496063
 20
9.192913385826772
 10
37.54625984251969
 20
9.192913385826772
 10
37.55905511811024
 20
9.192913385826772
 10
37.57283464566929
 20
9.192913385826772
 10
37.58464566929134
 20
9.192913385826772
 10
37.59744094488189
 20
9.192913385826772
 10
37.60925196850394
 20
9.192913385826772
  0
LWPOLYLINE
  5
E2A
330
1E
100
AcDbEntity
  8
7
100
AcDbPolyline
 90
        6
 70
     0
 43
0.0098425196850394
 10
37.60925196850394
 20
9.192913385826772
 10
37.62007874015748
 20
9.192913385826772
 10
37.62992125984252
 20
9.192913385826772
 10
37.64665354330709
 20
9.192913385826772
 10
37.66141732283464
 20
9.192913385826772
 10
37.65944881889764
 20
9.192913385826772
  0
LWPOLYLINE
  5
E32
330
1E
100
AcDbEntity
  8
7
100
AcDbPolyline
 90
       12
 70
     0
 43
0.0098425196850394
 10
37.6003937007874
 20
9.192913385826772
 10
37.46948818897637
 20
9.192913385826772
 10
37.46259842519685
 20
9.192913385826772
 10
37.45767716535433
 20
9.192913385826772
 10
37.45374015748032
 20
9.192913385826772
 10
37.4498031496063
 20
9.192913385826772
 10
37.44783464566928
 20
9.192913385826772
 10
37.44685039370078
 20
9.192913385826772
 10
37.44389763779527
 20
9.192913385826772
 10
37.44094488188976
 20
9.192913385826772
 10
37.43897637795275
 20
9.192913385826772
 10
37.43700787401575
 20
9.192913385826772
  0
LINE
  5
E40
330
1E
100
AcDbEntity
  8
7
100
AcDbLine
 10
37.43405511811023
 20
9.192913385826772
 30
0.0
 11
37.6003937007874
 21
9.192913385826772
 31
0.0
  0
LWPOLYLINE
  5
E41
330
1E
100
AcDbEntity
  8
7
100
AcDbPolyline
 90
       11
 70
     0
 43
0.0098425196850394
 10
37.47933070866141
 20
9.192913385826772
 10
37.4753937007874
 20
9.192913385826772
 10
37.47342519685039
 20
9.192913385826772
 10
37.47244094488189
 20
9.192913385826772
 10
37.47145669291338
 20
9.192913385826772
 10
37.47244094488189
 20
9.192913385826772
 10
37.47342519685039
 20
9.192913385826772
 10
37.4763779527559
 20
9.192913385826772
 10
37.47834645669291
 20
9.192913385826772
 10
37.48228346456693
 20
9.192913385826772
 10
37.6003937007874
 20
9.192913385826772
  0
LWPOLYLINE
  5
E4E
330
1E
100
AcDbEntity
  8
7
100
AcDbPolyline
 90
        6
 70
     0
 43
0.0098425196850394
 10
37.43405511811023
 20
9.192913385826772
 10
37.49704724409449
 20
9.192913385826772
 10
37.43405511811023
 20
9.192913385826772
 10
37.6003937007874
 20
9.192913385826772
 10
37.53740157480315
 20
9.192913385826772
 10
37.6003937007874
 20
9.192913385826772
  0
LINE
  5
E56
330
1E
100
AcDbEntity
  8
7
100
AcDbLine
 10
37.48917322834646
 20
9.192913385826772
 30
0.0
 11
37.6003937007874
 21
9.192913385826772
 31
0.0
  0
LWPOLYLINE
  5
E57
330
1E
100
AcDbEntity
  8
7
100
AcDbPolyline
 90
       17
 70
     0
 43
0.0098425196850394
 10
37.6013779527559
 20
9.192913385826772
 10
37.6003937007874
 20
9.192913385826772
 10
37.59744094488189
 20
9.192913385826772
 10
37.59645669291338
 20
9.192913385826772
 10
37.59547244094488
 20
9.192913385826772
 10
37.59350393700787
 20
9.192913385826772
 10
37.59153543307086
 20
9.192913385826772
 10
37.58858267716535
 20
9.192913385826772
 10
37.58562992125984
 20
9.192913385826772
 10
37.58366141732283
 20
9.192913385826772
 10
37.58169291338583
 20
9.192913385826772
 10
37.57874015748031
 20
9.192913385826772
 10
37.45767716535433
 20
9.192913385826772
 10
37.45472440944882
 20
9.192913385826772
 10
37.4507874015748
 20
9.192913385826772
 10
37.44881889763779
 20
9.192913385826772
 10
37.44586614173228
 20
9.192913385826772
  0
LWPOLYLINE
  5
E6A
330
1E
100
AcDbEntity
  8
7
100
AcDbPolyline
 90
        8
 70
     0
 43
0.0098425196850394
 10
37.44586614173228
 20
9.192913385826772
 10
37.44291338582677
 20
9.192913385826772
 10
37.44094488188976
 20
9.192913385826772
 10
37.43897637795275
 20
9.192913385826772
 10
37.43700787401575
 20
9.192913385826772
 10
37.43602362204724
 20
9.192913385826772
 10
37.43503937007874
 20
9.192913385826772
 10
37.6013779527559
 20
9.192913385826772
  0
LWPOLYLINE
  5
E74
330
1E
100
AcDbEntity
  8
7
100
AcDbPolyline
 90
       12
 70
     0
 43
0.0098425196850394
 10
37.56594488188976
 20
9.192913385826772
 10
37.4753937007874
 20
9.192913385826772
 10
37.4763779527559
 20
9.192913385826772
 10
37.47933070866141
 20
9.192913385826772
 10
37.48129921259843
 20
9.192913385826772
 10
37.48326771653543
 20
9.192913385826772
 10
37.48622047244094
 20
9.192913385826772
 10
37.55511811023622
 20
9.192913385826772
 10
37.55807086614173
 20
9.192913385826772
 10
37.56003937007874
 20
9.192913385826772
 10
37.56102362204724
 20
9.192913385826772
 10
37.56299212598425
 20
9.192913385826772
  0
LWPOLYLINE
  5
E82
330
1E
100
AcDbEntity
  8
7
100
AcDbPolyline
 90
        3
 70
     0
 43
0.0098425196850394
 10
37.56299212598425
 20
9.192913385826772
 10
37.56496062992126
 20
9.192913385826772
 10
37.56594488188976
 20
9.192913385826772
  0
LWPOLYLINE
  5
E87
330
1E
100
AcDbEntity
  8
7
100
AcDbPolyline
 90
       15
 70
     0
 43
0.0098425196850394
 10
37.61909448818897
 20
9.192913385826772
 10
37.54133858267716
 20
9.192913385826772
 10
37.54232283464566
 20
9.192913385826772
 10
37.54330708661417
 20
9.192913385826772
 10
37.54429133858268
 20
9.192913385826772
 10
37.54822834645669
 20
9.192913385826772
 10
37.5501968503937
 20
9.192913385826772
 10
37.55216535433071
 20
9.192913385826772
 10
37.60826771653543
 20
9.192913385826772
 10
37.61023622047244
 20
9.192913385826772
 10
37.61220472440945
 20
9.192913385826772
 10
37.61515748031496
 20
9.192913385826772
 10
37.61614173228347
 20
9.192913385826772
 10
37.61811023622047
 20
9.192913385826772
 10
37.61909448818897
 20
9.192913385826772
  0
LINE
  5
E98
330
1E
100
AcDbEntity
  8
7
100
AcDbLine
 10
37.66141732283464
 20
9.192913385826772
 30
0.0
 11
37.6496062992126
 21
9.192913385826772
 31
0.0
  0
LWPOLYLINE
  5
E99
330
1E
100
AcDbEntity
  8
7
100
AcDbPolyline
 90
       18
 70
     0
 43
0.0098425196850394
 10
37.6496062992126
 20
9.192913385826772
 10
37.63484251968503
 20
9.192913385826772
 10
37.61515748031496
 20
9.192913385826772
 10
37.60334645669291
 20
9.192913385826772
 10
37.59153543307086
 20
9.192913385826772
 10
37.57874015748031
 20
9.192913385826772
 10
37.56594488188976
 20
9.192913385826772
 10
37.55216535433071
 20
9.192913385826772
 10
37.53740157480315
 20
9.192913385826772
 10
37.52362204724409
 20
9.192913385826772
 10
37.50885826771653
 20
9.192913385826772
 10
37.51082677165354
 20
9.192913385826772
 10
37.5255905511811
 20
9.192913385826772
 10
37.53937007874015
 20
9.192913385826772
 10
37.55314960629921
 20
9.192913385826772
 10
37.56594488188976
 20
9.192913385826772
 10
37.57874015748031
 20
9.192913385826772
 10
37.59153543307086
 20
9.192913385826772
  0
LWPOLYLINE
  5
EAD
330
1E
100
AcDbEntity
  8
7
100
AcDbPolyline
 90
        7
 70
     0
 43
0.0098425196850394
 10
37.59153543307086
 20
9.192913385826772
 10
37.60334645669291
 20
9.192913385826772
 10
37.61417322834645
 20
9.192913385826772
 10
37.63188976377952
 20
9.192913385826772
 10
37.64665354330709
 20
9.192913385826772
 10
37.65944881889764
 20
9.192913385826772
 10
37.66141732283464
 20
9.192913385826772
  0
LWPOLYLINE
  5
EB6
330
1E
100
AcDbEntity
  8
7
100
AcDbPolyline
 90
       11
 70
     0
 43
0.0098425196850394
 10
37.65748031496062
 20
9.192913385826772
 10
37.65452755905512
 20
9.192913385826772
 10
37.64566929133858
 20
9.192913385826772
 10
37.63188976377952
 20
9.192913385826772
 10
37.61318897637795
 20
9.192913385826772
 10
37.60826771653543
 20
9.192913385826772
 10
37.60334645669291
 20
9.192913385826772
 10
37.59153543307086
 20
9.192913385826772
 10
37.57874015748031
 20
9.192913385826772
 10
37.56594488188976
 20
9.192913385826772
 10
37.56003937007874
 20
9.192913385826772
  0
LWPOLYLINE
  5
EC3
330
1E
100
AcDbEntity
  8
7
100
AcDbPolyline
 90
       20
 70
     0
 43
0.0098425196850394
 10
37.56003937007874
 20
9.192913385826772
 10
37.55413385826772
 20
9.192913385826772
 10
37.54035433070866
 20
9.192913385826772
 10
37.5255905511811
 20
9.192913385826772
 10
37.51181102362204
 20
9.192913385826772
 10
37.50885826771653
 20
9.192913385826772
 10
37.52362204724409
 20
9.192913385826772
 10
37.53838582677165
 20
9.192913385826772
 10
37.55216535433071
 20
9.192913385826772
 10
37.55905511811024
 20
9.192913385826772
 10
37.56594488188976
 20
9.192913385826772
 10
37.57874015748031
 20
9.192913385826772
 10
37.59153543307086
 20
9.192913385826772
 10
37.60433070866141
 20
9.192913385826772
 10
37.60925196850394
 20
9.192913385826772
 10
37.61515748031496
 20
9.192913385826772
 10
37.63385826771653
 20
9.192913385826772
 10
37.64862204724409
 20
9.192913385826772
 10
37.65748031496062
 20
9.192913385826772
 10
37.66043307086614
 20
9.192913385826772
  0
LINE
  5
ED9
330
1E
100
AcDbEntity
  8
7
100
AcDbLine
 10
37.66043307086614
 20
9.192913385826772
 30
0.0
 11
37.65748031496062
 21
9.192913385826772
 31
0.0
  0
LWPOLYLINE
  5
EDA
330
1E
100
AcDbEntity
  8
7
100
AcDbPolyline
 90
       18
 70
     0
 43
0.0098425196850394
 10
37.51181102362204
 20
9.192913385826772
 10
37.5255905511811
 20
9.192913385826772
 10
37.53248031496063
 20
9.192913385826772
 10
37.54035433070866
 20
9.192913385826772
 10
37.55413385826772
 20
9.192913385826772
 10
37.56003937007874
 20
9.192913385826772
 10
37.56692913385826
 20
9.192913385826772
 10
37.57874015748031
 20
9.192913385826772
 10
37.59153543307086
 20
9.192913385826772
 10
37.60334645669291
 20
9.192913385826772
 10
37.61318897637795
 20
9.192913385826772
 10
37.62303149606299
 20
9.192913385826772
 10
37.63188976377952
 20
9.192913385826772
 10
37.64566929133858
 20
9.192913385826772
 10
37.65157480314961
 20
9.192913385826772
 10
37.65551181102362
 20
9.192913385826772
 10
37.65846456692913
 20
9.192913385826772
 10
37.66141732283464
 20
9.192913385826772
  0
LWPOLYLINE
  5
EEE
330
1E
100
AcDbEntity
  8
7
100
AcDbPolyline
 90
       19
 70
     0
 43
0.0098425196850394
 10
37.66141732283464
 20
9.192913385826772
 10
37.65846456692913
 20
9.192913385826772
 10
37.65452755905512
 20
9.192913385826772
 10
37.64862204724409
 20
9.192913385826772
 10
37.63484251968503
 20
9.192913385826772
 10
37.6259842519685
 20
9.192913385826772
 10
37.61515748031496
 20
9.192913385826772
 10
37.60433070866141
 20
9.192913385826772
 10
37.59153543307086
 20
9.192913385826772
 10
37.57874015748031
 20
9.192913385826772
 10
37.56594488188976
 20
9.192913385826772
 10
37.55807086614173
 20
9.192913385826772
 10
37.5511811023622
 20
9.192913385826772
 10
37.54429133858268
 20
9.192913385826772
 10
37.53740157480315
 20
9.192913385826772
 10
37.52952755905512
 20
9.192913385826772
 10
37.52362204724409
 20
9.192913385826772
 10
37.50885826771653
 20
9.192913385826772
 10
37.51181102362204
 20
9.192913385826772
  0
LWPOLYLINE
  5
F03
330
1E
100
AcDbEntity
  8
7
100
AcDbPolyline
 90
       20
 70
     0
 43
0.0098425196850394
 10
37.55905511811024
 20
9.192913385826772
 10
37.5511811023622
 20
9.192913385826772
 10
37.54822834645669
 20
9.192913385826772
 10
37.54527559055118
 20
9.192913385826772
 10
37.53937007874015
 20
9.192913385826772
 10
37.53740157480315
 20
9.192913385826772
 10
37.53543307086614
 20
9.192913385826772
 10
37.53641732283464
 20
9.192913385826772
 10
37.53937007874015
 20
9.192913385826772
 10
37.54330708661417
 20
9.192913385826772
 10
37.5501968503937
 20
9.192913385826772
 10
37.55807086614173
 20
9.192913385826772
 10
37.56200787401574
 20
9.192913385826772
 10
37.55314960629921
 20
9.192913385826772
 10
37.54724409448819
 20
9.192913385826772
 10
37.54232283464566
 20
9.192913385826772
 10
37.54035433070866
 20
9.192913385826772
 10
37.53937007874015
 20
9.192913385826772
 10
37.54035433070866
 20
9.192913385826772
 10
37.54232283464566
 20
9.192913385826772
  0
LWPOLYLINE
  5
F19
330
1E
100
AcDbEntity
  8
7
100
AcDbPolyline
 90
        6
 70
     0
 43
0.0098425196850394
 10
37.54232283464566
 20
9.192913385826772
 10
37.54822834645669
 20
9.192913385826772
 10
37.5511811023622
 20
9.192913385826772
 10
37.55511811023622
 20
9.192913385826772
 10
37.56200787401574
 20
9.192913385826772
 10
37.55905511811024
 20
9.192913385826772
  0
LWPOLYLINE
  5
F21
330
1E
100
AcDbEntity
  8
7
100
AcDbPolyline
 90
        5
 70
     0
 43
0.0098425196850394
 10
37.43405511811023
 20
9.192913385826772
 10
37.56692913385826
 20
9.192913385826772
 10
37.6003937007874
 20
9.192913385826772
 10
37.56692913385826
 20
9.192913385826772
 10
37.43405511811023
 20
9.192913385826772
  0
LWPOLYLINE
  5
F28
330
1E
100
AcDbEntity
  8
7
100
AcDbPolyline
 90
        3
 70
     0
 43
0.0098425196850394
 10
37.54429133858268
 20
9.192913385826772
 10
37.49901574803149
 20
9.192913385826772
 10
37.54429133858268
 20
9.192913385826772
  0
LWPOLYLINE
  5
F2D
330
1E
100
AcDbEntity
  8
7
100
AcDbPolyline
 90
        3
 70
     0
 43
0.0098425196850394
 10
37.58464566929134
 20
9.192913385826772
 10
37.58956692913386
 20
9.192913385826772
 10
37.59448818897638
 20
9.192913385826772
  0
LINE
  5
F32
330
1E
100
AcDbEntity
  8
7
100
AcDbLine
 10
37.59448818897638
 20
9.192913385826772
 30
0.0
 11
37.66043307086614
 21
9.192913385826772
 31
0.0
  0
LWPOLYLINE
  5
F33
330
1E
100
AcDbEntity
  8
7
100
AcDbPolyline
 90
       20
 70
     0
 43
0.0098425196850394
 10
37.65748031496062
 20
9.192913385826772
 10
37.65649606299212
 20
9.192913385826772
 10
37.65452755905512
 20
9.192913385826772
 10
37.65255905511811
 20
9.192913385826772
 10
37.6505905511811
 20
9.192913385826772
 10
37.64763779527559
 20
9.192913385826772
 10
37.64468503937008
 20
9.192913385826772
 10
37.64173228346457
 20
9.192913385826772
 10
37.63877952755906
 20
9.192913385826772
 10
37.63582677165354
 20
9.192913385826772
 10
37.63188976377952
 20
9.192913385826772
 10
37.62795275590551
 20
9.192913385826772
 10
37.62401574803149
 20
9.192913385826772
 10
37.61909448818897
 20
9.192913385826772
 10
37.61515748031496
 20
9.192913385826772
 10
37.61122047244095
 20
9.192913385826772
 10
37.60629921259843
 20
9.192913385826772
 10
37.6013779527559
 20
9.192913385826772
 10
37.59645669291338
 20
9.192913385826772
 10
37.59251968503937
 20
9.192913385826772
  0
LWPOLYLINE
  5
F49
330
1E
100
AcDbEntity
  8
7
100
AcDbPolyline
 90
       20
 70
     0
 43
0.0098425196850394
 10
37.59251968503937
 20
9.192913385826772
 10
37.58759842519685
 20
9.192913385826772
 10
37.58267716535433
 20
9.192913385826772
 10
37.57775590551181
 20
9.192913385826772
 10
37.57283464566929
 20
9.192913385826772
 10
37.56791338582677
 20
9.192913385826772
 10
37.56397637795275
 20
9.192913385826772
 10
37.55905511811024
 20
9.192913385826772
 10
37.55413385826772
 20
9.192913385826772
 10
37.5501968503937
 20
9.192913385826772
 10
37.54625984251969
 20
9.192913385826772
 10
37.54232283464566
 20
9.192913385826772
 10
37.53838582677165
 20
9.192913385826772
 10
37.53444881889763
 20
9.192913385826772
 10
37.53051181102362
 20
9.192913385826772
 10
37.52755905511811
 20
9.192913385826772
 10
37.5246062992126
 20
9.192913385826772
 10
37.52165354330708
 20
9.192913385826772
 10
37.51968503937008
 20
9.192913385826772
 10
37.51673228346457
 20
9.192913385826772
  0
LINE
  5
F5F
330
1E
100
AcDbEntity
  8
7
100
AcDbLine
 10
37.50885826771653
 20
9.192913385826772
 30
0.0
 11
37.55216535433071
 21
9.192913385826772
 31
0.0
  0
LWPOLYLINE
  5
F60
330
1E
100
AcDbEntity
  8
7
100
AcDbPolyline
 90
        8
 70
     0
 43
0.0098425196850394
 10
37.55216535433071
 20
9.192913385826772
 10
37.55708661417322
 20
9.192913385826772
 10
37.56102362204724
 20
9.192913385826772
 10
37.56594488188976
 20
9.192913385826772
 10
37.57086614173228
 20
9.192913385826772
 10
37.5748031496063
 20
9.192913385826772
 10
37.57972440944882
 20
9.192913385826772
 10
37.58464566929134
 20
9.192913385826772
  0
LWPOLYLINE
  5
F6A
330
1E
100
AcDbEntity
  8
7
100
AcDbPolyline
 90
        3
 70
     0
 43
0.0098425196850394
 10
36.58169291338583
 20
14.48917322834645
 10
36.58267716535433
 20
14.48818897637795
 10
36.58366141732283
 20
14.48818897637795
  0
LWPOLYLINE
  5
F6F
330
1E
100
AcDbEntity
  8
7
100
AcDbPolyline
 90
        3
 70
     0
 43
0.0098425196850394
 10
36.58267716535433
 20
14.48720472440944
 10
36.58169291338583
 20
14.48818897637795
 10
36.57972440944882
 20
14.48818897637795
  0
LWPOLYLINE
  5
F74
330
1E
100
AcDbEntity
  8
7
100
AcDbPolyline
 90
       13
 70
     0
 43
0.0098425196850394
 10
36.60531496062992
 20
14.33661417322834
 10
36.64566929133858
 20
14.34055118110236
 10
36.68405511811023
 20
14.3523622047244
 10
36.71948818897638
 20
14.37204724409449
 10
36.75
 20
14.39862204724409
 10
36.77460629921259
 20
14.43110236220472
 10
36.79232283464566
 20
14.46653543307086
 10
36.80314960629921
 20
14.50590551181102
 10
36.80511811023622
 20
14.54625984251968
 10
36.7992125984252
 20
14.58661417322834
 10
36.78444881889763
 20
14.62401574803149
 10
36.76377952755906
 20
14.65846456692913
 10
36.73523622047244
 20
14.68799212598425
  0
LWPOLYLINE
  5
F83
330
1E
100
AcDbEntity
  8
7
100
AcDbPolyline
 90
       14
 70
     0
 43
0.0098425196850394
 10
36.73523622047244
 20
14.68799212598425
 10
36.70275590551181
 20
14.71062992125984
 10
36.66535433070865
 20
14.72736220472441
 10
36.6259842519685
 20
14.73523622047244
 10
36.58464566929134
 20
14.73523622047244
 10
36.54527559055118
 20
14.72736220472441
 10
36.50787401574802
 20
14.71062992125984
 10
36.4753937007874
 20
14.68799212598425
 10
36.44685039370078
 20
14.65846456692913
 10
36.4261811023622
 20
14.62401574803149
 10
36.41141732283464
 20
14.58661417322834
 10
36.40551181102362
 20
14.54625984251968
 10
36.40748031496062
 20
14.50590551181102
 10
36.41830708661418
 20
14.46653543307086
  0
LWPOLYLINE
  5
F93
330
1E
100
AcDbEntity
  8
7
100
AcDbPolyline
 90
        7
 70
     0
 43
0.0098425196850394
 10
36.41830708661418
 20
14.46653543307086
 10
36.43602362204724
 20
14.43110236220472
 10
36.46062992125984
 20
14.39862204724409
 10
36.49114173228346
 20
14.37204724409449
 10
36.5265748031496
 20
14.3523622047244
 10
36.56496062992125
 20
14.34055118110236
 10
36.60531496062992
 20
14.33661417322834
  0
LWPOLYLINE
  5
F9C
330
1E
100
AcDbEntity
  8
7
100
AcDbPolyline
 90
        3
 70
     0
 43
0.0098425196850394
 10
36.65452755905512
 20
14.51673228346456
 10
36.65551181102362
 20
14.51870078740157
 10
36.65551181102362
 20
14.51968503937007
  0
LWPOLYLINE
  5
FA1
330
1E
100
AcDbEntity
  8
7
100
AcDbPolyline
 90
        3
 70
     0
 43
0.0098425196850394
 10
36.65649606299212
 20
14.51968503937007
 10
36.65551181102362
 20
14.51771653543307
 10
36.65551181102362
 20
14.51673228346456
  0
LWPOLYLINE
  5
FA6
330
1E
100
AcDbEntity
  8
7
100
AcDbPolyline
 90
        7
 70
     0
 43
0.0098425196850394
 10
36.66929133858268
 20
14.53346456692913
 10
36.69389763779527
 20
14.54330708661417
 10
36.71653543307086
 20
14.55216535433071
 10
36.73720472440945
 20
14.56102362204724
 10
36.75492125984252
 20
14.56791338582677
 10
36.77066929133858
 20
14.57480314960629
 10
36.78641732283464
 20
14.58169291338582
  0
LWPOLYLINE
  5
FAF
330
1E
100
AcDbEntity
  8
7
100
AcDbPolyline
 90
        4
 70
     0
 43
0.0098425196850394
 10
36.66929133858268
 20
14.53346456692913
 10
36.66240157480315
 20
14.52854330708661
 10
36.65748031496063
 20
14.52263779527559
 10
36.65649606299212
 20
14.51968503937007
  0
LWPOLYLINE
  5
FB5
330
1E
100
AcDbEntity
  8
7
100
AcDbPolyline
 90
        3
 70
     0
 43
0.0098425196850394
 10
36.65551181102362
 20
14.51673228346456
 10
36.65452755905512
 20
14.50885826771653
 10
36.65649606299212
 20
14.5
  0
LWPOLYLINE
  5
FBA
330
1E
100
AcDbEntity
  8
7
100
AcDbPolyline
 90
        5
 70
     0
 43
0.0098425196850394
 10
36.69291338582677
 20
14.41043307086614
 10
36.68503937007874
 20
14.43110236220472
 10
36.67618110236221
 20
14.4517716535433
 10
36.66732283464567
 20
14.47342519685039
 10
36.65649606299212
 20
14.5
  0
LWPOLYLINE
  5
FC1
330
1E
100
AcDbEntity
  8
7
100
AcDbPolyline
 90
        3
 70
     0
 43
0.0098425196850394
 10
36.63090551181102
 20
14.38484251968503
 10
36.66240157480315
 20
14.39763779527559
 10
36.69291338582677
 20
14.41043307086614
  0
LINE
  5
FC6
330
1E
100
AcDbEntity
  8
7
100
AcDbLine
 10
36.59448818897637
 20
14.47440944881889
 30
0.0
 11
36.60334645669291
 21
14.45275590551181
 31
0.0
  0
LWPOLYLINE
  5
FC7
330
1E
100
AcDbEntity
  8
7
100
AcDbPolyline
 90
        5
 70
     0
 43
0.0098425196850394
 10
36.60334645669291
 20
14.45275590551181
 10
36.61220472440945
 20
14.43011811023622
 10
36.62106299212598
 20
14.40944881889763
 10
36.62893700787401
 20
14.39074803149606
 10
36.63090551181102
 20
14.38484251968503
  0
LWPOLYLINE
  5
FCE
330
1E
100
AcDbEntity
  8
7
100
AcDbPolyline
 90
        3
 70
     0
 43
0.0098425196850394
 10
36.59448818897637
 20
14.47440944881889
 10
36.58956692913386
 20
14.48228346456692
 10
36.58267716535433
 20
14.48720472440944
  0
LWPOLYLINE
  5
FD3
330
1E
100
AcDbEntity
  8
7
100
AcDbPolyline
 90
        4
 70
     0
 43
0.0098425196850394
 10
36.58070866141732
 20
14.48818897637795
 10
36.57185039370078
 20
14.49015748031496
 10
36.56397637795275
 20
14.48917322834645
 10
36.56200787401575
 20
14.48818897637795
  0
LWPOLYLINE
  5
FD9
330
1E
100
AcDbEntity
  8
7
100
AcDbPolyline
 90
        3
 70
     0
 43
0.0098425196850394
 10
36.44488188976378
 20
14.43996062992126
 10
36.45669291338583
 20
14.44488188976378
 10
36.47047244094488
 20
14.4507874015748
  0
LWPOLYLINE
  5
FDE
330
1E
100
AcDbEntity
  8
7
100
AcDbPolyline
 90
        6
 70
     0
 43
0.0098425196850394
 10
36.47047244094488
 20
14.4507874015748
 10
36.48818897637795
 20
14.45767716535432
 10
36.50787401574802
 20
14.46653543307086
 10
36.52854330708661
 20
14.47440944881889
 10
36.5511811023622
 20
14.48425196850393
 10
36.56200787401575
 20
14.48818897637795
  0
LWPOLYLINE
  5
FE6
330
1E
100
AcDbEntity
  8
7
100
AcDbPolyline
 90
        3
 70
     0
 43
0.0098425196850394
 10
36.42322834645669
 20
14.49704724409448
 10
36.43208661417323
 20
14.46751968503937
 10
36.44586614173228
 20
14.43996062992126
  0
LWPOLYLINE
  5
FEB
330
1E
100
AcDbEntity
  8
7
100
AcDbPolyline
 90
        3
 70
     0
 43
0.0098425196850394
 10
36.53838582677165
 20
14.54527559055118
 10
36.49803149606299
 20
14.52854330708661
 10
36.4773622047244
 20
14.52066929133858
  0
LWPOLYLINE
  5
FF0
330
1E
100
AcDbEntity
  8
7
100
AcDbPolyline
 90
        5
 70
     0
 43
0.0098425196850394
 10
36.4773622047244
 20
14.52066929133858
 10
36.45866141732283
 20
14.51279527559055
 10
36.44192913385826
 20
14.50590551181102
 10
36.42913385826771
 20
14.5
 10
36.42224409448819
 20
14.49704724409448
  0
LWPOLYLINE
  5
FF7
330
1E
100
AcDbEntity
  8
7
100
AcDbPolyline
 90
        6
 70
     0
 43
0.0098425196850394
 10
36.53838582677165
 20
14.54527559055118
 10
36.54527559055118
 20
14.54921259842519
 10
36.5501968503937
 20
14.55610236220472
 10
36.55314960629921
 20
14.56397637795275
 10
36.55314960629921
 20
14.57283464566929
 10
36.5511811023622
 20
14.57775590551181
  0
LWPOLYLINE
  5
FFF
330
1E
100
AcDbEntity
  8
7
100
AcDbPolyline
 90
        5
 70
     0
 43
0.0098425196850394
 10
36.51673228346457
 20
14.66240157480314
 10
36.5255905511811
 20
14.64173228346456
 10
36.53346456692913
 20
14.62204724409448
 10
36.54232283464566
 20
14.6003937007874
 10
36.5511811023622
 20
14.57775590551181
  0
LWPOLYLINE
  5
1006
330
1E
100
AcDbEntity
  8
7
100
AcDbPolyline
 90
        3
 70
     0
 43
0.0098425196850394
 10
36.57874015748031
 20
14.68799212598425
 10
36.54724409448819
 20
14.6751968503937
 10
36.51673228346457
 20
14.66240157480314
  0
LWPOLYLINE
  5
100B
330
1E
100
AcDbEntity
  8
7
100
AcDbPolyline
 90
        5
 70
     0
 43
0.0098425196850394
 10
36.61318897637795
 20
14.60334645669291
 10
36.59744094488189
 20
14.64271653543307
 10
36.58858267716535
 20
14.66338582677165
 10
36.58070866141732
 20
14.68307086614173
 10
36.57874015748031
 20
14.68799212598425
  0
LWPOLYLINE
  5
1012
330
1E
100
AcDbEntity
  8
7
100
AcDbPolyline
 90
        6
 70
     0
 43
0.0098425196850394
 10
36.61318897637795
 20
14.60334645669291
 10
36.61811023622047
 20
14.59645669291338
 10
36.62401574803149
 20
14.59153543307086
 10
36.63188976377952
 20
14.58858267716535
 10
36.64074803149606
 20
14.58858267716535
 10
36.64665354330709
 20
14.58956692913385
  0
LWPOLYLINE
  5
101A
330
1E
100
AcDbEntity
  8
7
100
AcDbPolyline
 90
        7
 70
     0
 43
0.0098425196850394
 10
36.76181102362204
 20
14.63779527559055
 10
36.74409448818897
 20
14.62992125984252
 10
36.72834645669291
 20
14.62401574803149
 10
36.71062992125984
 20
14.61614173228346
 10
36.68996062992126
 20
14.60826771653543
 10
36.66830708661418
 20
14.59940944881889
 10
36.64665354330709
 20
14.58956692913385
  0
LWPOLYLINE
  5
1023
330
1E
100
AcDbEntity
  8
7
100
AcDbPolyline
 90
        3
 70
     0
 43
0.0098425196850394
 10
36.78641732283464
 20
14.58070866141732
 10
36.77657480314961
 20
14.61023622047244
 10
36.76181102362204
 20
14.63681102362204
  0
LINE
  5
1028
330
1E
100
AcDbEntity
  8
7
100
AcDbLine
 10
36.64665354330709
 20
14.58956692913385
 30
0.0
 11
36.53838582677165
 21
14.54527559055118
 31
0.0
  0
LINE
  5
1029
330
1E
100
AcDbEntity
  8
7
100
AcDbLine
 10
36.56200787401575
 20
14.48818897637795
 30
0.0
 11
36.66929133858268
 21
14.53346456692913
 31
0.0
  0
LWPOLYLINE
  5
102A
330
1E
100
AcDbEntity
  8
7
100
AcDbPolyline
 90
        3
 70
     0
 43
0.0098425196850394
 10
37.62893700787401
 20
14.58366141732283
 10
37.62795275590551
 20
14.58464566929134
 10
37.626968503937
 20
14.58464566929134
  0
LWPOLYLINE
  5
102F
330
1E
100
AcDbEntity
  8
7
100
AcDbPolyline
 90
        3
 70
     0
 43
0.0098425196850394
 10
37.626968503937
 20
14.58661417322834
 10
37.62795275590551
 20
14.58562992125984
 10
37.62992125984252
 20
14.58562992125984
  0
LWPOLYLINE
  5
1034
330
1E
100
AcDbEntity
  8
7
100
AcDbPolyline
 90
       13
 70
     0
 43
0.0098425196850394
 10
37.60531496062991
 20
14.33661417322834
 10
37.64566929133858
 20
14.34055118110236
 10
37.68405511811023
 20
14.3523622047244
 10
37.71948818897637
 20
14.37204724409449
 10
37.75
 20
14.39862204724409
 10
37.7746062992126
 20
14.43110236220472
 10
37.79232283464566
 20
14.46653543307086
 10
37.80314960629921
 20
14.50590551181102
 10
37.80511811023622
 20
14.54625984251968
 10
37.7992125984252
 20
14.58661417322834
 10
37.78444881889763
 20
14.62401574803149
 10
37.76377952755906
 20
14.65846456692913
 10
37.73523622047244
 20
14.68799212598425
  0
LWPOLYLINE
  5
1043
330
1E
100
AcDbEntity
  8
7
100
AcDbPolyline
 90
       14
 70
     0
 43
0.0098425196850394
 10
37.73523622047244
 20
14.68799212598425
 10
37.70275590551181
 20
14.71062992125984
 10
37.66535433070866
 20
14.72736220472441
 10
37.6259842519685
 20
14.73523622047244
 10
37.58464566929134
 20
14.73523622047244
 10
37.54527559055118
 20
14.72736220472441
 10
37.50787401574803
 20
14.71062992125984
 10
37.4753937007874
 20
14.68799212598425
 10
37.44685039370078
 20
14.65846456692913
 10
37.4261811023622
 20
14.62401574803149
 10
37.41141732283464
 20
14.58661417322834
 10
37.40551181102362
 20
14.54625984251968
 10
37.40748031496063
 20
14.50590551181102
 10
37.41830708661417
 20
14.46653543307086
  0
LWPOLYLINE
  5
1053
330
1E
100
AcDbEntity
  8
7
100
AcDbPolyline
 90
        7
 70
     0
 43
0.0098425196850394
 10
37.41830708661417
 20
14.46653543307086
 10
37.43602362204724
 20
14.43110236220472
 10
37.46062992125984
 20
14.39862204724409
 10
37.49114173228346
 20
14.37204724409449
 10
37.5265748031496
 20
14.3523622047244
 10
37.56496062992126
 20
14.34055118110236
 10
37.60531496062991
 20
14.33661417322834
  0
LWPOLYLINE
  5
105C
330
1E
100
AcDbEntity
  8
7
100
AcDbPolyline
 90
        3
 70
     0
 43
0.0098425196850394
 10
37.55610236220472
 20
14.55610236220472
 10
37.55511811023622
 20
14.55413385826771
 10
37.55511811023622
 20
14.55314960629921
  0
LWPOLYLINE
  5
1061
330
1E
100
AcDbEntity
  8
7
100
AcDbPolyline
 90
        3
 70
     0
 43
0.0098425196850394
 10
37.55314960629921
 20
14.55314960629921
 10
37.55413385826772
 20
14.55511811023622
 10
37.55413385826772
 20
14.55610236220472
  0
LWPOLYLINE
  5
1066
330
1E
100
AcDbEntity
  8
7
100
AcDbPolyline
 90
        7
 70
     0
 43
0.0098425196850394
 10
37.54035433070866
 20
14.54035433070866
 10
37.51574803149607
 20
14.53051181102362
 10
37.49311023622047
 20
14.52066929133858
 10
37.47342519685039
 20
14.51279527559055
 10
37.45472440944882
 20
14.50492125984252
 10
37.43897637795275
 20
14.49803149606299
 10
37.42322834645669
 20
14.49212598425196
  0
LWPOLYLINE
  5
106F
330
1E
100
AcDbEntity
  8
7
100
AcDbPolyline
 90
        4
 70
     0
 43
0.0098425196850394
 10
37.54035433070866
 20
14.54035433070866
 10
37.54724409448819
 20
14.54429133858267
 10
37.55216535433071
 20
14.5511811023622
 10
37.55314960629921
 20
14.55314960629921
  0
LWPOLYLINE
  5
1075
330
1E
100
AcDbEntity
  8
7
100
AcDbPolyline
 90
        3
 70
     0
 43
0.0098425196850394
 10
37.55413385826772
 20
14.55610236220472
 10
37.55511811023622
 20
14.56496062992125
 10
37.55413385826772
 20
14.57283464566929
  0
LWPOLYLINE
  5
107A
330
1E
100
AcDbEntity
  8
7
100
AcDbPolyline
 90
        5
 70
     0
 43
0.0098425196850394
 10
37.51673228346457
 20
14.66240157480314
 10
37.5255905511811
 20
14.64173228346456
 10
37.53346456692913
 20
14.62204724409448
 10
37.54232283464566
 20
14.6003937007874
 10
37.55413385826772
 20
14.57283464566929
  0
LWPOLYLINE
  5
1081
330
1E
100
AcDbEntity
  8
7
100
AcDbPolyline
 90
        3
 70
     0
 43
0.0098425196850394
 10
37.57874015748031
 20
14.68799212598425
 10
37.54724409448819
 20
14.6751968503937
 10
37.51673228346457
 20
14.66240157480314
  0
LINE
  5
1086
330
1E
100
AcDbEntity
  8
7
100
AcDbLine
 10
37.61515748031496
 20
14.59842519685039
 30
0.0
 11
37.60629921259843
 21
14.62106299212598
 31
0.0
  0
LWPOLYLINE
  5
1087
330
1E
100
AcDbEntity
  8
7
100
AcDbPolyline
 90
        5
 70
     0
 43
0.0098425196850394
 10
37.60629921259843
 20
14.62106299212598
 10
37.59744094488189
 20
14.64271653543307
 10
37.58858267716535
 20
14.66338582677165
 10
37.58070866141732
 20
14.68307086614173
 10
37.57874015748031
 20
14.68799212598425
  0
LWPOLYLINE
  5
108E
330
1E
100
AcDbEntity
  8
7
100
AcDbPolyline
 90
        3
 70
     0
 43
0.0098425196850394
 10
37.61515748031496
 20
14.59842519685039
 10
37.62007874015748
 20
14.59153543307086
 10
37.626968503937
 20
14.58562992125984
  0
LWPOLYLINE
  5
1093
330
1E
100
AcDbEntity
  8
7
100
AcDbPolyline
 90
        4
 70
     0
 43
0.0098425196850394
 10
37.62893700787401
 20
14.58464566929134
 10
37.63779527559055
 20
14.58267716535432
 10
37.64566929133858
 20
14.58366141732283
 10
37.64862204724409
 20
14.58464566929134
  0
LWPOLYLINE
  5
1099
330
1E
100
AcDbEntity
  8
7
100
AcDbPolyline
 90
        3
 70
     0
 43
0.0098425196850394
 10
37.76476377952756
 20
14.63287401574803
 10
37.75295275590551
 20
14.62795275590551
 10
37.73917322834646
 20
14.62204724409448
  0
LWPOLYLINE
  5
109E
330
1E
100
AcDbEntity
  8
7
100
AcDbPolyline
 90
        6
 70
     0
 43
0.0098425196850394
 10
37.73917322834646
 20
14.62204724409448
 10
37.72145669291338
 20
14.61515748031496
 10
37.70275590551181
 20
14.60728346456693
 10
37.68110236220472
 20
14.59842519685039
 10
37.65846456692913
 20
14.58956692913385
 10
37.64862204724409
 20
14.58464566929134
  0
LWPOLYLINE
  5
10A6
330
1E
100
AcDbEntity
  8
7
100
AcDbPolyline
 90
        3
 70
     0
 43
0.0098425196850394
 10
37.78740157480314
 20
14.5757874015748
 10
37.77854330708661
 20
14.60531496062992
 10
37.76476377952756
 20
14.63287401574803
  0
LINE
  5
10AB
330
1E
100
AcDbEntity
  8
7
100
AcDbLine
 10
37.67224409448819
 20
14.52755905511811
 30
0.0
 11
37.71161417322835
 21
14.54429133858267
 31
0.0
  0
LWPOLYLINE
  5
10AC
330
1E
100
AcDbEntity
  8
7
100
AcDbPolyline
 90
        6
 70
     0
 43
0.0098425196850394
 10
37.71161417322835
 20
14.54429133858267
 10
37.73228346456693
 20
14.55314960629921
 10
37.7509842519685
 20
14.56102362204724
 10
37.76771653543307
 20
14.56791338582677
 10
37.78149606299212
 20
14.57283464566929
 10
37.78740157480314
 20
14.5757874015748
  0
LWPOLYLINE
  5
10B4
330
1E
100
AcDbEntity
  8
7
100
AcDbPolyline
 90
        6
 70
     0
 43
0.0098425196850394
 10
37.67224409448819
 20
14.52755905511811
 10
37.66437007874015
 20
14.52362204724409
 10
37.65944881889764
 20
14.51673228346456
 10
37.65649606299212
 20
14.50885826771653
 10
37.65649606299212
 20
14.5009842519685
 10
37.65846456692913
 20
14.49507874015748
  0
LWPOLYLINE
  5
10BC
330
1E
100
AcDbEntity
  8
7
100
AcDbPolyline
 90
        4
 70
     0
 43
0.0098425196850394
 10
37.69291338582677
 20
14.41043307086614
 10
37.68503937007874
 20
14.43110236220472
 10
37.6761811023622
 20
14.4517716535433
 10
37.66732283464566
 20
14.47342519685039
  0
LINE
  5
10C2
330
1E
100
AcDbEntity
  8
7
100
AcDbLine
 10
37.66732283464566
 20
14.47342519685039
 30
0.0
 11
37.65846456692913
 21
14.49507874015748
 31
0.0
  0
LWPOLYLINE
  5
10C3
330
1E
100
AcDbEntity
  8
7
100
AcDbPolyline
 90
        3
 70
     0
 43
0.0098425196850394
 10
37.63090551181102
 20
14.38484251968503
 10
37.66240157480314
 20
14.39763779527559
 10
37.69291338582677
 20
14.41043307086614
  0
LWPOLYLINE
  5
10C8
330
1E
100
AcDbEntity
  8
7
100
AcDbPolyline
 90
        5
 70
     0
 43
0.0098425196850394
 10
37.59645669291338
 20
14.46948818897637
 10
37.61220472440945
 20
14.43011811023622
 10
37.62106299212598
 20
14.40944881889763
 10
37.62893700787401
 20
14.39074803149606
 10
37.63090551181102
 20
14.38484251968503
  0
LWPOLYLINE
  5
10CF
330
1E
100
AcDbEntity
  8
7
100
AcDbPolyline
 90
        4
 70
     0
 43
0.0098425196850394
 10
37.59645669291338
 20
14.46948818897637
 10
37.59153543307086
 20
14.4763779527559
 10
37.58562992125984
 20
14.48228346456692
 10
37.57775590551181
 20
14.48523622047244
  0
LWPOLYLINE
  5
10D5
330
1E
100
AcDbEntity
  8
7
100
AcDbPolyline
 90
        3
 70
     0
 43
0.0098425196850394
 10
37.57775590551181
 20
14.48523622047244
 10
37.56889763779527
 20
14.48523622047244
 10
37.56397637795275
 20
14.48326771653543
  0
LWPOLYLINE
  5
10DA
330
1E
100
AcDbEntity
  8
7
100
AcDbPolyline
 90
        7
 70
     0
 43
0.0098425196850394
 10
37.44783464566928
 20
14.43602362204724
 10
37.46555118110236
 20
14.44291338582677
 10
37.48129921259843
 20
14.44980314960629
 10
37.5
 20
14.45669291338582
 10
37.51968503937008
 20
14.46555118110236
 10
37.54133858267716
 20
14.47440944881889
 10
37.56397637795275
 20
14.48326771653543
  0
LWPOLYLINE
  5
10E3
330
1E
100
AcDbEntity
  8
7
100
AcDbPolyline
 90
        3
 70
     0
 43
0.0098425196850394
 10
37.4242125984252
 20
14.49212598425196
 10
37.43405511811023
 20
14.46259842519685
 10
37.44881889763779
 20
14.43602362204724
  0
LINE
  5
10E8
330
1E
100
AcDbEntity
  8
7
100
AcDbLine
 10
37.56397637795275
 20
14.48326771653543
 30
0.0
 11
37.67224409448819
 21
14.52755905511811
 31
0.0
  0
LINE
  5
10E9
330
1E
100
AcDbEntity
  8
7
100
AcDbLine
 10
37.64862204724409
 20
14.58464566929134
 30
0.0
 11
37.54035433070866
 21
14.54035433070866
 31
0.0
  0
LWPOLYLINE
  5
10EA
330
1E
100
AcDbEntity
  8
7
100
AcDbPolyline
 90
        3
 70
     0
 43
0.0098425196850394
 10
36.8523622047244
 20
15.17125984251968
 10
36.8523622047244
 20
15.17322834645669
 10
36.8523622047244
 20
15.1761811023622
  0
LWPOLYLINE
  5
10EF
330
1E
100
AcDbEntity
  8
7
100
AcDbPolyline
 90
        4
 70
     0
 43
0.0098425196850394
 10
36.8523622047244
 20
15.37007874015747
 10
36.8523622047244
 20
15.36614173228346
 10
36.8523622047244
 20
15.35433070866141
 10
36.8523622047244
 20
15.33464566929134
  0
LWPOLYLINE
  5
10F5
330
1E
100
AcDbEntity
  8
7
100
AcDbPolyline
 90
        5
 70
     0
 43
0.0098425196850394
 10
36.8523622047244
 20
15.33464566929134
 10
36.8523622047244
 20
15.31003937007874
 10
36.8523622047244
 20
15.28051181102362
 10
36.8523622047244
 20
15.24803149606299
 10
36.8523622047244
 20
15.21555118110236
  0
LWPOLYLINE
  5
10FC
330
1E
100
AcDbEntity
  8
7
100
AcDbPolyline
 90
        8
 70
     0
 43
0.0098425196850394
 10
37.35925196850394
 20
15.37007874015747
 10
37.35925196850394
 20
15.36614173228346
 10
37.35925196850394
 20
15.35433070866141
 10
37.35925196850394
 20
15.33464566929134
 10
37.35925196850394
 20
15.31003937007874
 10
37.35925196850394
 20
15.28051181102362
 10
37.35925196850394
 20
15.24803149606299
 10
37.35925196850394
 20
15.21555118110236
  0
LWPOLYLINE
  5
1106
330
1E
100
AcDbEntity
  8
7
100
AcDbPolyline
 90
        3
 70
     0
 43
0.0098425196850394
 10
37.35925196850394
 20
15.17125984251968
 10
37.35925196850394
 20
15.17322834645669
 10
37.35925196850394
 20
15.1761811023622
  0
LINE
  5
110B
330
1E
100
AcDbEntity
  8
7
100
AcDbLine
 10
36.8523622047244
 20
15.21555118110236
 30
0.0
 11
37.35925196850394
 21
15.21555118110236
 31
0.0
  0
LWPOLYLINE
  5
110C
330
1E
100
AcDbEntity
  8
7
100
AcDbPolyline
 90
        3
 70
     0
 43
0.0098425196850394
 10
37.88582677165354
 20
15.17125984251968
 10
37.88582677165354
 20
15.23818897637795
 10
37.37893700787401
 20
15.23818897637795
  0
LINE
  5
1111
330
1E
100
AcDbEntity
  8
7
100
AcDbLine
 10
37.37893700787401
 20
15.17125984251968
 30
0.0
 11
37.37893700787401
 21
15.23818897637795
 31
0.0
  0
LWPOLYLINE
  5
1112
330
1E
100
AcDbEntity
  8
7
100
AcDbPolyline
 90
        3
 70
     0
 43
0.0098425196850394
 10
36.83070866141732
 20
15.17125984251968
 10
36.83070866141732
 20
15.23818897637795
 10
36.32381889763779
 20
15.23818897637795
  0
LINE
  5
1117
330
1E
100
AcDbEntity
  8
7
100
AcDbLine
 10
36.32381889763779
 20
15.17125984251968
 30
0.0
 11
36.32381889763779
 21
15.23818897637795
 31
0.0
  0
LWPOLYLINE
  5
1118
330
1E
100
AcDbEntity
  8
7
100
AcDbPolyline
 90
        7
 70
     0
 43
0.0098425196850394
 10
36.83070866141732
 20
15.23818897637795
 10
36.83070866141732
 20
15.27263779527559
 10
36.83070866141732
 20
15.30413385826771
 10
36.83070866141732
 20
15.33169291338582
 10
36.83070866141732
 20
15.35236220472441
 10
36.83070866141732
 20
15.36614173228346
 10
36.83070866141732
 20
15.37007874015747
  0
LWPOLYLINE
  5
1121
330
1E
100
AcDbEntity
  8
7
100
AcDbPolyline
 90
        7
 70
     0
 43
0.0098425196850394
 10
36.32381889763779
 20
15.23818897637795
 10
36.32381889763779
 20
15.27263779527559
 10
36.32381889763779
 20
15.30413385826771
 10
36.32381889763779
 20
15.33169291338582
 10
36.32381889763779
 20
15.35236220472441
 10
36.32381889763779
 20
15.36614173228346
 10
36.32381889763779
 20
15.37007874015747
  0
LWPOLYLINE
  5
112A
330
1E
100
AcDbEntity
  8
7
100
AcDbPolyline
 90
        7
 70
     0
 43
0.0098425196850394
 10
37.88582677165354
 20
15.23818897637795
 10
37.88582677165354
 20
15.27263779527559
 10
37.88582677165354
 20
15.30413385826771
 10
37.88582677165354
 20
15.33169291338582
 10
37.88582677165354
 20
15.35236220472441
 10
37.88582677165354
 20
15.36614173228346
 10
37.88582677165354
 20
15.37007874015747
  0
LWPOLYLINE
  5
1133
330
1E
100
AcDbEntity
  8
7
100
AcDbPolyline
 90
        7
 70
     0
 43
0.0098425196850394
 10
37.37893700787401
 20
15.23818897637795
 10
37.37893700787401
 20
15.27263779527559
 10
37.37893700787401
 20
15.30413385826771
 10
37.37893700787401
 20
15.33169291338582
 10
37.37893700787401
 20
15.35236220472441
 10
37.37893700787401
 20
15.36614173228346
 10
37.37893700787401
 20
15.37007874015747
  0
LINE
  5
113C
330
1E
100
AcDbEntity
  8
7
100
AcDbLine
 10
37.98031496062991
 20
15.17125984251968
 30
0.0
 11
36.23031496062992
 21
15.17125984251968
 31
0.0
  0
LWPOLYLINE
  5
113D
330
1E
100
AcDbEntity
  8
7
100
AcDbPolyline
 90
        6
 70
     0
 43
0.0098425196850394
 10
36.23031496062992
 20
15.17125984251968
 10
36.23031496062992
 20
15.16732283464566
 10
36.23031496062992
 20
15.15354330708661
 10
36.23031496062992
 20
15.13287401574803
 10
36.23031496062992
 20
15.10629921259842
 10
36.23031496062992
 20
15.07775590551181
  0
LWPOLYLINE
  5
1145
330
1E
100
AcDbEntity
  8
7
100
AcDbPolyline
 90
        6
 70
     0
 43
0.0098425196850394
 10
37.98031496062991
 20
15.17125984251968
 10
37.98031496062991
 20
15.16732283464566
 10
37.98031496062991
 20
15.15354330708661
 10
37.98031496062991
 20
15.13287401574803
 10
37.98031496062991
 20
15.10629921259842
 10
37.98031496062991
 20
15.07775590551181
  0
LINE
  5
114D
330
1E
100
AcDbEntity
  8
7
100
AcDbLine
 10
36.23031496062992
 20
15.07775590551181
 30
0.0
 11
37.98031496062991
 21
15.07775590551181
 31
0.0
  0
LINE
  5
114E
330
1E
100
AcDbEntity
  8
7
100
AcDbLine
 10
36.23031496062992
 20
15.07775590551181
 30
0.0
 11
36.23031496062992
 21
14.25787401574803
 31
0.0
  0
LINE
  5
114F
330
1E
100
AcDbEntity
  8
7
100
AcDbLine
 10
37.98031496062991
 20
15.07775590551181
 30
0.0
 11
37.98031496062991
 21
14.25787401574803
 31
0.0
  0
LINE
  5
1150
330
1E
100
AcDbEntity
  8
7
100
AcDbLine
 10
36.23031496062992
 20
14.25787401574803
 30
0.0
 11
37.98031496062991
 21
14.25787401574803
 31
0.0
  0
LWPOLYLINE
  5
1151
330
1E
100
AcDbEntity
  8
7
100
AcDbPolyline
 90
        6
 70
     0
 43
0.0098425196850394
 10
36.23031496062992
 20
9.10531496062992
 10
37.98031496062991
 20
9.10531496062992
 10
37.98031496062991
 20
9.11023622047244
 10
37.98031496062991
 20
9.124015748031496
 10
37.98031496062991
 20
9.145669291338583
 10
37.98031496062991
 20
9.174212598425196
  0
LWPOLYLINE
  5
1159
330
1E
100
AcDbEntity
  8
7
100
AcDbPolyline
 90
        4
 70
     0
 43
0.0098425196850394
 10
37.98031496062991
 20
9.174212598425196
 10
37.98031496062991
 20
9.206692913385825
 10
37.98031496062991
 20
9.243110236220472
 10
36.23031496062992
 20
9.243110236220472
  0
LWPOLYLINE
  5
115F
330
1E
100
AcDbEntity
  8
7
100
AcDbPolyline
 90
        7
 70
     0
 43
0.0098425196850394
 10
36.23031496062992
 20
9.10531496062992
 10
36.23031496062992
 20
9.11023622047244
 10
36.23031496062992
 20
9.124015748031496
 10
36.23031496062992
 20
9.145669291338583
 10
36.23031496062992
 20
9.174212598425196
 10
36.23031496062992
 20
9.206692913385825
 10
36.23031496062992
 20
9.243110236220472
  0
LINE
  5
1168
330
1E
100
AcDbEntity
  8
7
100
AcDbLine
 10
37.98031496062991
 20
9.243110236220472
 30
0.0
 11
37.98031496062991
 21
14.25787401574803
 31
0.0
  0
LINE
  5
1169
330
1E
100
AcDbEntity
  8
7
100
AcDbLine
 10
36.23031496062992
 20
9.243110236220472
 30
0.0
 11
36.23031496062992
 21
14.25787401574803
 31
0.0
  0
ENDSEC
  0
SECTION
  2
OBJECTS
  0
DICTIONARY
  5
C
330
0
100
AcDbDictionary
  3
ACAD_GROUP
350
D
  3
ACAD_LAYOUT
350
19
  3
ACAD_MLINESTYLE
350
16
  3
ACAD_PLOTSETTINGS
350
18
  3
ACAD_PLOTSTYLENAME
350
E
  3
ACDBHEADERROUNDTRIPXREC
350
11A2
  0
DICTIONARY
  5
11C5
330
1E
100
AcDbDictionary
280
     1
  3
ACAD_LAYOUTSELFREF
360
11C6
  0
DICTIONARY
  5
11C3
330
1A
100
AcDbDictionary
280
     1
  3
ACAD_LAYOUTSELFREF
360
11C4
  0
DICTIONARY
  5
D
102
{ACAD_REACTORS
330
C
102
}
330
C
100
AcDbDictionary
  0
DICTIONARY
  5
19
102
{ACAD_REACTORS
330
C
102
}
330
C
100
AcDbDictionary
  0
DICTIONARY
  5
16
102
{ACAD_REACTORS
330
C
102
}
330
C
100
AcDbDictionary
  3
STANDARD
350
17
  0
DICTIONARY
  5
18
102
{ACAD_REACTORS
330
C
102
}
330
C
100
AcDbDictionary
  0
ACDBDICTIONARYWDFLT
  5
E
102
{ACAD_REACTORS
330
C
102
}
330
C
100
AcDbDictionary
281
     1
  3
Normal
350
F
100
AcDbDictionaryWithDefault
340
F
  0
DICTIONARY
  5
11A2
102
{ACAD_REACTORS
330
C
102
}
330
C
100
AcDbDictionary
  3
CEPSNTYPE
350
11AC
  3
DIMSTYLEDATA
350
11B0
  3
FINGERPRINTGUID
350
11AD
  3
HYPERLINKBASE
350
11A5
  3
INSUNITS
350
11AB
  3
LAYOUTDICT
350
11A7
  3
LWETCUNION
350
11AA
  3
PLOTSETDICT
350
11A8
  3
PLOTSTYLNAMDICT
350
11A9
  3
PSVPSCALE
350
11AF
  3
PUCSBASE
350
11B3
  3
PUCSORGBACK
350
11B9
  3
PUCSORGBOTTOM
350
11B5
  3
PUCSORGFRONT
350
11B8
  3
PUCSORGLEFT
350
11B6
  3
PUCSORGRIGHT
350
11B7
  3
PUCSORGTOP
350
11B4
  3
PUCSORTHOREF
350
11B1
  3
PUCSORTHOVIEW
350
11B2
  3
STYLESHEET
350
11A6
  3
TSTACKALIGN
350
11A3
  3
TSTACKSIZE
350
11A4
  3
UCSBASE
350
11BC
  3
UCSORGBACK
350
11C2
  3
UCSORGBOTTOM
350
11BE
  3
UCSORGFRONT
350
11C1
  3
UCSORGLEFT
350
11BF
  3
UCSORGRIGHT
350
11C0
  3
UCSORGTOP
350
11BD
  3
UCSORTHOREF
350
11BA
  3
UCSORTHOVIEW
350
11BB
  3
VERSIONGUID
350
11AE
  0
XRECORD
  5
11C6
102
{ACAD_REACTORS
330
11C5
102
}
330
11C5
100
AcDbXrecord
340
1E
  0
XRECORD
  5
11C4
102
{ACAD_REACTORS
330
11C3
102
}
330
11C3
100
AcDbXrecord
340
1A
  0
MLINESTYLE
  5
17
102
{ACAD_REACTORS
330
16
102
}
330
16
100
AcDbMlineStyle
  2
STANDARD
 70
     0
  3

 62
   256
 51
90.0
 52
90.0
 71
     2
 49
0.5
 62
   256
  6
BYLAYER
 49
-0.5
 62
   256
  6
BYLAYER
  0
ACDBPLACEHOLDER
  5
F
102
{ACAD_REACTORS
330
E
102
}
330
E
100
AcDbPlaceHolder
280
     0
  0
XRECORD
  5
11AC
102
{ACAD_REACTORS
330
11A2
102
}
330
11A2
100
AcDbXrecord
 90
        0
  0
XRECORD
  5
11B0
102
{ACAD_REACTORS
330
11A2
102
}
330
11A2
100
AcDbXrecord
1000
DSTYLE
1002
{
1070
   279
 70
     2
1002
}
  0
XRECORD
  5
11AD
102
{ACAD_REACTORS
330
11A2
102
}
330
11A2
100
AcDbXrecord
  1
{E97FC496-4F12-4000-8640-88D52AE020BC}
  0
XRECORD
  5
11A5
102
{ACAD_REACTORS
330
11A2
102
}
330
11A2
100
AcDbXrecord
  1

  0
XRECORD
  5
11AB
102
{ACAD_REACTORS
330
11A2
102
}
330
11A2
100
AcDbXrecord
 90
        0
  0
XRECORD
  5
11A7
102
{ACAD_REACTORS
330
11A2
102
}
330
11A2
100
AcDbXrecord
340
19
  0
XRECORD
  5
11AA
102
{ACAD_REACTORS
330
11A2
102
}
330
11A2
100
AcDbXrecord
 90
    14877
  0
XRECORD
  5
11A8
102
{ACAD_REACTORS
330
11A2
102
}
330
11A2
100
AcDbXrecord
340
18
  0
XRECORD
  5
11A9
102
{ACAD_REACTORS
330
11A2
102
}
330
11A2
100
AcDbXrecord
340
E
  0
XRECORD
  5
11AF
102
{ACAD_REACTORS
330
11A2
102
}
330
11A2
100
AcDbXrecord
 40
0.0
  0
XRECORD
  5
11B3
102
{ACAD_REACTORS
330
11A2
102
}
330
11A2
100
AcDbXrecord
340
0
  0
XRECORD
  5
11B9
102
{ACAD_REACTORS
330
11A2
102
}
330
11A2
100
AcDbXrecord
 10
0.0
 20
0.0
 30
0.0
  0
XRECORD
  5
11B5
102
{ACAD_REACTORS
330
11A2
102
}
330
11A2
100
AcDbXrecord
 10
0.0
 20
0.0
 30
0.0
  0
XRECORD
  5
11B8
102
{ACAD_REACTORS
330
11A2
102
}
330
11A2
100
AcDbXrecord
 10
0.0
 20
0.0
 30
0.0
  0
XRECORD
  5
11B6
102
{ACAD_REACTORS
330
11A2
102
}
330
11A2
100
AcDbXrecord
 10
0.0
 20
0.0
 30
0.0
  0
XRECORD
  5
11B7
102
{ACAD_REACTORS
330
11A2
102
}
330
11A2
100
AcDbXrecord
 10
0.0
 20
0.0
 30
0.0
  0
XRECORD
  5
11B4
102
{ACAD_REACTORS
330
11A2
102
}
330
11A2
100
AcDbXrecord
 10
0.0
 20
0.0
 30
0.0
  0
XRECORD
  5
11B1
102
{ACAD_REACTORS
330
11A2
102
}
330
11A2
100
AcDbXrecord
340
0
  0
XRECORD
  5
11B2
102
{ACAD_REACTORS
330
11A2
102
}
330
11A2
100
AcDbXrecord
 70
     0
  0
XRECORD
  5
11A6
102
{ACAD_REACTORS
330
11A2
102
}
330
11A2
100
AcDbXrecord
  1

  0
XRECORD
  5
11A3
102
{ACAD_REACTORS
330
11A2
102
}
330
11A2
100
AcDbXrecord
 90
        1
  0
XRECORD
  5
11A4
102
{ACAD_REACTORS
330
11A2
102
}
330
11A2
100
AcDbXrecord
 90
       70
  0
XRECORD
  5
11BC
102
{ACAD_REACTORS
330
11A2
102
}
330
11A2
100
AcDbXrecord
340
0
  0
XRECORD
  5
11C2
102
{ACAD_REACTORS
330
11A2
102
}
330
11A2
100
AcDbXrecord
 10
0.0
 20
0.0
 30
0.0
  0
XRECORD
  5
11BE
102
{ACAD_REACTORS
330
11A2
102
}
330
11A2
100
AcDbXrecord
 10
0.0
 20
0.0
 30
0.0
  0
XRECORD
  5
11C1
102
{ACAD_REACTORS
330
11A2
102
}
330
11A2
100
AcDbXrecord
 10
0.0
 20
0.0
 30
0.0
  0
XRECORD
  5
11BF
102
{ACAD_REACTORS
330
11A2
102
}
330
11A2
100
AcDbXrecord
 10
0.0
 20
0.0
 30
0.0
  0
XRECORD
  5
11C0
102
{ACAD_REACTORS
330
11A2
102
}
330
11A2
100
AcDbXrecord
 10
0.0
 20
0.0
 30
0.0
  0
XRECORD
  5
11BD
102
{ACAD_REACTORS
330
11A2
102
}
330
11A2
100
AcDbXrecord
 10
0.0
 20
0.0
 30
0.0
  0
XRECORD
  5
11BA
102
{ACAD_REACTORS
330
11A2
102
}
330
11A2
100
AcDbXrecord
340
0
  0
XRECORD
  5
11BB
102
{ACAD_REACTORS
330
11A2
102
}
330
11A2
100
AcDbXrecord
 70
     0
  0
XRECORD
  5
11AE
102
{ACAD_REACTORS
330
11A2
102
}
330
11A2
100
AcDbXrecord
  1
{CD4C80AC-D5C2-4FA9-92B6-EDBD046305D2}
  0
ENDSEC
  0
EOF
