  0
SECTION
  2
HEADER
  9
$ACADVER
  1
AC1012
  9
$DWGCODEPAGE
  3
ANSI_1252
  9
$INSBASE
 10
0.0
 20
0.0
 30
0.0
  9
$EXTMIN
 10
1.354614287329155
 20
0.1885528776195748
 30
-0.0015258207003583
  9
$EXTMAX
 10
2.291198747105894
 20
4.11341859436759
 30
0.0000000349246037
  9
$LIMMIN
 10
0.0
 20
0.0
  9
$LIMMAX
 10
12.0
 20
9.0
  9
$ORTHOMODE
 70
     0
  9
$REGENMODE
 70
     1
  9
$FILLMODE
 70
     1
  9
$QTEXTMODE
 70
     0
  9
$MIRRTEXT
 70
     1
  9
$DRAGMODE
 70
     2
  9
$LTSCALE
 40
1.0
  9
$OSMODE
 70
    33
  9
$ATTMODE
 70
     1
  9
$TEXTSIZE
 40
0.2
  9
$TRACEWID
 40
0.05
  9
$TEXTSTYLE
  7
STANDARD
  9
$CLAYER
  8
0
  9
$CELTYPE
  6
BYLAYER
  9
$CECOLOR
 62
   256
  9
$CELTSCALE
 40
1.0
  9
$DELOBJ
 70
     1
  9
$DISPSILH
 70
     0
  9
$DIMSCALE
 40
1.0
  9
$DIMASZ
 40
0.18
  9
$DIMEXO
 40
0.0625
  9
$DIMDLI
 40
0.38
  9
$DIMRND
 40
0.0
  9
$DIMDLE
 40
0.0
  9
$DIMEXE
 40
0.18
  9
$DIMTP
 40
0.0
  9
$DIMTM
 40
0.0
  9
$DIMTXT
 40
0.18
  9
$DIMCEN
 40
0.09
  9
$DIMTSZ
 40
0.0
  9
$DIMTOL
 70
     0
  9
$DIMLIM
 70
     0
  9
$DIMTIH
 70
     1
  9
$DIMTOH
 70
     1
  9
$DIMSE1
 70
     0
  9
$DIMSE2
 70
     0
  9
$DIMTAD
 70
     0
  9
$DIMZIN
 70
     0
  9
$DIMBLK
  1

  9
$DIMASO
 70
     1
  9
$DIMSHO
 70
     1
  9
$DIMPOST
  1

  9
$DIMAPOST
  1

  9
$DIMALT
 70
     0
  9
$DIMALTD
 70
     2
  9
$DIMALTF
 40
25.4
  9
$DIMLFAC
 40
1.0
  9
$DIMTOFL
 70
     0
  9
$DIMTVP
 40
0.0
  9
$DIMTIX
 70
     0
  9
$DIMSOXD
 70
     0
  9
$DIMSAH
 70
     0
  9
$DIMBLK1
  1

  9
$DIMBLK2
  1

  9
$DIMSTYLE
  2
STANDARD
  9
$DIMCLRD
 70
     0
  9
$DIMCLRE
 70
     0
  9
$DIMCLRT
 70
     0
  9
$DIMTFAC
 40
1.0
  9
$DIMGAP
 40
0.09
  9
$DIMJUST
 70
     0
  9
$DIMSD1
 70
     0
  9
$DIMSD2
 70
     0
  9
$DIMTOLJ
 70
     1
  9
$DIMTZIN
 70
     0
  9
$DIMALTZ
 70
     0
  9
$DIMALTTZ
 70
     0
  9
$DIMFIT
 70
     5
  9
$DIMUPT
 70
     0
  9
$DIMUNIT
 70
     2
  9
$DIMDEC
 70
     4
  9
$DIMTDEC
 70
     4
  9
$DIMALTU
 70
     2
  9
$DIMALTTD
 70
     2
  9
$DIMTXSTY
  7
STANDARD
  9
$DIMAUNIT
 70
     0
  9
$LUNITS
 70
     2
  9
$LUPREC
 70
     4
  9
$SKETCHINC
 40
0.1
  9
$FILLETRAD
 40
0.0
  9
$AUNITS
 70
     0
  9
$AUPREC
 70
     0
  9
$MENU
  1
acad
  9
$ELEVATION
 40
0.0
  9
$PELEVATION
 40
0.0
  9
$THICKNESS
 40
0.0
  9
$LIMCHECK
 70
     0
  9
$BLIPMODE
 70
     0
  9
$CHAMFERA
 40
0.0
  9
$CHAMFERB
 40
0.0
  9
$CHAMFERC
 40
0.0
  9
$CHAMFERD
 40
0.0
  9
$SKPOLY
 70
     0
  9
$TDCREATE
 40
2452601.412650463
  9
$TDUPDATE
 40
2452601.417537036
  9
$TDINDWG
 40
0.0008877662
  9
$TDUSRTIMER
 40
0.0008877662
  9
$USRTIMER
 70
     1
  9
$ANGBASE
 50
0.0
  9
$ANGDIR
 70
     0
  9
$PDMODE
 70
     0
  9
$PDSIZE
 40
0.0
  9
$PLINEWID
 40
0.0
  9
$COORDS
 70
     2
  9
$SPLFRAME
 70
     0
  9
$SPLINETYPE
 70
     6
  9
$SPLINESEGS
 70
     8
  9
$ATTDIA
 70
     0
  9
$ATTREQ
 70
     1
  9
$HANDLING
 70
  4097
  9
$HANDSEED
  5
435A
  9
$SURFTAB1
 70
     6
  9
$SURFTAB2
 70
     6
  9
$SURFTYPE
 70
     6
  9
$SURFU
 70
     6
  9
$SURFV
 70
     6
  9
$UCSNAME
  2

  9
$UCSORG
 10
0.0
 20
0.0
 30
0.0
  9
$UCSXDIR
 10
1.0
 20
0.0
 30
0.0
  9
$UCSYDIR
 10
0.0
 20
1.0
 30
0.0
  9
$PUCSNAME
  2

  9
$PUCSORG
 10
0.0
 20
0.0
 30
0.0
  9
$PUCSXDIR
 10
1.0
 20
0.0
 30
0.0
  9
$PUCSYDIR
 10
0.0
 20
1.0
 30
0.0
  9
$USERI1
 70
     0
  9
$USERI2
 70
     0
  9
$USERI3
 70
     0
  9
$USERI4
 70
     0
  9
$USERI5
 70
     0
  9
$USERR1
 40
0.0
  9
$USERR2
 40
0.0
  9
$USERR3
 40
0.0
  9
$USERR4
 40
0.0
  9
$USERR5
 40
0.0
  9
$WORLDVIEW
 70
     1
  9
$SHADEDGE
 70
     3
  9
$SHADEDIF
 70
    70
  9
$TILEMODE
 70
     1
  9
$MAXACTVP
 70
    16
  9
$PINSBASE
 10
0.0
 20
0.0
 30
0.0
  9
$PLIMCHECK
 70
     0
  9
$PEXTMIN
 10
1.000000000000000E+20
 20
1.000000000000000E+20
 30
1.000000000000000E+20
  9
$PEXTMAX
 10
-1.000000000000000E+20
 20
-1.000000000000000E+20
 30
-1.000000000000000E+20
  9
$PLIMMIN
 10
0.0
 20
0.0
  9
$PLIMMAX
 10
12.0
 20
9.0
  9
$UNITMODE
 70
     0
  9
$VISRETAIN
 70
     0
  9
$PLINEGEN
 70
     0
  9
$PSLTSCALE
 70
     1
  9
$TREEDEPTH
 70
  3020
  9
$PICKSTYLE
 70
     1
  9
$CMLSTYLE
  2
STANDARD
  9
$CMLJUST
 70
     0
  9
$CMLSCALE
 40
1.0
  9
$SAVEIMAGES
 70
     1
  0
ENDSEC
  0
SECTION
  2
CLASSES
  0
CLASS
  1
ACDBDICTIONARYWDFLT
  2
AcDbDictionaryWithDefault
  3
AutoCAD 2000
 90
    32768
280
     0
281
     0
  0
CLASS
  1
ACDBPLACEHOLDER
  2
AcDbPlaceHolder
  3
AutoCAD 2000
 90
    32768
280
     0
281
     0
  0
CLASS
  1
LAYOUT
  2
AcDbLayout
  3
AutoCAD 2000
 90
    32768
280
     0
281
     0
  0
CLASS
  1
LONG_TRANSACTION
  2
AcDbLongTransaction
  3
AutoCAD 2000
 90
    32768
280
     0
281
     0
  0
CLASS
  1
LWPOLYLINE
  2
AcDbPolyline
  3
AutoCAD 2000
 90
    32768
280
     0
281
     1
  0
CLASS
  1
HATCH
  2
AcDbHatch
  3
AutoCAD 2000
 90
    32768
280
     0
281
     1
  0
CLASS
  1
XRECORD
  2
AcDbXrecord
  3
AutoCAD 2000
 90
    32768
280
     0
281
     0
  0
ENDSEC
  0
SECTION
  2
TABLES
  0
TABLE
  2
VPORT
  5
8
330
0
100
AcDbSymbolTable
 70
     3
  0
VPORT
  5
4355
330
8
100
AcDbSymbolTableRecord
100
AcDbViewportTableRecord
  2
*ACTIVE
 70
     0
 10
0.0
 20
0.0
 11
1.0
 21
1.0
 12
1.822906517217525
 22
2.150985735993582
 13
0.0
 23
0.0
 14
1.0
 24
1.0
 15
0.0
 25
0.0
 16
0.0
 26
0.0
 36
1.0
 17
0.0
 27
0.0
 37
0.0
 40
3.955892323204521
 41
1.62928759894459
 42
50.0
 43
0.0
 44
0.0
 50
0.0
 51
0.0
 71
     0
 72
   100
 73
     1
 74
     1
 75
     0
 76
     0
 77
     0
 78
     0
  0
ENDTAB
  0
TABLE
  2
LTYPE
  5
5
330
0
100
AcDbSymbolTable
 70
    25
  0
LTYPE
  5
13
330
5
100
AcDbSymbolTableRecord
100
AcDbLinetypeTableRecord
  2
BYBLOCK
 70
     0
  3

 72
    65
 73
     0
 40
0.0
  0
LTYPE
  5
14
330
5
100
AcDbSymbolTableRecord
100
AcDbLinetypeTableRecord
  2
BYLAYER
 70
     0
  3

 72
    65
 73
     0
 40
0.0
  0
LTYPE
  5
15
330
5
100
AcDbSymbolTableRecord
100
AcDbLinetypeTableRecord
  2
CONTINUOUS
 70
     0
  3
Solid line
 72
    65
 73
     0
 40
0.0
  0
LTYPE
  5
22
330
5
100
AcDbSymbolTableRecord
100
AcDbLinetypeTableRecord
  2
BORDER
 70
     0
  3
__ __ . __ __ . __ __ . __ __ . __ __ . __ __ .
 72
    65
 73
     6
 40
1.75
 49
0.5
 74
     0
 49
-0.25
 74
     0
 49
0.5
 74
     0
 49
-0.25
 74
     0
 49
0.5
 74
     0
 49
-0.25
 74
     0
  0
LTYPE
  5
23
330
5
100
AcDbSymbolTableRecord
100
AcDbLinetypeTableRecord
  2
BORDER2
 70
     0
  3
__.__.__.__.__.__.__.__.__.__.__.__.__.__.__.__
 72
    65
 73
     6
 40
0.875
 49
0.25
 74
     0
 49
-0.125
 74
     0
 49
0.25
 74
     0
 49
-0.125
 74
     0
 49
0.25
 74
     0
 49
-0.125
 74
     0
  0
LTYPE
  5
24
330
5
100
AcDbSymbolTableRecord
100
AcDbLinetypeTableRecord
  2
BORDERX2
 70
     0
  3
____  ____  .  ____  ____  .  
 72
    65
 73
     6
 40
3.5
 49
1.0
 74
     0
 49
-0.5
 74
     0
 49
1.0
 74
     0
 49
-0.5
 74
     0
 49
1.0
 74
     0
 49
-0.5
 74
     0
  0
LTYPE
  5
25
330
5
100
AcDbSymbolTableRecord
100
AcDbLinetypeTableRecord
  2
CENTER
 70
     0
  3
____ _ ____ _ ____ _ ____ _ ____ _ ____ _ ____
 72
    65
 73
     4
 40
2.0
 49
1.25
 74
     0
 49
-0.25
 74
     0
 49
0.25
 74
     0
 49
-0.25
 74
     0
  0
LTYPE
  5
26
330
5
100
AcDbSymbolTableRecord
100
AcDbLinetypeTableRecord
  2
CENTER2
 70
     0
  3
____ _ ____ _ ____ _ ____ _ ____ _ ____ _ ____
 72
    65
 73
     4
 40
1.125
 49
0.75
 74
     0
 49
-0.125
 74
     0
 49
0.125
 74
     0
 49
-0.125
 74
     0
  0
LTYPE
  5
27
330
5
100
AcDbSymbolTableRecord
100
AcDbLinetypeTableRecord
  2
CENTERX2
 70
     0
  3
________  __  ________  __  ________  __  
 72
    65
 73
     4
 40
4.0
 49
2.5
 74
     0
 49
-0.5
 74
     0
 49
0.5
 74
     0
 49
-0.5
 74
     0
  0
LTYPE
  5
28
330
5
100
AcDbSymbolTableRecord
100
AcDbLinetypeTableRecord
  2
DASHDOT
 70
     0
  3
__ . __ . __ . __ . __ . __ . __ . 
 72
    65
 73
     4
 40
1.0
 49
0.5
 74
     0
 49
-0.25
 74
     0
 49
0.0
 74
     0
 49
-0.25
 74
     0
  0
LTYPE
  5
29
330
5
100
AcDbSymbolTableRecord
100
AcDbLinetypeTableRecord
  2
DASHDOT2
 70
     0
  3
_._._._._._._._._._._._._._._._.
 72
    65
 73
     4
 40
0.5
 49
0.25
 74
     0
 49
-0.125
 74
     0
 49
0.0
 74
     0
 49
-0.125
 74
     0
  0
LTYPE
  5
2A
330
5
100
AcDbSymbolTableRecord
100
AcDbLinetypeTableRecord
  2
DASHDOTX2
 70
     0
  3
____  .  ____  .  ____  .  ____  .  
 72
    65
 73
     4
 40
2.0
 49
1.0
 74
     0
 49
-0.5
 74
     0
 49
0.0
 74
     0
 49
-0.5
 74
     0
  0
LTYPE
  5
2B
330
5
100
AcDbSymbolTableRecord
100
AcDbLinetypeTableRecord
  2
DASHED
 70
     0
  3
__ __ __ __ __ __ __ __ __ __ __ __ 
 72
    65
 73
     2
 40
0.75
 49
0.5
 74
     0
 49
-0.25
 74
     0
  0
LTYPE
  5
2C
330
5
100
AcDbSymbolTableRecord
100
AcDbLinetypeTableRecord
  2
DASHED2
 70
     0
  3
_ _ _ _ _ _ _ _ _ _ _ _ _ _ _ _ _ _ 
 72
    65
 73
     2
 40
0.375
 49
0.25
 74
     0
 49
-0.125
 74
     0
  0
LTYPE
  5
2D
330
5
100
AcDbSymbolTableRecord
100
AcDbLinetypeTableRecord
  2
DASHEDX2
 70
     0
  3
____  ____  ____  ____  ____  ____  
 72
    65
 73
     2
 40
1.5
 49
1.0
 74
     0
 49
-0.5
 74
     0
  0
LTYPE
  5
2E
330
5
100
AcDbSymbolTableRecord
100
AcDbLinetypeTableRecord
  2
DIVIDE
 70
     0
  3
____ . . ____ . . ____ . . ____ . . 
 72
    65
 73
     6
 40
1.25
 49
0.5
 74
     0
 49
-0.25
 74
     0
 49
0.0
 74
     0
 49
-0.25
 74
     0
 49
0.0
 74
     0
 49
-0.25
 74
     0
  0
LTYPE
  5
2F
330
5
100
AcDbSymbolTableRecord
100
AcDbLinetypeTableRecord
  2
DIVIDE2
 70
     0
  3
__..__..__..__..__..__..__..__..__..
 72
    65
 73
     6
 40
0.625
 49
0.25
 74
     0
 49
-0.125
 74
     0
 49
0.0
 74
     0
 49
-0.125
 74
     0
 49
0.0
 74
     0
 49
-0.125
 74
     0
  0
LTYPE
  5
30
330
5
100
AcDbSymbolTableRecord
100
AcDbLinetypeTableRecord
  2
DIVIDEX2
 70
     0
  3
________  .  .  ________  .  .  ________  .  . 
 72
    65
 73
     6
 40
2.5
 49
1.0
 74
     0
 49
-0.5
 74
     0
 49
0.0
 74
     0
 49
-0.5
 74
     0
 49
0.0
 74
     0
 49
-0.5
 74
     0
  0
LTYPE
  5
31
330
5
100
AcDbSymbolTableRecord
100
AcDbLinetypeTableRecord
  2
DOT
 70
     0
  3
. . . . . . . . . . . . . . . . . . 
 72
    65
 73
     2
 40
0.25
 49
0.0
 74
     0
 49
-0.25
 74
     0
  0
LTYPE
  5
32
330
5
100
AcDbSymbolTableRecord
100
AcDbLinetypeTableRecord
  2
DOT2
 70
     0
  3
....................................
 72
    65
 73
     2
 40
0.125
 49
0.0
 74
     0
 49
-0.125
 74
     0
  0
LTYPE
  5
33
330
5
100
AcDbSymbolTableRecord
100
AcDbLinetypeTableRecord
  2
DOTX2
 70
     0
  3
.  .  .  .  .  .  .  .  .  .  .  .  .  
 72
    65
 73
     2
 40
0.5
 49
0.0
 74
     0
 49
-0.5
 74
     0
  0
LTYPE
  5
34
330
5
100
AcDbSymbolTableRecord
100
AcDbLinetypeTableRecord
  2
HIDDEN
 70
     0
  3
__ __ __ __ __ __ __ __ __ __ __ __ 
 72
    65
 73
     2
 40
0.375
 49
0.25
 74
     0
 49
-0.125
 74
     0
  0
LTYPE
  5
35
330
5
100
AcDbSymbolTableRecord
100
AcDbLinetypeTableRecord
  2
HIDDEN2
 70
     0
  3
_ _ _ _ _ _ _ _ _ _ _ _ _ _ _ _ _ _ 
 72
    65
 73
     2
 40
0.1875
 49
0.125
 74
     0
 49
-0.0625
 74
     0
  0
LTYPE
  5
36
330
5
100
AcDbSymbolTableRecord
100
AcDbLinetypeTableRecord
  2
HIDDENX2
 70
     0
  3
____ ____ ____ ____ ____ ____ ____ 
 72
    65
 73
     2
 40
0.75
 49
0.5
 74
     0
 49
-0.25
 74
     0
  0
LTYPE
  5
37
330
5
100
AcDbSymbolTableRecord
100
AcDbLinetypeTableRecord
  2
PHANTOM
 70
     0
  3
______  __  __  ______  __  __  
 72
    65
 73
     6
 40
2.5
 49
1.25
 74
     0
 49
-0.25
 74
     0
 49
0.25
 74
     0
 49
-0.25
 74
     0
 49
0.25
 74
     0
 49
-0.25
 74
     0
  0
LTYPE
  5
38
330
5
100
AcDbSymbolTableRecord
100
AcDbLinetypeTableRecord
  2
PHANTOM2
 70
     0
  3
___ _ _ ___ _ _ ___ _ _ ___ _ _ 
 72
    65
 73
     6
 40
1.25
 49
0.625
 74
     0
 49
-0.125
 74
     0
 49
0.125
 74
     0
 49
-0.125
 74
     0
 49
0.125
 74
     0
 49
-0.125
 74
     0
  0
LTYPE
  5
39
330
5
100
AcDbSymbolTableRecord
100
AcDbLinetypeTableRecord
  2
PHANTOMX2
 70
     0
  3
___ _ _ ___ _ _ ___ _ _ ___ _ _ 
 72
    65
 73
     6
 40
5.0
 49
2.5
 74
     0
 49
-0.5
 74
     0
 49
0.5
 74
     0
 49
-0.5
 74
     0
 49
0.5
 74
     0
 49
-0.5
 74
     0
  0
ENDTAB
  0
TABLE
  2
LAYER
  5
2
330
0
100
AcDbSymbolTable
 70
   256
  0
LAYER
  5
10
330
2
100
AcDbSymbolTableRecord
100
AcDbLayerTableRecord
  2
0
 70
     0
 62
     7
  6
CONTINUOUS
  0
LAYER
  5
3A
330
2
100
AcDbSymbolTableRecord
100
AcDbLayerTableRecord
  2
1
 70
     0
 62
     1
  6
CONTINUOUS
  0
LAYER
  5
3B
330
2
100
AcDbSymbolTableRecord
100
AcDbLayerTableRecord
  2
2
 70
     0
 62
     2
  6
CONTINUOUS
  0
LAYER
  5
3C
330
2
100
AcDbSymbolTableRecord
100
AcDbLayerTableRecord
  2
3
 70
     0
 62
     3
  6
CONTINUOUS
  0
LAYER
  5
3D
330
2
100
AcDbSymbolTableRecord
100
AcDbLayerTableRecord
  2
4
 70
     0
 62
     4
  6
CONTINUOUS
  0
LAYER
  5
3E
330
2
100
AcDbSymbolTableRecord
100
AcDbLayerTableRecord
  2
5
 70
     0
 62
     5
  6
CONTINUOUS
  0
LAYER
  5
3F
330
2
100
AcDbSymbolTableRecord
100
AcDbLayerTableRecord
  2
6
 70
     0
 62
     6
  6
CONTINUOUS
  0
LAYER
  5
40
330
2
100
AcDbSymbolTableRecord
100
AcDbLayerTableRecord
  2
7
 70
     0
 62
     7
  6
CONTINUOUS
  0
LAYER
  5
41
330
2
100
AcDbSymbolTableRecord
100
AcDbLayerTableRecord
  2
8
 70
     0
 62
     8
  6
CONTINUOUS
  0
LAYER
  5
42
330
2
100
AcDbSymbolTableRecord
100
AcDbLayerTableRecord
  2
9
 70
     0
 62
     9
  6
CONTINUOUS
  0
LAYER
  5
43
330
2
100
AcDbSymbolTableRecord
100
AcDbLayerTableRecord
  2
10
 70
     0
 62
    10
  6
CONTINUOUS
  0
LAYER
  5
44
330
2
100
AcDbSymbolTableRecord
100
AcDbLayerTableRecord
  2
11
 70
     0
 62
    11
  6
CONTINUOUS
  0
LAYER
  5
45
330
2
100
AcDbSymbolTableRecord
100
AcDbLayerTableRecord
  2
12
 70
     0
 62
    12
  6
CONTINUOUS
  0
LAYER
  5
46
330
2
100
AcDbSymbolTableRecord
100
AcDbLayerTableRecord
  2
13
 70
     0
 62
    13
  6
CONTINUOUS
  0
LAYER
  5
47
330
2
100
AcDbSymbolTableRecord
100
AcDbLayerTableRecord
  2
14
 70
     0
 62
    14
  6
CONTINUOUS
  0
LAYER
  5
48
330
2
100
AcDbSymbolTableRecord
100
AcDbLayerTableRecord
  2
15
 70
     0
 62
    15
  6
CONTINUOUS
  0
LAYER
  5
49
330
2
100
AcDbSymbolTableRecord
100
AcDbLayerTableRecord
  2
16
 70
     0
 62
    16
  6
CONTINUOUS
  0
LAYER
  5
4A
330
2
100
AcDbSymbolTableRecord
100
AcDbLayerTableRecord
  2
17
 70
     0
 62
    17
  6
CONTINUOUS
  0
LAYER
  5
4B
330
2
100
AcDbSymbolTableRecord
100
AcDbLayerTableRecord
  2
18
 70
     0
 62
    18
  6
CONTINUOUS
  0
LAYER
  5
4C
330
2
100
AcDbSymbolTableRecord
100
AcDbLayerTableRecord
  2
19
 70
     0
 62
    19
  6
CONTINUOUS
  0
LAYER
  5
4D
330
2
100
AcDbSymbolTableRecord
100
AcDbLayerTableRecord
  2
20
 70
     0
 62
    20
  6
CONTINUOUS
  0
LAYER
  5
4E
330
2
100
AcDbSymbolTableRecord
100
AcDbLayerTableRecord
  2
21
 70
     0
 62
    21
  6
CONTINUOUS
  0
LAYER
  5
4F
330
2
100
AcDbSymbolTableRecord
100
AcDbLayerTableRecord
  2
22
 70
     0
 62
    22
  6
CONTINUOUS
  0
LAYER
  5
50
330
2
100
AcDbSymbolTableRecord
100
AcDbLayerTableRecord
  2
23
 70
     0
 62
    23
  6
CONTINUOUS
  0
LAYER
  5
51
330
2
100
AcDbSymbolTableRecord
100
AcDbLayerTableRecord
  2
24
 70
     0
 62
    24
  6
CONTINUOUS
  0
LAYER
  5
52
330
2
100
AcDbSymbolTableRecord
100
AcDbLayerTableRecord
  2
25
 70
     0
 62
    25
  6
CONTINUOUS
  0
LAYER
  5
53
330
2
100
AcDbSymbolTableRecord
100
AcDbLayerTableRecord
  2
26
 70
     0
 62
    26
  6
CONTINUOUS
  0
LAYER
  5
54
330
2
100
AcDbSymbolTableRecord
100
AcDbLayerTableRecord
  2
27
 70
     0
 62
    27
  6
CONTINUOUS
  0
LAYER
  5
55
330
2
100
AcDbSymbolTableRecord
100
AcDbLayerTableRecord
  2
28
 70
     0
 62
    28
  6
CONTINUOUS
  0
LAYER
  5
56
330
2
100
AcDbSymbolTableRecord
100
AcDbLayerTableRecord
  2
29
 70
     0
 62
    29
  6
CONTINUOUS
  0
LAYER
  5
57
330
2
100
AcDbSymbolTableRecord
100
AcDbLayerTableRecord
  2
30
 70
     0
 62
    30
  6
CONTINUOUS
  0
LAYER
  5
58
330
2
100
AcDbSymbolTableRecord
100
AcDbLayerTableRecord
  2
31
 70
     0
 62
    31
  6
CONTINUOUS
  0
LAYER
  5
59
330
2
100
AcDbSymbolTableRecord
100
AcDbLayerTableRecord
  2
32
 70
     0
 62
    32
  6
CONTINUOUS
  0
LAYER
  5
5A
330
2
100
AcDbSymbolTableRecord
100
AcDbLayerTableRecord
  2
33
 70
     0
 62
    33
  6
CONTINUOUS
  0
LAYER
  5
5B
330
2
100
AcDbSymbolTableRecord
100
AcDbLayerTableRecord
  2
34
 70
     0
 62
    34
  6
CONTINUOUS
  0
LAYER
  5
5C
330
2
100
AcDbSymbolTableRecord
100
AcDbLayerTableRecord
  2
35
 70
     0
 62
    35
  6
CONTINUOUS
  0
LAYER
  5
5D
330
2
100
AcDbSymbolTableRecord
100
AcDbLayerTableRecord
  2
36
 70
     0
 62
    36
  6
CONTINUOUS
  0
LAYER
  5
5E
330
2
100
AcDbSymbolTableRecord
100
AcDbLayerTableRecord
  2
37
 70
     0
 62
    37
  6
CONTINUOUS
  0
LAYER
  5
5F
330
2
100
AcDbSymbolTableRecord
100
AcDbLayerTableRecord
  2
38
 70
     0
 62
    38
  6
CONTINUOUS
  0
LAYER
  5
60
330
2
100
AcDbSymbolTableRecord
100
AcDbLayerTableRecord
  2
39
 70
     0
 62
    39
  6
CONTINUOUS
  0
LAYER
  5
61
330
2
100
AcDbSymbolTableRecord
100
AcDbLayerTableRecord
  2
40
 70
     0
 62
    40
  6
CONTINUOUS
  0
LAYER
  5
62
330
2
100
AcDbSymbolTableRecord
100
AcDbLayerTableRecord
  2
41
 70
     0
 62
    41
  6
CONTINUOUS
  0
LAYER
  5
63
330
2
100
AcDbSymbolTableRecord
100
AcDbLayerTableRecord
  2
42
 70
     0
 62
    42
  6
CONTINUOUS
  0
LAYER
  5
64
330
2
100
AcDbSymbolTableRecord
100
AcDbLayerTableRecord
  2
43
 70
     0
 62
    43
  6
CONTINUOUS
  0
LAYER
  5
65
330
2
100
AcDbSymbolTableRecord
100
AcDbLayerTableRecord
  2
44
 70
     0
 62
    44
  6
CONTINUOUS
  0
LAYER
  5
66
330
2
100
AcDbSymbolTableRecord
100
AcDbLayerTableRecord
  2
45
 70
     0
 62
    45
  6
CONTINUOUS
  0
LAYER
  5
67
330
2
100
AcDbSymbolTableRecord
100
AcDbLayerTableRecord
  2
46
 70
     0
 62
    46
  6
CONTINUOUS
  0
LAYER
  5
68
330
2
100
AcDbSymbolTableRecord
100
AcDbLayerTableRecord
  2
47
 70
     0
 62
    47
  6
CONTINUOUS
  0
LAYER
  5
69
330
2
100
AcDbSymbolTableRecord
100
AcDbLayerTableRecord
  2
48
 70
     0
 62
    48
  6
CONTINUOUS
  0
LAYER
  5
6A
330
2
100
AcDbSymbolTableRecord
100
AcDbLayerTableRecord
  2
49
 70
     0
 62
    49
  6
CONTINUOUS
  0
LAYER
  5
6B
330
2
100
AcDbSymbolTableRecord
100
AcDbLayerTableRecord
  2
50
 70
     0
 62
    50
  6
CONTINUOUS
  0
LAYER
  5
6C
330
2
100
AcDbSymbolTableRecord
100
AcDbLayerTableRecord
  2
51
 70
     0
 62
    51
  6
CONTINUOUS
  0
LAYER
  5
6D
330
2
100
AcDbSymbolTableRecord
100
AcDbLayerTableRecord
  2
52
 70
     0
 62
    52
  6
CONTINUOUS
  0
LAYER
  5
6E
330
2
100
AcDbSymbolTableRecord
100
AcDbLayerTableRecord
  2
53
 70
     0
 62
    53
  6
CONTINUOUS
  0
LAYER
  5
6F
330
2
100
AcDbSymbolTableRecord
100
AcDbLayerTableRecord
  2
54
 70
     0
 62
    54
  6
CONTINUOUS
  0
LAYER
  5
70
330
2
100
AcDbSymbolTableRecord
100
AcDbLayerTableRecord
  2
55
 70
     0
 62
    55
  6
CONTINUOUS
  0
LAYER
  5
71
330
2
100
AcDbSymbolTableRecord
100
AcDbLayerTableRecord
  2
56
 70
     0
 62
    56
  6
CONTINUOUS
  0
LAYER
  5
72
330
2
100
AcDbSymbolTableRecord
100
AcDbLayerTableRecord
  2
57
 70
     0
 62
    57
  6
CONTINUOUS
  0
LAYER
  5
73
330
2
100
AcDbSymbolTableRecord
100
AcDbLayerTableRecord
  2
58
 70
     0
 62
    58
  6
CONTINUOUS
  0
LAYER
  5
74
330
2
100
AcDbSymbolTableRecord
100
AcDbLayerTableRecord
  2
59
 70
     0
 62
    59
  6
CONTINUOUS
  0
LAYER
  5
75
330
2
100
AcDbSymbolTableRecord
100
AcDbLayerTableRecord
  2
60
 70
     0
 62
    60
  6
CONTINUOUS
  0
LAYER
  5
76
330
2
100
AcDbSymbolTableRecord
100
AcDbLayerTableRecord
  2
61
 70
     0
 62
    61
  6
CONTINUOUS
  0
LAYER
  5
77
330
2
100
AcDbSymbolTableRecord
100
AcDbLayerTableRecord
  2
62
 70
     0
 62
    62
  6
CONTINUOUS
  0
LAYER
  5
78
330
2
100
AcDbSymbolTableRecord
100
AcDbLayerTableRecord
  2
63
 70
     0
 62
    63
  6
CONTINUOUS
  0
LAYER
  5
79
330
2
100
AcDbSymbolTableRecord
100
AcDbLayerTableRecord
  2
64
 70
     0
 62
    64
  6
CONTINUOUS
  0
LAYER
  5
7A
330
2
100
AcDbSymbolTableRecord
100
AcDbLayerTableRecord
  2
65
 70
     0
 62
    65
  6
CONTINUOUS
  0
LAYER
  5
7B
330
2
100
AcDbSymbolTableRecord
100
AcDbLayerTableRecord
  2
66
 70
     0
 62
    66
  6
CONTINUOUS
  0
LAYER
  5
7C
330
2
100
AcDbSymbolTableRecord
100
AcDbLayerTableRecord
  2
67
 70
     0
 62
    67
  6
CONTINUOUS
  0
LAYER
  5
7D
330
2
100
AcDbSymbolTableRecord
100
AcDbLayerTableRecord
  2
68
 70
     0
 62
    68
  6
CONTINUOUS
  0
LAYER
  5
7E
330
2
100
AcDbSymbolTableRecord
100
AcDbLayerTableRecord
  2
69
 70
     0
 62
    69
  6
CONTINUOUS
  0
LAYER
  5
7F
330
2
100
AcDbSymbolTableRecord
100
AcDbLayerTableRecord
  2
70
 70
     0
 62
    70
  6
CONTINUOUS
  0
LAYER
  5
80
330
2
100
AcDbSymbolTableRecord
100
AcDbLayerTableRecord
  2
71
 70
     0
 62
    71
  6
CONTINUOUS
  0
LAYER
  5
81
330
2
100
AcDbSymbolTableRecord
100
AcDbLayerTableRecord
  2
72
 70
     0
 62
    72
  6
CONTINUOUS
  0
LAYER
  5
82
330
2
100
AcDbSymbolTableRecord
100
AcDbLayerTableRecord
  2
73
 70
     0
 62
    73
  6
CONTINUOUS
  0
LAYER
  5
83
330
2
100
AcDbSymbolTableRecord
100
AcDbLayerTableRecord
  2
74
 70
     0
 62
    74
  6
CONTINUOUS
  0
LAYER
  5
84
330
2
100
AcDbSymbolTableRecord
100
AcDbLayerTableRecord
  2
75
 70
     0
 62
    75
  6
CONTINUOUS
  0
LAYER
  5
85
330
2
100
AcDbSymbolTableRecord
100
AcDbLayerTableRecord
  2
76
 70
     0
 62
    76
  6
CONTINUOUS
  0
LAYER
  5
86
330
2
100
AcDbSymbolTableRecord
100
AcDbLayerTableRecord
  2
77
 70
     0
 62
    77
  6
CONTINUOUS
  0
LAYER
  5
87
330
2
100
AcDbSymbolTableRecord
100
AcDbLayerTableRecord
  2
78
 70
     0
 62
    78
  6
CONTINUOUS
  0
LAYER
  5
88
330
2
100
AcDbSymbolTableRecord
100
AcDbLayerTableRecord
  2
79
 70
     0
 62
    79
  6
CONTINUOUS
  0
LAYER
  5
89
330
2
100
AcDbSymbolTableRecord
100
AcDbLayerTableRecord
  2
80
 70
     0
 62
    80
  6
CONTINUOUS
  0
LAYER
  5
8A
330
2
100
AcDbSymbolTableRecord
100
AcDbLayerTableRecord
  2
81
 70
     0
 62
    81
  6
CONTINUOUS
  0
LAYER
  5
8B
330
2
100
AcDbSymbolTableRecord
100
AcDbLayerTableRecord
  2
82
 70
     0
 62
    82
  6
CONTINUOUS
  0
LAYER
  5
8C
330
2
100
AcDbSymbolTableRecord
100
AcDbLayerTableRecord
  2
83
 70
     0
 62
    83
  6
CONTINUOUS
  0
LAYER
  5
8D
330
2
100
AcDbSymbolTableRecord
100
AcDbLayerTableRecord
  2
84
 70
     0
 62
    84
  6
CONTINUOUS
  0
LAYER
  5
8E
330
2
100
AcDbSymbolTableRecord
100
AcDbLayerTableRecord
  2
85
 70
     0
 62
    85
  6
CONTINUOUS
  0
LAYER
  5
8F
330
2
100
AcDbSymbolTableRecord
100
AcDbLayerTableRecord
  2
86
 70
     0
 62
    86
  6
CONTINUOUS
  0
LAYER
  5
90
330
2
100
AcDbSymbolTableRecord
100
AcDbLayerTableRecord
  2
87
 70
     0
 62
    87
  6
CONTINUOUS
  0
LAYER
  5
91
330
2
100
AcDbSymbolTableRecord
100
AcDbLayerTableRecord
  2
88
 70
     0
 62
    88
  6
CONTINUOUS
  0
LAYER
  5
92
330
2
100
AcDbSymbolTableRecord
100
AcDbLayerTableRecord
  2
89
 70
     0
 62
    89
  6
CONTINUOUS
  0
LAYER
  5
93
330
2
100
AcDbSymbolTableRecord
100
AcDbLayerTableRecord
  2
90
 70
     0
 62
    90
  6
CONTINUOUS
  0
LAYER
  5
94
330
2
100
AcDbSymbolTableRecord
100
AcDbLayerTableRecord
  2
91
 70
     0
 62
    91
  6
CONTINUOUS
  0
LAYER
  5
95
330
2
100
AcDbSymbolTableRecord
100
AcDbLayerTableRecord
  2
92
 70
     0
 62
    92
  6
CONTINUOUS
  0
LAYER
  5
96
330
2
100
AcDbSymbolTableRecord
100
AcDbLayerTableRecord
  2
93
 70
     0
 62
    93
  6
CONTINUOUS
  0
LAYER
  5
97
330
2
100
AcDbSymbolTableRecord
100
AcDbLayerTableRecord
  2
94
 70
     0
 62
    94
  6
CONTINUOUS
  0
LAYER
  5
98
330
2
100
AcDbSymbolTableRecord
100
AcDbLayerTableRecord
  2
95
 70
     0
 62
    95
  6
CONTINUOUS
  0
LAYER
  5
99
330
2
100
AcDbSymbolTableRecord
100
AcDbLayerTableRecord
  2
96
 70
     0
 62
    96
  6
CONTINUOUS
  0
LAYER
  5
9A
330
2
100
AcDbSymbolTableRecord
100
AcDbLayerTableRecord
  2
97
 70
     0
 62
    97
  6
CONTINUOUS
  0
LAYER
  5
9B
330
2
100
AcDbSymbolTableRecord
100
AcDbLayerTableRecord
  2
98
 70
     0
 62
    98
  6
CONTINUOUS
  0
LAYER
  5
9C
330
2
100
AcDbSymbolTableRecord
100
AcDbLayerTableRecord
  2
99
 70
     0
 62
    99
  6
CONTINUOUS
  0
LAYER
  5
9D
330
2
100
AcDbSymbolTableRecord
100
AcDbLayerTableRecord
  2
100
 70
     0
 62
   100
  6
CONTINUOUS
  0
LAYER
  5
9E
330
2
100
AcDbSymbolTableRecord
100
AcDbLayerTableRecord
  2
101
 70
     0
 62
   101
  6
CONTINUOUS
  0
LAYER
  5
9F
330
2
100
AcDbSymbolTableRecord
100
AcDbLayerTableRecord
  2
102
 70
     0
 62
   102
  6
CONTINUOUS
  0
LAYER
  5
A0
330
2
100
AcDbSymbolTableRecord
100
AcDbLayerTableRecord
  2
103
 70
     0
 62
   103
  6
CONTINUOUS
  0
LAYER
  5
A1
330
2
100
AcDbSymbolTableRecord
100
AcDbLayerTableRecord
  2
104
 70
     0
 62
   104
  6
CONTINUOUS
  0
LAYER
  5
A2
330
2
100
AcDbSymbolTableRecord
100
AcDbLayerTableRecord
  2
105
 70
     0
 62
   105
  6
CONTINUOUS
  0
LAYER
  5
A3
330
2
100
AcDbSymbolTableRecord
100
AcDbLayerTableRecord
  2
106
 70
     0
 62
   106
  6
CONTINUOUS
  0
LAYER
  5
A4
330
2
100
AcDbSymbolTableRecord
100
AcDbLayerTableRecord
  2
107
 70
     0
 62
   107
  6
CONTINUOUS
  0
LAYER
  5
A5
330
2
100
AcDbSymbolTableRecord
100
AcDbLayerTableRecord
  2
108
 70
     0
 62
   108
  6
CONTINUOUS
  0
LAYER
  5
A6
330
2
100
AcDbSymbolTableRecord
100
AcDbLayerTableRecord
  2
109
 70
     0
 62
   109
  6
CONTINUOUS
  0
LAYER
  5
A7
330
2
100
AcDbSymbolTableRecord
100
AcDbLayerTableRecord
  2
110
 70
     0
 62
   110
  6
CONTINUOUS
  0
LAYER
  5
A8
330
2
100
AcDbSymbolTableRecord
100
AcDbLayerTableRecord
  2
111
 70
     0
 62
   111
  6
CONTINUOUS
  0
LAYER
  5
A9
330
2
100
AcDbSymbolTableRecord
100
AcDbLayerTableRecord
  2
112
 70
     0
 62
   112
  6
CONTINUOUS
  0
LAYER
  5
AA
330
2
100
AcDbSymbolTableRecord
100
AcDbLayerTableRecord
  2
113
 70
     0
 62
   113
  6
CONTINUOUS
  0
LAYER
  5
AB
330
2
100
AcDbSymbolTableRecord
100
AcDbLayerTableRecord
  2
114
 70
     0
 62
   114
  6
CONTINUOUS
  0
LAYER
  5
AC
330
2
100
AcDbSymbolTableRecord
100
AcDbLayerTableRecord
  2
115
 70
     0
 62
   115
  6
CONTINUOUS
  0
LAYER
  5
AD
330
2
100
AcDbSymbolTableRecord
100
AcDbLayerTableRecord
  2
116
 70
     0
 62
   116
  6
CONTINUOUS
  0
LAYER
  5
AE
330
2
100
AcDbSymbolTableRecord
100
AcDbLayerTableRecord
  2
117
 70
     0
 62
   117
  6
CONTINUOUS
  0
LAYER
  5
AF
330
2
100
AcDbSymbolTableRecord
100
AcDbLayerTableRecord
  2
118
 70
     0
 62
   118
  6
CONTINUOUS
  0
LAYER
  5
B0
330
2
100
AcDbSymbolTableRecord
100
AcDbLayerTableRecord
  2
119
 70
     0
 62
   119
  6
CONTINUOUS
  0
LAYER
  5
B1
330
2
100
AcDbSymbolTableRecord
100
AcDbLayerTableRecord
  2
120
 70
     0
 62
   120
  6
CONTINUOUS
  0
LAYER
  5
B2
330
2
100
AcDbSymbolTableRecord
100
AcDbLayerTableRecord
  2
121
 70
     0
 62
   121
  6
CONTINUOUS
  0
LAYER
  5
B3
330
2
100
AcDbSymbolTableRecord
100
AcDbLayerTableRecord
  2
122
 70
     0
 62
   122
  6
CONTINUOUS
  0
LAYER
  5
B4
330
2
100
AcDbSymbolTableRecord
100
AcDbLayerTableRecord
  2
123
 70
     0
 62
   123
  6
CONTINUOUS
  0
LAYER
  5
B5
330
2
100
AcDbSymbolTableRecord
100
AcDbLayerTableRecord
  2
124
 70
     0
 62
   124
  6
CONTINUOUS
  0
LAYER
  5
B6
330
2
100
AcDbSymbolTableRecord
100
AcDbLayerTableRecord
  2
125
 70
     0
 62
   125
  6
CONTINUOUS
  0
LAYER
  5
B7
330
2
100
AcDbSymbolTableRecord
100
AcDbLayerTableRecord
  2
126
 70
     0
 62
   126
  6
CONTINUOUS
  0
LAYER
  5
B8
330
2
100
AcDbSymbolTableRecord
100
AcDbLayerTableRecord
  2
127
 70
     0
 62
   127
  6
CONTINUOUS
  0
LAYER
  5
B9
330
2
100
AcDbSymbolTableRecord
100
AcDbLayerTableRecord
  2
128
 70
     0
 62
   128
  6
CONTINUOUS
  0
LAYER
  5
BA
330
2
100
AcDbSymbolTableRecord
100
AcDbLayerTableRecord
  2
129
 70
     0
 62
   129
  6
CONTINUOUS
  0
LAYER
  5
BB
330
2
100
AcDbSymbolTableRecord
100
AcDbLayerTableRecord
  2
130
 70
     0
 62
   130
  6
CONTINUOUS
  0
LAYER
  5
BC
330
2
100
AcDbSymbolTableRecord
100
AcDbLayerTableRecord
  2
131
 70
     0
 62
   131
  6
CONTINUOUS
  0
LAYER
  5
BD
330
2
100
AcDbSymbolTableRecord
100
AcDbLayerTableRecord
  2
132
 70
     0
 62
   132
  6
CONTINUOUS
  0
LAYER
  5
BE
330
2
100
AcDbSymbolTableRecord
100
AcDbLayerTableRecord
  2
133
 70
     0
 62
   133
  6
CONTINUOUS
  0
LAYER
  5
BF
330
2
100
AcDbSymbolTableRecord
100
AcDbLayerTableRecord
  2
134
 70
     0
 62
   134
  6
CONTINUOUS
  0
LAYER
  5
C0
330
2
100
AcDbSymbolTableRecord
100
AcDbLayerTableRecord
  2
135
 70
     0
 62
   135
  6
CONTINUOUS
  0
LAYER
  5
C1
330
2
100
AcDbSymbolTableRecord
100
AcDbLayerTableRecord
  2
136
 70
     0
 62
   136
  6
CONTINUOUS
  0
LAYER
  5
C2
330
2
100
AcDbSymbolTableRecord
100
AcDbLayerTableRecord
  2
137
 70
     0
 62
   137
  6
CONTINUOUS
  0
LAYER
  5
C3
330
2
100
AcDbSymbolTableRecord
100
AcDbLayerTableRecord
  2
138
 70
     0
 62
   138
  6
CONTINUOUS
  0
LAYER
  5
C4
330
2
100
AcDbSymbolTableRecord
100
AcDbLayerTableRecord
  2
139
 70
     0
 62
   139
  6
CONTINUOUS
  0
LAYER
  5
C5
330
2
100
AcDbSymbolTableRecord
100
AcDbLayerTableRecord
  2
140
 70
     0
 62
   140
  6
CONTINUOUS
  0
LAYER
  5
C6
330
2
100
AcDbSymbolTableRecord
100
AcDbLayerTableRecord
  2
141
 70
     0
 62
   141
  6
CONTINUOUS
  0
LAYER
  5
C7
330
2
100
AcDbSymbolTableRecord
100
AcDbLayerTableRecord
  2
142
 70
     0
 62
   142
  6
CONTINUOUS
  0
LAYER
  5
C8
330
2
100
AcDbSymbolTableRecord
100
AcDbLayerTableRecord
  2
143
 70
     0
 62
   143
  6
CONTINUOUS
  0
LAYER
  5
C9
330
2
100
AcDbSymbolTableRecord
100
AcDbLayerTableRecord
  2
144
 70
     0
 62
   144
  6
CONTINUOUS
  0
LAYER
  5
CA
330
2
100
AcDbSymbolTableRecord
100
AcDbLayerTableRecord
  2
145
 70
     0
 62
   145
  6
CONTINUOUS
  0
LAYER
  5
CB
330
2
100
AcDbSymbolTableRecord
100
AcDbLayerTableRecord
  2
146
 70
     0
 62
   146
  6
CONTINUOUS
  0
LAYER
  5
CC
330
2
100
AcDbSymbolTableRecord
100
AcDbLayerTableRecord
  2
147
 70
     0
 62
   147
  6
CONTINUOUS
  0
LAYER
  5
CD
330
2
100
AcDbSymbolTableRecord
100
AcDbLayerTableRecord
  2
148
 70
     0
 62
   148
  6
CONTINUOUS
  0
LAYER
  5
CE
330
2
100
AcDbSymbolTableRecord
100
AcDbLayerTableRecord
  2
149
 70
     0
 62
   149
  6
CONTINUOUS
  0
LAYER
  5
CF
330
2
100
AcDbSymbolTableRecord
100
AcDbLayerTableRecord
  2
150
 70
     0
 62
   150
  6
CONTINUOUS
  0
LAYER
  5
D0
330
2
100
AcDbSymbolTableRecord
100
AcDbLayerTableRecord
  2
151
 70
     0
 62
   151
  6
CONTINUOUS
  0
LAYER
  5
D1
330
2
100
AcDbSymbolTableRecord
100
AcDbLayerTableRecord
  2
152
 70
     0
 62
   152
  6
CONTINUOUS
  0
LAYER
  5
D2
330
2
100
AcDbSymbolTableRecord
100
AcDbLayerTableRecord
  2
153
 70
     0
 62
   153
  6
CONTINUOUS
  0
LAYER
  5
D3
330
2
100
AcDbSymbolTableRecord
100
AcDbLayerTableRecord
  2
154
 70
     0
 62
   154
  6
CONTINUOUS
  0
LAYER
  5
D4
330
2
100
AcDbSymbolTableRecord
100
AcDbLayerTableRecord
  2
155
 70
     0
 62
   155
  6
CONTINUOUS
  0
LAYER
  5
D5
330
2
100
AcDbSymbolTableRecord
100
AcDbLayerTableRecord
  2
156
 70
     0
 62
   156
  6
CONTINUOUS
  0
LAYER
  5
D6
330
2
100
AcDbSymbolTableRecord
100
AcDbLayerTableRecord
  2
157
 70
     0
 62
   157
  6
CONTINUOUS
  0
LAYER
  5
D7
330
2
100
AcDbSymbolTableRecord
100
AcDbLayerTableRecord
  2
158
 70
     0
 62
   158
  6
CONTINUOUS
  0
LAYER
  5
D8
330
2
100
AcDbSymbolTableRecord
100
AcDbLayerTableRecord
  2
159
 70
     0
 62
   159
  6
CONTINUOUS
  0
LAYER
  5
D9
330
2
100
AcDbSymbolTableRecord
100
AcDbLayerTableRecord
  2
160
 70
     0
 62
   160
  6
CONTINUOUS
  0
LAYER
  5
DA
330
2
100
AcDbSymbolTableRecord
100
AcDbLayerTableRecord
  2
161
 70
     0
 62
   161
  6
CONTINUOUS
  0
LAYER
  5
DB
330
2
100
AcDbSymbolTableRecord
100
AcDbLayerTableRecord
  2
162
 70
     0
 62
   162
  6
CONTINUOUS
  0
LAYER
  5
DC
330
2
100
AcDbSymbolTableRecord
100
AcDbLayerTableRecord
  2
163
 70
     0
 62
   163
  6
CONTINUOUS
  0
LAYER
  5
DD
330
2
100
AcDbSymbolTableRecord
100
AcDbLayerTableRecord
  2
164
 70
     0
 62
   164
  6
CONTINUOUS
  0
LAYER
  5
DE
330
2
100
AcDbSymbolTableRecord
100
AcDbLayerTableRecord
  2
165
 70
     0
 62
   165
  6
CONTINUOUS
  0
LAYER
  5
DF
330
2
100
AcDbSymbolTableRecord
100
AcDbLayerTableRecord
  2
166
 70
     0
 62
   166
  6
CONTINUOUS
  0
LAYER
  5
E0
330
2
100
AcDbSymbolTableRecord
100
AcDbLayerTableRecord
  2
167
 70
     0
 62
   167
  6
CONTINUOUS
  0
LAYER
  5
E1
330
2
100
AcDbSymbolTableRecord
100
AcDbLayerTableRecord
  2
168
 70
     0
 62
   168
  6
CONTINUOUS
  0
LAYER
  5
E2
330
2
100
AcDbSymbolTableRecord
100
AcDbLayerTableRecord
  2
169
 70
     0
 62
   169
  6
CONTINUOUS
  0
LAYER
  5
E3
330
2
100
AcDbSymbolTableRecord
100
AcDbLayerTableRecord
  2
170
 70
     0
 62
   170
  6
CONTINUOUS
  0
LAYER
  5
E4
330
2
100
AcDbSymbolTableRecord
100
AcDbLayerTableRecord
  2
171
 70
     0
 62
   171
  6
CONTINUOUS
  0
LAYER
  5
E5
330
2
100
AcDbSymbolTableRecord
100
AcDbLayerTableRecord
  2
172
 70
     0
 62
   172
  6
CONTINUOUS
  0
LAYER
  5
E6
330
2
100
AcDbSymbolTableRecord
100
AcDbLayerTableRecord
  2
173
 70
     0
 62
   173
  6
CONTINUOUS
  0
LAYER
  5
E7
330
2
100
AcDbSymbolTableRecord
100
AcDbLayerTableRecord
  2
174
 70
     0
 62
   174
  6
CONTINUOUS
  0
LAYER
  5
E8
330
2
100
AcDbSymbolTableRecord
100
AcDbLayerTableRecord
  2
175
 70
     0
 62
   175
  6
CONTINUOUS
  0
LAYER
  5
E9
330
2
100
AcDbSymbolTableRecord
100
AcDbLayerTableRecord
  2
176
 70
     0
 62
   176
  6
CONTINUOUS
  0
LAYER
  5
EA
330
2
100
AcDbSymbolTableRecord
100
AcDbLayerTableRecord
  2
177
 70
     0
 62
   177
  6
CONTINUOUS
  0
LAYER
  5
EB
330
2
100
AcDbSymbolTableRecord
100
AcDbLayerTableRecord
  2
178
 70
     0
 62
   178
  6
CONTINUOUS
  0
LAYER
  5
EC
330
2
100
AcDbSymbolTableRecord
100
AcDbLayerTableRecord
  2
179
 70
     0
 62
   179
  6
CONTINUOUS
  0
LAYER
  5
ED
330
2
100
AcDbSymbolTableRecord
100
AcDbLayerTableRecord
  2
180
 70
     0
 62
   180
  6
CONTINUOUS
  0
LAYER
  5
EE
330
2
100
AcDbSymbolTableRecord
100
AcDbLayerTableRecord
  2
181
 70
     0
 62
   181
  6
CONTINUOUS
  0
LAYER
  5
EF
330
2
100
AcDbSymbolTableRecord
100
AcDbLayerTableRecord
  2
182
 70
     0
 62
   182
  6
CONTINUOUS
  0
LAYER
  5
F0
330
2
100
AcDbSymbolTableRecord
100
AcDbLayerTableRecord
  2
183
 70
     0
 62
   183
  6
CONTINUOUS
  0
LAYER
  5
F1
330
2
100
AcDbSymbolTableRecord
100
AcDbLayerTableRecord
  2
184
 70
     0
 62
   184
  6
CONTINUOUS
  0
LAYER
  5
F2
330
2
100
AcDbSymbolTableRecord
100
AcDbLayerTableRecord
  2
185
 70
     0
 62
   185
  6
CONTINUOUS
  0
LAYER
  5
F3
330
2
100
AcDbSymbolTableRecord
100
AcDbLayerTableRecord
  2
186
 70
     0
 62
   186
  6
CONTINUOUS
  0
LAYER
  5
F4
330
2
100
AcDbSymbolTableRecord
100
AcDbLayerTableRecord
  2
187
 70
     0
 62
   187
  6
CONTINUOUS
  0
LAYER
  5
F5
330
2
100
AcDbSymbolTableRecord
100
AcDbLayerTableRecord
  2
188
 70
     0
 62
   188
  6
CONTINUOUS
  0
LAYER
  5
F6
330
2
100
AcDbSymbolTableRecord
100
AcDbLayerTableRecord
  2
189
 70
     0
 62
   189
  6
CONTINUOUS
  0
LAYER
  5
F7
330
2
100
AcDbSymbolTableRecord
100
AcDbLayerTableRecord
  2
190
 70
     0
 62
   190
  6
CONTINUOUS
  0
LAYER
  5
F8
330
2
100
AcDbSymbolTableRecord
100
AcDbLayerTableRecord
  2
191
 70
     0
 62
   191
  6
CONTINUOUS
  0
LAYER
  5
F9
330
2
100
AcDbSymbolTableRecord
100
AcDbLayerTableRecord
  2
192
 70
     0
 62
   192
  6
CONTINUOUS
  0
LAYER
  5
FA
330
2
100
AcDbSymbolTableRecord
100
AcDbLayerTableRecord
  2
193
 70
     0
 62
   193
  6
CONTINUOUS
  0
LAYER
  5
FB
330
2
100
AcDbSymbolTableRecord
100
AcDbLayerTableRecord
  2
194
 70
     0
 62
   194
  6
CONTINUOUS
  0
LAYER
  5
FC
330
2
100
AcDbSymbolTableRecord
100
AcDbLayerTableRecord
  2
195
 70
     0
 62
   195
  6
CONTINUOUS
  0
LAYER
  5
FD
330
2
100
AcDbSymbolTableRecord
100
AcDbLayerTableRecord
  2
196
 70
     0
 62
   196
  6
CONTINUOUS
  0
LAYER
  5
FE
330
2
100
AcDbSymbolTableRecord
100
AcDbLayerTableRecord
  2
197
 70
     0
 62
   197
  6
CONTINUOUS
  0
LAYER
  5
FF
330
2
100
AcDbSymbolTableRecord
100
AcDbLayerTableRecord
  2
198
 70
     0
 62
   198
  6
CONTINUOUS
  0
LAYER
  5
100
330
2
100
AcDbSymbolTableRecord
100
AcDbLayerTableRecord
  2
199
 70
     0
 62
   199
  6
CONTINUOUS
  0
LAYER
  5
101
330
2
100
AcDbSymbolTableRecord
100
AcDbLayerTableRecord
  2
200
 70
     0
 62
   200
  6
CONTINUOUS
  0
LAYER
  5
102
330
2
100
AcDbSymbolTableRecord
100
AcDbLayerTableRecord
  2
201
 70
     0
 62
   201
  6
CONTINUOUS
  0
LAYER
  5
103
330
2
100
AcDbSymbolTableRecord
100
AcDbLayerTableRecord
  2
202
 70
     0
 62
   202
  6
CONTINUOUS
  0
LAYER
  5
104
330
2
100
AcDbSymbolTableRecord
100
AcDbLayerTableRecord
  2
203
 70
     0
 62
   203
  6
CONTINUOUS
  0
LAYER
  5
105
330
2
100
AcDbSymbolTableRecord
100
AcDbLayerTableRecord
  2
204
 70
     0
 62
   204
  6
CONTINUOUS
  0
LAYER
  5
106
330
2
100
AcDbSymbolTableRecord
100
AcDbLayerTableRecord
  2
205
 70
     0
 62
   205
  6
CONTINUOUS
  0
LAYER
  5
107
330
2
100
AcDbSymbolTableRecord
100
AcDbLayerTableRecord
  2
206
 70
     0
 62
   206
  6
CONTINUOUS
  0
LAYER
  5
108
330
2
100
AcDbSymbolTableRecord
100
AcDbLayerTableRecord
  2
207
 70
     0
 62
   207
  6
CONTINUOUS
  0
LAYER
  5
109
330
2
100
AcDbSymbolTableRecord
100
AcDbLayerTableRecord
  2
208
 70
     0
 62
   208
  6
CONTINUOUS
  0
LAYER
  5
10A
330
2
100
AcDbSymbolTableRecord
100
AcDbLayerTableRecord
  2
209
 70
     0
 62
   209
  6
CONTINUOUS
  0
LAYER
  5
10B
330
2
100
AcDbSymbolTableRecord
100
AcDbLayerTableRecord
  2
210
 70
     0
 62
   210
  6
CONTINUOUS
  0
LAYER
  5
10C
330
2
100
AcDbSymbolTableRecord
100
AcDbLayerTableRecord
  2
211
 70
     0
 62
   211
  6
CONTINUOUS
  0
LAYER
  5
10D
330
2
100
AcDbSymbolTableRecord
100
AcDbLayerTableRecord
  2
212
 70
     0
 62
   212
  6
CONTINUOUS
  0
LAYER
  5
10E
330
2
100
AcDbSymbolTableRecord
100
AcDbLayerTableRecord
  2
213
 70
     0
 62
   213
  6
CONTINUOUS
  0
LAYER
  5
10F
330
2
100
AcDbSymbolTableRecord
100
AcDbLayerTableRecord
  2
214
 70
     0
 62
   214
  6
CONTINUOUS
  0
LAYER
  5
110
330
2
100
AcDbSymbolTableRecord
100
AcDbLayerTableRecord
  2
215
 70
     0
 62
   215
  6
CONTINUOUS
  0
LAYER
  5
111
330
2
100
AcDbSymbolTableRecord
100
AcDbLayerTableRecord
  2
216
 70
     0
 62
   216
  6
CONTINUOUS
  0
LAYER
  5
112
330
2
100
AcDbSymbolTableRecord
100
AcDbLayerTableRecord
  2
217
 70
     0
 62
   217
  6
CONTINUOUS
  0
LAYER
  5
113
330
2
100
AcDbSymbolTableRecord
100
AcDbLayerTableRecord
  2
218
 70
     0
 62
   218
  6
CONTINUOUS
  0
LAYER
  5
114
330
2
100
AcDbSymbolTableRecord
100
AcDbLayerTableRecord
  2
219
 70
     0
 62
   219
  6
CONTINUOUS
  0
LAYER
  5
115
330
2
100
AcDbSymbolTableRecord
100
AcDbLayerTableRecord
  2
220
 70
     0
 62
   220
  6
CONTINUOUS
  0
LAYER
  5
116
330
2
100
AcDbSymbolTableRecord
100
AcDbLayerTableRecord
  2
221
 70
     0
 62
   221
  6
CONTINUOUS
  0
LAYER
  5
117
330
2
100
AcDbSymbolTableRecord
100
AcDbLayerTableRecord
  2
222
 70
     0
 62
   222
  6
CONTINUOUS
  0
LAYER
  5
118
330
2
100
AcDbSymbolTableRecord
100
AcDbLayerTableRecord
  2
223
 70
     0
 62
   223
  6
CONTINUOUS
  0
LAYER
  5
119
330
2
100
AcDbSymbolTableRecord
100
AcDbLayerTableRecord
  2
224
 70
     0
 62
   224
  6
CONTINUOUS
  0
LAYER
  5
11A
330
2
100
AcDbSymbolTableRecord
100
AcDbLayerTableRecord
  2
225
 70
     0
 62
   225
  6
CONTINUOUS
  0
LAYER
  5
11B
330
2
100
AcDbSymbolTableRecord
100
AcDbLayerTableRecord
  2
226
 70
     0
 62
   226
  6
CONTINUOUS
  0
LAYER
  5
11C
330
2
100
AcDbSymbolTableRecord
100
AcDbLayerTableRecord
  2
227
 70
     0
 62
   227
  6
CONTINUOUS
  0
LAYER
  5
11D
330
2
100
AcDbSymbolTableRecord
100
AcDbLayerTableRecord
  2
228
 70
     0
 62
   228
  6
CONTINUOUS
  0
LAYER
  5
11E
330
2
100
AcDbSymbolTableRecord
100
AcDbLayerTableRecord
  2
229
 70
     0
 62
   229
  6
CONTINUOUS
  0
LAYER
  5
11F
330
2
100
AcDbSymbolTableRecord
100
AcDbLayerTableRecord
  2
230
 70
     0
 62
   230
  6
CONTINUOUS
  0
LAYER
  5
120
330
2
100
AcDbSymbolTableRecord
100
AcDbLayerTableRecord
  2
231
 70
     0
 62
   231
  6
CONTINUOUS
  0
LAYER
  5
121
330
2
100
AcDbSymbolTableRecord
100
AcDbLayerTableRecord
  2
232
 70
     0
 62
   232
  6
CONTINUOUS
  0
LAYER
  5
122
330
2
100
AcDbSymbolTableRecord
100
AcDbLayerTableRecord
  2
233
 70
     0
 62
   233
  6
CONTINUOUS
  0
LAYER
  5
123
330
2
100
AcDbSymbolTableRecord
100
AcDbLayerTableRecord
  2
234
 70
     0
 62
   234
  6
CONTINUOUS
  0
LAYER
  5
124
330
2
100
AcDbSymbolTableRecord
100
AcDbLayerTableRecord
  2
235
 70
     0
 62
   235
  6
CONTINUOUS
  0
LAYER
  5
125
330
2
100
AcDbSymbolTableRecord
100
AcDbLayerTableRecord
  2
236
 70
     0
 62
   236
  6
CONTINUOUS
  0
LAYER
  5
126
330
2
100
AcDbSymbolTableRecord
100
AcDbLayerTableRecord
  2
237
 70
     0
 62
   237
  6
CONTINUOUS
  0
LAYER
  5
127
330
2
100
AcDbSymbolTableRecord
100
AcDbLayerTableRecord
  2
238
 70
     0
 62
   238
  6
CONTINUOUS
  0
LAYER
  5
128
330
2
100
AcDbSymbolTableRecord
100
AcDbLayerTableRecord
  2
239
 70
     0
 62
   239
  6
CONTINUOUS
  0
LAYER
  5
129
330
2
100
AcDbSymbolTableRecord
100
AcDbLayerTableRecord
  2
240
 70
     0
 62
   240
  6
CONTINUOUS
  0
LAYER
  5
12A
330
2
100
AcDbSymbolTableRecord
100
AcDbLayerTableRecord
  2
241
 70
     0
 62
   241
  6
CONTINUOUS
  0
LAYER
  5
12B
330
2
100
AcDbSymbolTableRecord
100
AcDbLayerTableRecord
  2
242
 70
     0
 62
   242
  6
CONTINUOUS
  0
LAYER
  5
12C
330
2
100
AcDbSymbolTableRecord
100
AcDbLayerTableRecord
  2
243
 70
     0
 62
   243
  6
CONTINUOUS
  0
LAYER
  5
12D
330
2
100
AcDbSymbolTableRecord
100
AcDbLayerTableRecord
  2
244
 70
     0
 62
   244
  6
CONTINUOUS
  0
LAYER
  5
12E
330
2
100
AcDbSymbolTableRecord
100
AcDbLayerTableRecord
  2
245
 70
     0
 62
   245
  6
CONTINUOUS
  0
LAYER
  5
12F
330
2
100
AcDbSymbolTableRecord
100
AcDbLayerTableRecord
  2
246
 70
     0
 62
   246
  6
CONTINUOUS
  0
LAYER
  5
130
330
2
100
AcDbSymbolTableRecord
100
AcDbLayerTableRecord
  2
247
 70
     0
 62
   247
  6
CONTINUOUS
  0
LAYER
  5
131
330
2
100
AcDbSymbolTableRecord
100
AcDbLayerTableRecord
  2
248
 70
     0
 62
   248
  6
CONTINUOUS
  0
LAYER
  5
132
330
2
100
AcDbSymbolTableRecord
100
AcDbLayerTableRecord
  2
249
 70
     0
 62
   249
  6
CONTINUOUS
  0
LAYER
  5
133
330
2
100
AcDbSymbolTableRecord
100
AcDbLayerTableRecord
  2
250
 70
     0
 62
   250
  6
CONTINUOUS
  0
LAYER
  5
134
330
2
100
AcDbSymbolTableRecord
100
AcDbLayerTableRecord
  2
251
 70
     0
 62
   251
  6
CONTINUOUS
  0
LAYER
  5
135
330
2
100
AcDbSymbolTableRecord
100
AcDbLayerTableRecord
  2
252
 70
     0
 62
   252
  6
CONTINUOUS
  0
LAYER
  5
136
330
2
100
AcDbSymbolTableRecord
100
AcDbLayerTableRecord
  2
253
 70
     0
 62
   253
  6
CONTINUOUS
  0
LAYER
  5
137
330
2
100
AcDbSymbolTableRecord
100
AcDbLayerTableRecord
  2
254
 70
     0
 62
   254
  6
CONTINUOUS
  0
LAYER
  5
138
330
2
100
AcDbSymbolTableRecord
100
AcDbLayerTableRecord
  2
255
 70
     0
 62
   255
  6
CONTINUOUS
  0
ENDTAB
  0
TABLE
  2
STYLE
  5
3
330
0
100
AcDbSymbolTable
 70
     1
  0
STYLE
  5
11
330
3
100
AcDbSymbolTableRecord
100
AcDbTextStyleTableRecord
  2
STANDARD
 70
     0
 40
0.0
 41
1.0
 50
0.0
 71
     0
 42
0.2
  3
monotxt
  4

  0
ENDTAB
  0
TABLE
  2
VIEW
  5
6
330
0
100
AcDbSymbolTable
 70
     0
  0
ENDTAB
  0
TABLE
  2
UCS
  5
7
330
0
100
AcDbSymbolTable
 70
     0
  0
ENDTAB
  0
TABLE
  2
APPID
  5
9
330
0
100
AcDbSymbolTable
 70
     1
  0
APPID
  5
12
330
9
100
AcDbSymbolTableRecord
100
AcDbRegAppTableRecord
  2
ACAD
 70
     0
  0
ENDTAB
  0
TABLE
  2
DIMSTYLE
  5
A
330
0
100
AcDbSymbolTable
 70
     1
  0
DIMSTYLE
105
2D29
330
A
100
AcDbSymbolTableRecord
100
AcDbDimStyleTableRecord
  2
STANDARD
 70
     0
  3

  4

  5

  6

  7

 40
1.0
 41
0.18
 42
0.0625
 43
0.38
 44
0.18
 45
0.0
 46
0.0
 47
0.0
 48
0.0
140
0.18
141
0.09
142
0.0
143
25.4
144
1.0
145
0.0
146
1.0
147
0.09
 71
     0
 72
     0
 73
     1
 74
     1
 75
     0
 76
     0
 77
     0
 78
     0
170
     0
171
     2
172
     0
173
     0
174
     0
175
     0
176
     0
177
     0
178
     0
270
     2
271
     4
272
     4
273
     2
274
     2
340
11
275
     0
280
     0
281
     0
282
     0
283
     1
284
     0
285
     0
286
     0
287
     3
288
     0
  0
ENDTAB
  0
TABLE
  2
BLOCK_RECORD
  5
1
330
0
100
AcDbSymbolTable
 70
     0
  0
BLOCK_RECORD
  5
1E
102
{ACAD_XDICTIONARY
360
4358
102
}
330
1
100
AcDbSymbolTableRecord
100
AcDbBlockTableRecord
  2
*MODEL_SPACE
  0
BLOCK_RECORD
  5
1A
102
{ACAD_XDICTIONARY
360
4356
102
}
330
1
100
AcDbSymbolTableRecord
100
AcDbBlockTableRecord
  2
*PAPER_SPACE
  0
ENDTAB
  0
ENDSEC
  0
SECTION
  2
BLOCKS
  0
BLOCK
  5
13B
330
1E
100
AcDbEntity
  8
0
100
AcDbBlockBegin
  2
*MODEL_SPACE
 70
     0
 10
0.0
 20
0.0
 30
0.0
  3
*MODEL_SPACE
  1

  0
ENDBLK
  5
13C
330
1E
100
AcDbEntity
  8
0
100
AcDbBlockEnd
  0
BLOCK
  5
139
330
1A
100
AcDbEntity
 67
     1
  8
0
100
AcDbBlockBegin
  2
*PAPER_SPACE
 70
     0
 10
0.0
 20
0.0
 30
0.0
  3
*PAPER_SPACE
  1

  0
ENDBLK
  5
13A
330
1A
100
AcDbEntity
 67
     1
  8
0
100
AcDbBlockEnd
  0
ENDSEC
  0
SECTION
  2
ENTITIES
  0
LINE
  5
26FB
330
1E
100
AcDbEntity
  8
3
100
AcDbLine
 10
2.171259842519685
 20
3.979330708661417
 30
0.0
 11
2.171259842519685
 21
3.825787401574802
 31
0.0
  0
LINE
  5
26FC
330
1E
100
AcDbEntity
  8
3
100
AcDbLine
 10
2.236220472440944
 20
4.049212598425196
 30
0.0
 11
2.236220472440944
 21
3.825787401574802
 31
0.0
  0
LINE
  5
2A9D
330
1E
100
AcDbEntity
  8
3
100
AcDbLine
 10
2.176181102362204
 20
2.64763779527559
 30
0.0
 11
2.176181102362204
 21
2.725393700787401
 31
0.0
  0
LINE
  5
2AA6
330
1E
100
AcDbEntity
  8
3
100
AcDbLine
 10
2.275590551181102
 20
2.725393700787401
 30
0.0
 11
2.275590551181102
 21
2.64763779527559
 31
0.0
  0
LINE
  5
2AAF
330
1E
100
AcDbEntity
  8
3
100
AcDbLine
 10
1.371062992125984
 20
2.64763779527559
 30
0.0
 11
1.371062992125984
 21
2.725393700787401
 31
0.0
  0
LINE
  5
2AB8
330
1E
100
AcDbEntity
  8
3
100
AcDbLine
 10
1.470472440944881
 20
2.725393700787401
 30
0.0
 11
1.470472440944881
 21
2.64763779527559
 31
0.0
  0
LINE
  5
2AB9
330
1E
100
AcDbEntity
  8
3
100
AcDbLine
 10
1.470472440944881
 20
2.725393700787401
 30
0.0
 11
2.176181102362204
 21
2.725393700787401
 31
0.0
  0
LINE
  5
2ABA
330
1E
100
AcDbEntity
  8
3
100
AcDbLine
 10
1.470472440944881
 20
2.64763779527559
 30
0.0
 11
2.176181102362204
 21
2.64763779527559
 31
0.0
  0
LINE
  5
2ABB
330
1E
100
AcDbEntity
  8
3
100
AcDbLine
 10
2.171259842519685
 20
2.83759842519685
 30
0.0
 11
2.171259842519685
 21
4.024606299212598
 31
0.0
  0
LINE
  5
2ABC
330
1E
100
AcDbEntity
  8
3
100
AcDbLine
 10
2.171259842519685
 20
2.83759842519685
 30
0.0
 11
2.172244094488188
 21
2.83759842519685
 31
0.0
  0
LINE
  5
2ABD
330
1E
100
AcDbEntity
  8
3
100
AcDbLine
 10
2.172244094488188
 20
3.02755905511811
 30
0.0
 11
2.172244094488188
 21
2.83759842519685
 31
0.0
  0
LINE
  5
2AC6
330
1E
100
AcDbEntity
  8
3
100
AcDbLine
 10
2.172244094488188
 20
3.042322834645669
 30
0.0
 11
2.173228346456693
 21
3.02755905511811
 31
0.0
  0
LINE
  5
2AC7
330
1E
100
AcDbEntity
  8
3
100
AcDbLine
 10
2.173228346456693
 20
2.83759842519685
 30
0.0
 11
2.173228346456693
 21
3.02755905511811
 31
0.0
  0
LINE
  5
2AD3
330
1E
100
AcDbEntity
  8
3
100
AcDbLine
 10
2.1751968503937
 20
2.83759842519685
 30
0.0
 11
2.1751968503937
 21
3.02755905511811
 31
0.0
  0
LINE
  5
2AF0
330
1E
100
AcDbEntity
  8
3
100
AcDbLine
 10
2.236220472440944
 20
2.725393700787401
 30
0.0
 11
2.236220472440944
 21
3.238188976377952
 31
0.0
  0
LINE
  5
2AF1
330
1E
100
AcDbEntity
  8
3
100
AcDbLine
 10
2.236220472440944
 20
3.560039370078739
 30
0.0
 11
2.236220472440944
 21
4.094488188976377
 31
0.0
  0
LINE
  5
2AFC
330
1E
100
AcDbEntity
  8
3
100
AcDbLine
 10
1.601377952755905
 20
4.010826771653543
 30
0.0
 11
1.703740157480314
 21
4.010826771653543
 31
0.0
  0
LINE
  5
2AFD
330
1E
100
AcDbEntity
  8
3
100
AcDbLine
 10
1.601377952755905
 20
4.010826771653543
 30
0.0
 11
1.601377952755905
 21
3.648622047244094
 31
0.0
  0
LINE
  5
2B06
330
1E
100
AcDbEntity
  8
3
100
AcDbLine
 10
1.551181102362204
 20
3.648622047244094
 30
0.0
 11
1.551181102362204
 21
4.024606299212598
 31
0.0
  0
LINE
  5
2B07
330
1E
100
AcDbEntity
  8
3
100
AcDbLine
 10
1.500984251968504
 20
4.024606299212598
 30
0.0
 11
1.551181102362204
 21
4.024606299212598
 31
0.0
  0
LINE
  5
2B08
330
1E
100
AcDbEntity
  8
3
100
AcDbLine
 10
1.500984251968504
 20
2.746062992125984
 30
0.0
 11
1.500984251968504
 21
4.024606299212598
 31
0.0
  0
LINE
  5
2B09
330
1E
100
AcDbEntity
  8
3
100
AcDbLine
 10
1.581692913385826
 20
2.746062992125984
 30
0.0
 11
2.064960629921259
 21
2.746062992125984
 31
0.0
  0
LINE
  5
2B0F
330
1E
100
AcDbEntity
  8
3
100
AcDbLine
 10
2.095472440944881
 20
3.648622047244094
 30
0.0
 11
2.095472440944881
 21
4.024606299212598
 31
0.0
  0
LINE
  5
2B18
330
1E
100
AcDbEntity
  8
3
100
AcDbLine
 10
2.045275590551181
 20
4.010826771653543
 30
0.0
 11
2.045275590551181
 21
3.648622047244094
 31
0.0
  0
LINE
  5
2B19
330
1E
100
AcDbEntity
  8
3
100
AcDbLine
 10
2.045275590551181
 20
4.010826771653543
 30
0.0
 11
1.942913385826771
 21
4.010826771653543
 31
0.0
  0
LINE
  5
2B20
330
1E
100
AcDbEntity
  8
3
100
AcDbLine
 10
2.171259842519685
 20
2.746062992125984
 30
0.0
 11
2.171259842519685
 21
2.83759842519685
 31
0.0
  0
LINE
  5
2B21
330
1E
100
AcDbEntity
  8
3
100
AcDbLine
 10
2.171259842519685
 20
4.024606299212598
 30
0.0
 11
2.145669291338582
 21
4.024606299212598
 31
0.0
  0
LINE
  5
2B22
330
1E
100
AcDbEntity
  8
3
100
AcDbLine
 10
2.177165354330708
 20
3.238188976377952
 30
0.0
 11
2.236220472440944
 21
3.238188976377952
 31
0.0
  0
LINE
  5
2B23
330
1E
100
AcDbEntity
  8
3
100
AcDbLine
 10
2.236220472440944
 20
3.560039370078739
 30
0.0
 11
2.176181102362204
 21
3.560039370078739
 31
0.0
  0
LINE
  5
2B24
330
1E
100
AcDbEntity
  8
3
100
AcDbLine
 10
2.236220472440944
 20
4.094488188976377
 30
0.0
 11
2.172244094488188
 21
4.094488188976377
 31
0.0
  0
LINE
  5
2B25
330
1E
100
AcDbEntity
  8
3
100
AcDbLine
 10
2.077755905511811
 20
4.094488188976377
 30
0.0
 11
2.172244094488188
 21
4.094488188976377
 31
0.0
  0
LINE
  5
2B26
330
1E
100
AcDbEntity
  8
3
100
AcDbLine
 10
2.077755905511811
 20
4.094488188976377
 30
0.0
 11
2.077755905511811
 21
4.069881889763779
 31
0.0
  0
LINE
  5
2B27
330
1E
100
AcDbEntity
  8
3
100
AcDbLine
 10
2.172244094488188
 20
4.069881889763779
 30
0.0
 11
2.077755905511811
 21
4.069881889763779
 31
0.0
  0
LINE
  5
2B28
330
1E
100
AcDbEntity
  8
3
100
AcDbLine
 10
2.075787401574803
 20
4.024606299212598
 30
0.0
 11
2.076771653543306
 21
4.024606299212598
 31
0.0
  0
LINE
  5
2B29
330
1E
100
AcDbEntity
  8
3
100
AcDbLine
 10
2.077755905511811
 20
4.069881889763779
 30
0.0
 11
2.076771653543306
 21
4.024606299212598
 31
0.0
  0
LINE
  5
2B2F
330
1E
100
AcDbEntity
  8
3
100
AcDbLine
 10
2.171259842519685
 20
4.024606299212598
 30
0.0
 11
2.076771653543306
 21
4.024606299212598
 31
0.0
  0
LINE
  5
2B30
330
1E
100
AcDbEntity
  8
3
100
AcDbLine
 10
1.941929133858267
 20
4.030511811023622
 30
0.0
 11
1.937992125984251
 21
4.038385826771653
 31
0.0
  0
LINE
  5
2B36
330
1E
100
AcDbEntity
  8
3
100
AcDbLine
 10
1.937992125984251
 20
4.038385826771653
 30
0.0
 11
2.045275590551181
 21
4.038385826771653
 31
0.0
  0
LINE
  5
2B37
330
1E
100
AcDbEntity
  8
3
100
AcDbLine
 10
2.075787401574803
 20
4.024606299212598
 30
0.0
 11
2.095472440944881
 21
4.024606299212598
 31
0.0
  0
LINE
  5
2B38
330
1E
100
AcDbEntity
  8
3
100
AcDbLine
 10
1.942913385826771
 20
4.011811023622047
 30
0.0
 11
1.942913385826771
 21
4.010826771653543
 31
0.0
  0
LINE
  5
2B43
330
1E
100
AcDbEntity
  8
3
100
AcDbLine
 10
1.942913385826771
 20
4.011811023622047
 30
0.0
 11
1.942913385826771
 21
4.01279527559055
 31
0.0
  0
LINE
  5
2B44
330
1E
100
AcDbEntity
  8
3
100
AcDbLine
 10
2.045275590551181
 20
4.072834645669291
 30
0.0
 11
1.924212598425196
 21
4.072834645669291
 31
0.0
  0
LINE
  5
2B45
330
1E
100
AcDbEntity
  8
3
100
AcDbLine
 10
1.927165354330708
 20
4.038385826771653
 30
0.0
 11
1.924212598425196
 21
4.072834645669291
 31
0.0
  0
LINE
  5
2B46
330
1E
100
AcDbEntity
  8
3
100
AcDbLine
 10
1.937992125984251
 20
4.038385826771653
 30
0.0
 11
1.927165354330708
 21
4.038385826771653
 31
0.0
  0
LINE
  5
2B47
330
1E
100
AcDbEntity
  8
3
100
AcDbLine
 10
2.045275590551181
 20
4.038385826771653
 30
0.0
 11
2.045275590551181
 21
4.072834645669291
 31
0.0
  0
LINE
  5
2B48
330
1E
100
AcDbEntity
  8
3
100
AcDbLine
 10
2.045275590551181
 20
4.113188976377952
 30
0.0
 11
2.045275590551181
 21
4.072834645669291
 31
0.0
  0
LINE
  5
2B49
330
1E
100
AcDbEntity
  8
3
100
AcDbLine
 10
1.924212598425196
 20
4.113188976377952
 30
0.0
 11
1.924212598425196
 21
4.072834645669291
 31
0.0
  0
LINE
  5
2B4A
330
1E
100
AcDbEntity
  8
3
100
AcDbLine
 10
2.045275590551181
 20
4.113188976377952
 30
0.0
 11
1.924212598425196
 21
4.113188976377952
 31
0.0
  0
LINE
  5
2B4B
330
1E
100
AcDbEntity
  8
3
100
AcDbLine
 10
1.922244094488188
 20
4.113188976377952
 30
0.0
 11
1.924212598425196
 21
4.113188976377952
 31
0.0
  0
LINE
  5
2B4C
330
1E
100
AcDbEntity
  8
3
100
AcDbLine
 10
1.922244094488188
 20
4.061023622047244
 30
0.0
 11
1.922244094488188
 21
4.113188976377952
 31
0.0
  0
LINE
  5
2B53
330
1E
100
AcDbEntity
  8
3
100
AcDbLine
 10
1.924212598425196
 20
4.029527559055117
 30
0.0
 11
1.923228346456692
 21
4.030511811023622
 31
0.0
  0
LINE
  5
2B54
330
1E
100
AcDbEntity
  8
3
100
AcDbLine
 10
1.926181102362204
 20
3.998031496062991
 30
0.0
 11
1.924212598425196
 21
4.029527559055117
 31
0.0
  0
LINE
  5
2B55
330
1E
100
AcDbEntity
  8
3
100
AcDbLine
 10
1.927165354330708
 20
3.998031496062991
 30
0.0
 11
1.926181102362204
 21
3.998031496062991
 31
0.0
  0
LINE
  5
2B56
330
1E
100
AcDbEntity
  8
3
100
AcDbLine
 10
1.927165354330708
 20
3.998031496062991
 30
0.0
 11
1.927165354330708
 21
4.038385826771653
 31
0.0
  0
LINE
  5
2B57
330
1E
100
AcDbEntity
  8
3
100
AcDbLine
 10
1.601377952755905
 20
4.113188976377952
 30
0.0
 11
1.722440944881889
 21
4.113188976377952
 31
0.0
  0
LINE
  5
2B58
330
1E
100
AcDbEntity
  8
3
100
AcDbLine
 10
1.724409448818897
 20
4.113188976377952
 30
0.0
 11
1.722440944881889
 21
4.113188976377952
 31
0.0
  0
LINE
  5
2B59
330
1E
100
AcDbEntity
  8
3
100
AcDbLine
 10
1.724409448818897
 20
4.113188976377952
 30
0.0
 11
1.922244094488188
 21
4.113188976377952
 31
0.0
  0
LINE
  5
2B5A
330
1E
100
AcDbEntity
  8
3
100
AcDbLine
 10
1.719488188976378
 20
3.998031496062991
 30
0.0
 11
1.719488188976378
 21
4.038385826771653
 31
0.0
  0
LINE
  5
2B5B
330
1E
100
AcDbEntity
  8
3
100
AcDbLine
 10
1.708661417322834
 20
4.038385826771653
 30
0.0
 11
1.719488188976378
 21
4.038385826771653
 31
0.0
  0
LINE
  5
2B5C
330
1E
100
AcDbEntity
  8
3
100
AcDbLine
 10
1.720472440944881
 20
3.998031496062991
 30
0.0
 11
1.926181102362204
 21
3.998031496062991
 31
0.0
  0
LINE
  5
2B5D
330
1E
100
AcDbEntity
  8
3
100
AcDbLine
 10
1.719488188976378
 20
3.998031496062991
 30
0.0
 11
1.720472440944881
 21
3.998031496062991
 31
0.0
  0
LINE
  5
2B5E
330
1E
100
AcDbEntity
  8
3
100
AcDbLine
 10
1.722440944881889
 20
4.029527559055117
 30
0.0
 11
1.924212598425196
 21
4.029527559055117
 31
0.0
  0
LINE
  5
2B5F
330
1E
100
AcDbEntity
  8
3
100
AcDbLine
 10
1.720472440944881
 20
3.998031496062991
 30
0.0
 11
1.722440944881889
 21
4.029527559055117
 31
0.0
  0
LINE
  5
2B60
330
1E
100
AcDbEntity
  8
3
100
AcDbLine
 10
1.723425196850393
 20
4.030511811023622
 30
0.0
 11
1.923228346456692
 21
4.030511811023622
 31
0.0
  0
LINE
  5
2B61
330
1E
100
AcDbEntity
  8
3
100
AcDbLine
 10
1.722440944881889
 20
4.029527559055117
 30
0.0
 11
1.723425196850393
 21
4.030511811023622
 31
0.0
  0
LINE
  5
2B62
330
1E
100
AcDbEntity
  8
3
100
AcDbLine
 10
1.724409448818897
 20
4.061023622047244
 30
0.0
 11
1.922244094488188
 21
4.061023622047244
 31
0.0
  0
LINE
  5
2B6A
330
1E
100
AcDbEntity
  8
3
100
AcDbLine
 10
2.290354330708661
 20
2.81496062992126
 30
0.0
 11
2.24015748031496
 21
2.974409448818897
 31
0.0
  0
LINE
  5
2B6B
330
1E
100
AcDbEntity
  8
3
100
AcDbLine
 10
2.290354330708661
 20
2.798228346456692
 30
0.0
 11
2.290354330708661
 21
2.81496062992126
 31
0.0
  0
LINE
  5
2B71
330
1E
100
AcDbEntity
  8
3
100
AcDbLine
 10
2.236220472440944
 20
2.782480314960629
 30
0.0
 11
2.28248031496063
 21
2.788385826771653
 31
0.0
  0
LINE
  5
2B72
330
1E
100
AcDbEntity
  8
3
100
AcDbLine
 10
2.186023622047243
 20
2.778543307086613
 30
0.0
 11
2.18503937007874
 21
2.778543307086613
 31
0.0
  0
LINE
  5
2B78
330
1E
100
AcDbEntity
  8
3
100
AcDbLine
 10
2.173228346456693
 20
2.83759842519685
 30
0.0
 11
2.183070866141732
 21
2.778543307086613
 31
0.0
  0
LINE
  5
2B79
330
1E
100
AcDbEntity
  8
3
100
AcDbLine
 10
2.236220472440944
 20
3.004921259842519
 30
0.0
 11
2.24015748031496
 21
2.974409448818897
 31
0.0
  0
LINE
  5
2B7A
330
1E
100
AcDbEntity
  8
3
100
AcDbLine
 10
2.172244094488188
 20
3.02755905511811
 30
0.0
 11
2.173228346456693
 21
3.02755905511811
 31
0.0
  0
LINE
  5
2B7B
330
1E
100
AcDbEntity
  8
3
100
AcDbLine
 10
2.190944881889763
 20
2.75
 30
0.0
 11
2.1751968503937
 21
2.83759842519685
 31
0.0
  0
LINE
  5
2B81
330
1E
100
AcDbEntity
  8
3
100
AcDbLine
 10
2.064960629921259
 20
2.725393700787401
 30
0.0
 11
2.064960629921259
 21
2.746062992125984
 31
0.0
  0
LINE
  5
2B82
330
1E
100
AcDbEntity
  8
3
100
AcDbLine
 10
2.177165354330708
 20
2.83759842519685
 30
0.0
 11
2.192913385826771
 21
2.746062992125984
 31
0.0
  0
LINE
  5
2B83
330
1E
100
AcDbEntity
  8
3
100
AcDbLine
 10
2.064960629921259
 20
2.746062992125984
 30
0.0
 11
2.192913385826771
 21
2.746062992125984
 31
0.0
  0
LINE
  5
2B84
330
1E
100
AcDbEntity
  8
3
100
AcDbLine
 10
2.187007874015748
 20
2.746062992125984
 30
0.0
 11
2.171259842519685
 21
2.83759842519685
 31
0.0
  0
LINE
  5
2B85
330
1E
100
AcDbEntity
  8
3
100
AcDbLine
 10
1.475393700787401
 20
2.83759842519685
 30
0.0
 11
1.475393700787401
 21
4.024606299212598
 31
0.0
  0
LINE
  5
2B86
330
1E
100
AcDbEntity
  8
3
100
AcDbLine
 10
1.474409448818897
 20
4.069881889763779
 30
0.0
 11
1.475393700787401
 21
4.024606299212598
 31
0.0
  0
LINE
  5
2B87
330
1E
100
AcDbEntity
  8
3
100
AcDbLine
 10
1.474409448818897
 20
4.094488188976377
 30
0.0
 11
1.474409448818897
 21
4.069881889763779
 31
0.0
  0
LINE
  5
2B88
330
1E
100
AcDbEntity
  8
3
100
AcDbLine
 10
1.470472440944881
 20
3.560039370078739
 30
0.0
 11
1.474409448818897
 21
4.094488188976377
 31
0.0
  0
LINE
  5
2B92
330
1E
100
AcDbEntity
  8
3
100
AcDbLine
 10
1.469488188976378
 20
2.83759842519685
 30
0.0
 11
1.469488188976378
 21
3.238188976377952
 31
0.0
  0
LINE
  5
2B93
330
1E
100
AcDbEntity
  8
3
100
AcDbLine
 10
1.471456692913386
 20
2.83759842519685
 30
0.0
 11
1.469488188976378
 21
2.83759842519685
 31
0.0
  0
LINE
  5
2B9E
330
1E
100
AcDbEntity
  8
3
100
AcDbLine
 10
1.471456692913386
 20
2.83759842519685
 30
0.0
 11
1.471456692913386
 21
3.02755905511811
 31
0.0
  0
LINE
  5
2B9F
330
1E
100
AcDbEntity
  8
3
100
AcDbLine
 10
1.473425196850393
 20
2.83759842519685
 30
0.0
 11
1.471456692913386
 21
2.83759842519685
 31
0.0
  0
LINE
  5
2BA0
330
1E
100
AcDbEntity
  8
3
100
AcDbLine
 10
1.473425196850393
 20
2.83759842519685
 30
0.0
 11
1.473425196850393
 21
3.02755905511811
 31
0.0
  0
LINE
  5
2BAA
330
1E
100
AcDbEntity
  8
3
100
AcDbLine
 10
1.474409448818897
 20
3.02755905511811
 30
0.0
 11
1.474409448818897
 21
2.83759842519685
 31
0.0
  0
LINE
  5
2BAB
330
1E
100
AcDbEntity
  8
3
100
AcDbLine
 10
1.475393700787401
 20
2.83759842519685
 30
0.0
 11
1.474409448818897
 21
2.83759842519685
 31
0.0
  0
LINE
  5
2BAC
330
1E
100
AcDbEntity
  8
3
100
AcDbLine
 10
1.410433070866141
 20
3.238188976377952
 30
0.0
 11
1.410433070866141
 21
3.308070866141732
 31
0.0
  0
LINE
  5
2BB5
330
1E
100
AcDbEntity
  8
3
100
AcDbLine
 10
1.410433070866141
 20
2.725393700787401
 30
0.0
 11
1.410433070866141
 21
3.238188976377952
 31
0.0
  0
LINE
  5
2BB6
330
1E
100
AcDbEntity
  8
3
100
AcDbLine
 10
1.475393700787401
 20
4.024606299212598
 30
0.0
 11
1.500984251968504
 21
4.024606299212598
 31
0.0
  0
LINE
  5
2BB7
330
1E
100
AcDbEntity
  8
3
100
AcDbLine
 10
1.475393700787401
 20
2.746062992125984
 30
0.0
 11
1.475393700787401
 21
2.83759842519685
 31
0.0
  0
LINE
  5
2BB8
330
1E
100
AcDbEntity
  8
3
100
AcDbLine
 10
1.410433070866141
 20
3.560039370078739
 30
0.0
 11
1.470472440944881
 21
3.560039370078739
 31
0.0
  0
LINE
  5
2BB9
330
1E
100
AcDbEntity
  8
3
100
AcDbLine
 10
1.469488188976378
 20
3.238188976377952
 30
0.0
 11
1.410433070866141
 21
3.238188976377952
 31
0.0
  0
LINE
  5
2BBA
330
1E
100
AcDbEntity
  8
3
100
AcDbLine
 10
1.410433070866141
 20
4.094488188976377
 30
0.0
 11
1.474409448818897
 21
4.094488188976377
 31
0.0
  0
LINE
  5
2BBB
330
1E
100
AcDbEntity
  8
3
100
AcDbLine
 10
1.568897637795275
 20
4.094488188976377
 30
0.0
 11
1.474409448818897
 21
4.094488188976377
 31
0.0
  0
LINE
  5
2BBC
330
1E
100
AcDbEntity
  8
3
100
AcDbLine
 10
1.474409448818897
 20
4.069881889763779
 30
0.0
 11
1.568897637795275
 21
4.069881889763779
 31
0.0
  0
LINE
  5
2BBD
330
1E
100
AcDbEntity
  8
3
100
AcDbLine
 10
1.568897637795275
 20
4.094488188976377
 30
0.0
 11
1.568897637795275
 21
4.069881889763779
 31
0.0
  0
LINE
  5
2BBE
330
1E
100
AcDbEntity
  8
3
100
AcDbLine
 10
1.570866141732283
 20
4.024606299212598
 30
0.0
 11
1.569881889763779
 21
4.024606299212598
 31
0.0
  0
LINE
  5
2BBF
330
1E
100
AcDbEntity
  8
3
100
AcDbLine
 10
1.570866141732283
 20
4.094488188976377
 30
0.0
 11
1.570866141732283
 21
4.024606299212598
 31
0.0
  0
LINE
  5
2BC0
330
1E
100
AcDbEntity
  8
3
100
AcDbLine
 10
1.568897637795275
 20
4.094488188976377
 30
0.0
 11
1.570866141732283
 21
4.094488188976377
 31
0.0
  0
LINE
  5
2BC1
330
1E
100
AcDbEntity
  8
3
100
AcDbLine
 10
1.568897637795275
 20
4.069881889763779
 30
0.0
 11
1.569881889763779
 21
4.024606299212598
 31
0.0
  0
LINE
  5
2BC2
330
1E
100
AcDbEntity
  8
3
100
AcDbLine
 10
1.475393700787401
 20
4.024606299212598
 30
0.0
 11
1.569881889763779
 21
4.024606299212598
 31
0.0
  0
LINE
  5
2BC8
330
1E
100
AcDbEntity
  8
3
100
AcDbLine
 10
1.601377952755905
 20
4.030511811023622
 30
0.0
 11
1.601377952755905
 21
4.038385826771653
 31
0.0
  0
LINE
  5
2BC9
330
1E
100
AcDbEntity
  8
3
100
AcDbLine
 10
1.704724409448818
 20
4.030511811023622
 30
0.0
 11
1.601377952755905
 21
4.030511811023622
 31
0.0
  0
LINE
  5
2BCA
330
1E
100
AcDbEntity
  8
3
100
AcDbLine
 10
1.570866141732283
 20
4.024606299212598
 30
0.0
 11
1.551181102362204
 21
4.024606299212598
 31
0.0
  0
LINE
  5
2BCB
330
1E
100
AcDbEntity
  8
3
100
AcDbLine
 10
1.703740157480314
 20
4.011811023622047
 30
0.0
 11
1.703740157480314
 21
4.010826771653543
 31
0.0
  0
LINE
  5
2BCC
330
1E
100
AcDbEntity
  8
3
100
AcDbLine
 10
1.703740157480314
 20
4.011811023622047
 30
0.0
 11
1.703740157480314
 21
4.01279527559055
 31
0.0
  0
LINE
  5
2BD7
330
1E
100
AcDbEntity
  8
3
100
AcDbLine
 10
1.601377952755905
 20
4.072834645669291
 30
0.0
 11
1.722440944881889
 21
4.072834645669291
 31
0.0
  0
LINE
  5
2BD8
330
1E
100
AcDbEntity
  8
3
100
AcDbLine
 10
1.601377952755905
 20
4.038385826771653
 30
0.0
 11
1.601377952755905
 21
4.072834645669291
 31
0.0
  0
LINE
  5
2BD9
330
1E
100
AcDbEntity
  8
3
100
AcDbLine
 10
1.719488188976378
 20
4.038385826771653
 30
0.0
 11
1.722440944881889
 21
4.072834645669291
 31
0.0
  0
LINE
  5
2BDA
330
1E
100
AcDbEntity
  8
3
100
AcDbLine
 10
1.601377952755905
 20
4.113188976377952
 30
0.0
 11
1.601377952755905
 21
4.072834645669291
 31
0.0
  0
LINE
  5
2BDB
330
1E
100
AcDbEntity
  8
3
100
AcDbLine
 10
1.722440944881889
 20
4.113188976377952
 30
0.0
 11
1.722440944881889
 21
4.072834645669291
 31
0.0
  0
LINE
  5
2BDC
330
1E
100
AcDbEntity
  8
3
100
AcDbLine
 10
1.355314960629921
 20
2.81496062992126
 30
0.0
 11
1.406496062992125
 21
2.974409448818897
 31
0.0
  0
LINE
  5
2BDD
330
1E
100
AcDbEntity
  8
3
100
AcDbLine
 10
1.355314960629921
 20
2.798228346456692
 30
0.0
 11
1.355314960629921
 21
2.81496062992126
 31
0.0
  0
LINE
  5
2BE3
330
1E
100
AcDbEntity
  8
3
100
AcDbLine
 10
1.410433070866141
 20
2.782480314960629
 30
0.0
 11
1.364173228346456
 21
2.788385826771653
 31
0.0
  0
LINE
  5
2BE4
330
1E
100
AcDbEntity
  8
3
100
AcDbLine
 10
1.463582677165354
 20
2.778543307086613
 30
0.0
 11
1.460629921259842
 21
2.778543307086613
 31
0.0
  0
LINE
  5
2BE5
330
1E
100
AcDbEntity
  8
3
100
AcDbLine
 10
1.473425196850393
 20
2.83759842519685
 30
0.0
 11
1.463582677165354
 21
2.778543307086613
 31
0.0
  0
LINE
  5
2BE6
330
1E
100
AcDbEntity
  8
3
100
AcDbLine
 10
1.460629921259842
 20
2.778543307086613
 30
0.0
 11
1.471456692913386
 21
2.83759842519685
 31
0.0
  0
LINE
  5
2BE7
330
1E
100
AcDbEntity
  8
3
100
AcDbLine
 10
1.410433070866141
 20
3.004921259842519
 30
0.0
 11
1.406496062992125
 21
2.974409448818897
 31
0.0
  0
LINE
  5
2BE8
330
1E
100
AcDbEntity
  8
3
100
AcDbLine
 10
1.474409448818897
 20
3.02755905511811
 30
0.0
 11
1.473425196850393
 21
3.02755905511811
 31
0.0
  0
LINE
  5
2BE9
330
1E
100
AcDbEntity
  8
3
100
AcDbLine
 10
1.455708661417322
 20
2.75
 30
0.0
 11
1.471456692913386
 21
2.83759842519685
 31
0.0
  0
LINE
  5
2BF4
330
1E
100
AcDbEntity
  8
3
100
AcDbLine
 10
1.469488188976378
 20
2.83759842519685
 30
0.0
 11
1.453740157480314
 21
2.746062992125984
 31
0.0
  0
LINE
  5
2BF5
330
1E
100
AcDbEntity
  8
3
100
AcDbLine
 10
1.459645669291338
 20
2.746062992125984
 30
0.0
 11
1.475393700787401
 21
2.83759842519685
 31
0.0
  0
LINE
  5
2BF6
330
1E
100
AcDbEntity
  8
3
100
AcDbLine
 10
1.970472440944881
 20
0.188976377952756
 30
0.0
 11
2.02263779527559
 21
0.188976377952756
 31
0.0
  0
LINE
  5
2BF7
330
1E
100
AcDbEntity
  8
3
100
AcDbLine
 10
1.624015748031496
 20
0.188976377952756
 30
0.0
 11
1.676181102362204
 21
0.188976377952756
 31
0.0
  0
LINE
  5
2C78
330
1E
100
AcDbEntity
  8
3
100
AcDbLine
 10
1.439960629921259
 20
0.2352362204724407
 30
0.0
 11
1.470472440944881
 21
0.2303149606299213
 31
0.0
  0
LINE
  5
2C87
330
1E
100
AcDbEntity
  8
3
100
AcDbLine
 10
2.065944881889763
 20
1.045275590551181
 30
0.0
 11
2.064960629921259
 21
1.044291338582676
 31
0.0
  0
LINE
  5
2C88
330
1E
100
AcDbEntity
  8
3
100
AcDbLine
 10
1.470472440944881
 20
1.133858267716535
 30
0.0
 11
2.176181102362204
 21
1.133858267716535
 31
0.0
  0
LINE
  5
2C89
330
1E
100
AcDbEntity
  8
3
100
AcDbLine
 10
1.470472440944881
 20
0.2293307086614171
 30
0.0
 11
2.176181102362204
 21
0.2293307086614171
 31
0.0
  0
LINE
  5
2C8A
330
1E
100
AcDbEntity
  8
3
100
AcDbLine
 10
2.130905511811023
 20
0.3287401574803148
 30
0.0
 11
1.515748031496062
 21
0.3287401574803148
 31
0.0
  0
LINE
  5
2C8B
330
1E
100
AcDbEntity
  8
3
100
AcDbLine
 10
1.515748031496062
 20
0.9852362204724407
 30
0.0
 11
1.515748031496062
 21
0.3287401574803148
 31
0.0
  0
LINE
  5
2C8C
330
1E
100
AcDbEntity
  8
3
100
AcDbLine
 10
1.515748031496062
 20
0.9852362204724407
 30
0.0
 11
1.580708661417322
 21
0.9852362204724407
 31
0.0
  0
LINE
  5
2C8D
330
1E
100
AcDbEntity
  8
3
100
AcDbLine
 10
1.580708661417322
 20
1.045275590551181
 30
0.0
 11
1.580708661417322
 21
0.9852362204724407
 31
0.0
  0
LINE
  5
2C8E
330
1E
100
AcDbEntity
  8
3
100
AcDbLine
 10
2.065944881889763
 20
1.045275590551181
 30
0.0
 11
2.065944881889763
 21
0.9852362204724407
 31
0.0
  0
LINE
  5
2C8F
330
1E
100
AcDbEntity
  8
3
100
AcDbLine
 10
2.130905511811023
 20
0.9852362204724407
 30
0.0
 11
2.065944881889763
 21
0.9852362204724407
 31
0.0
  0
LINE
  5
2C90
330
1E
100
AcDbEntity
  8
3
100
AcDbLine
 10
2.130905511811023
 20
0.9852362204724407
 30
0.0
 11
2.130905511811023
 21
0.3287401574803148
 31
0.0
  0
LINE
  5
2C91
330
1E
100
AcDbEntity
  8
3
100
AcDbLine
 10
2.275590551181102
 20
0.329724409448819
 30
0.0
 11
2.275590551181102
 21
1.034448818897637
 31
0.0
  0
LINE
  5
2C92
330
1E
100
AcDbEntity
  8
3
100
AcDbLine
 10
1.371062992125984
 20
0.329724409448819
 30
0.0
 11
1.371062992125984
 21
1.034448818897637
 31
0.0
  0
LINE
  5
2C93
330
1E
100
AcDbEntity
  8
3
100
AcDbLine
 10
2.064960629921259
 20
1.044291338582676
 30
0.0
 11
2.064960629921259
 21
1.008858267716535
 31
0.0
  0
LINE
  5
2C94
330
1E
100
AcDbEntity
  8
3
100
AcDbLine
 10
1.581692913385826
 20
1.044291338582676
 30
0.0
 11
1.581692913385826
 21
1.008858267716535
 31
0.0
  0
LINE
  5
2C95
330
1E
100
AcDbEntity
  8
3
100
AcDbLine
 10
1.516732283464567
 20
0.329724409448819
 30
0.0
 11
2.129921259842519
 21
0.329724409448819
 31
0.0
  0
LINE
  5
2C96
330
1E
100
AcDbEntity
  8
3
100
AcDbLine
 10
2.129921259842519
 20
0.4438976377952755
 30
0.0
 11
2.077755905511811
 21
0.4438976377952755
 31
0.0
  0
LINE
  5
2C97
330
1E
100
AcDbEntity
  8
3
100
AcDbLine
 10
2.075787401574803
 20
0.329724409448819
 30
0.0
 11
2.076771653543306
 21
0.3789370078740157
 31
0.0
  0
LINE
  5
2C98
330
1E
100
AcDbEntity
  8
3
100
AcDbLine
 10
2.077755905511811
 20
0.4438976377952755
 30
0.0
 11
2.076771653543306
 21
0.3789370078740157
 31
0.0
  0
LINE
  5
2C99
330
1E
100
AcDbEntity
  8
3
100
AcDbLine
 10
2.129921259842519
 20
0.3789370078740157
 30
0.0
 11
2.076771653543306
 21
0.3789370078740157
 31
0.0
  0
LINE
  5
2C9A
330
1E
100
AcDbEntity
  8
3
100
AcDbLine
 10
1.941929133858267
 20
0.3454724409448819
 30
0.0
 11
1.937992125984251
 21
0.3897637795275588
 31
0.0
  0
LINE
  5
2CA0
330
1E
100
AcDbEntity
  8
3
100
AcDbLine
 10
1.937992125984251
 20
0.3897637795275588
 30
0.0
 11
2.045275590551181
 21
0.3897637795275588
 31
0.0
  0
LINE
  5
2CA1
330
1E
100
AcDbEntity
  8
3
100
AcDbLine
 10
2.02263779527559
 20
0.2145669291338583
 30
0.0
 11
2.02263779527559
 21
0.2293307086614171
 31
0.0
  0
LINE
  5
2CA8
330
1E
100
AcDbEntity
  8
3
100
AcDbLine
 10
1.969488188976378
 20
0.2145669291338583
 30
0.0
 11
1.969488188976378
 21
0.2293307086614171
 31
0.0
  0
LINE
  5
2CBA
330
1E
100
AcDbEntity
  8
3
100
AcDbLine
 10
2.045275590551181
 20
0.4842519685039371
 30
0.0
 11
1.924212598425196
 21
0.4842519685039371
 31
0.0
  0
LINE
  5
2CBB
330
1E
100
AcDbEntity
  8
3
100
AcDbLine
 10
1.937992125984251
 20
0.3897637795275588
 30
0.0
 11
1.927165354330708
 21
0.3897637795275588
 31
0.0
  0
LINE
  5
2CBC
330
1E
100
AcDbEntity
  8
3
100
AcDbLine
 10
2.045275590551181
 20
0.3897637795275588
 30
0.0
 11
2.045275590551181
 21
0.4842519685039371
 31
0.0
  0
LINE
  5
2CC3
330
1E
100
AcDbEntity
  8
3
100
AcDbLine
 10
1.924212598425196
 20
0.4773622047244093
 30
0.0
 11
1.923228346456692
 21
0.5009842519685038
 31
0.0
  0
LINE
  5
2CC4
330
1E
100
AcDbEntity
  8
3
100
AcDbLine
 10
1.926181102362204
 20
0.4104330708661417
 30
0.0
 11
1.924212598425196
 21
0.4773622047244093
 31
0.0
  0
LINE
  5
2CC5
330
1E
100
AcDbEntity
  8
3
100
AcDbLine
 10
1.927165354330708
 20
0.3897637795275588
 30
0.0
 11
1.926181102362204
 21
0.4104330708661417
 31
0.0
  0
LINE
  5
2CC6
330
1E
100
AcDbEntity
  8
3
100
AcDbLine
 10
1.927165354330708
 20
0.3897637795275588
 30
0.0
 11
1.719488188976378
 21
0.3897637795275588
 31
0.0
  0
LINE
  5
2CC7
330
1E
100
AcDbEntity
  8
3
100
AcDbLine
 10
1.708661417322834
 20
0.3897637795275588
 30
0.0
 11
1.719488188976378
 21
0.3897637795275588
 31
0.0
  0
LINE
  5
2CC8
330
1E
100
AcDbEntity
  8
3
100
AcDbLine
 10
1.720472440944881
 20
0.4104330708661417
 30
0.0
 11
1.926181102362204
 21
0.4104330708661417
 31
0.0
  0
LINE
  5
2CC9
330
1E
100
AcDbEntity
  8
3
100
AcDbLine
 10
1.719488188976378
 20
0.3897637795275588
 30
0.0
 11
1.720472440944881
 21
0.4104330708661417
 31
0.0
  0
LINE
  5
2CCA
330
1E
100
AcDbEntity
  8
3
100
AcDbLine
 10
1.722440944881889
 20
0.4773622047244093
 30
0.0
 11
1.924212598425196
 21
0.4773622047244093
 31
0.0
  0
LINE
  5
2CCB
330
1E
100
AcDbEntity
  8
3
100
AcDbLine
 10
1.720472440944881
 20
0.4104330708661417
 30
0.0
 11
1.722440944881889
 21
0.4773622047244093
 31
0.0
  0
LINE
  5
2CCC
330
1E
100
AcDbEntity
  8
3
100
AcDbLine
 10
1.723425196850393
 20
0.5009842519685038
 30
0.0
 11
1.923228346456692
 21
0.5009842519685038
 31
0.0
  0
LINE
  5
2CCD
330
1E
100
AcDbEntity
  8
3
100
AcDbLine
 10
1.722440944881889
 20
0.4773622047244093
 30
0.0
 11
1.723425196850393
 21
0.5009842519685038
 31
0.0
  0
LINE
  5
2CCE
330
1E
100
AcDbEntity
  8
3
100
AcDbLine
 10
1.724409448818897
 20
0.5295275590551181
 30
0.0
 11
1.922244094488188
 21
0.5295275590551181
 31
0.0
  0
LINE
  5
2CD5
330
1E
100
AcDbEntity
  8
3
100
AcDbLine
 10
2.290354330708661
 20
0.8051181102362203
 30
0.0
 11
2.290354330708661
 21
0.5590551181102362
 31
0.0
  0
LINE
  5
2CDB
330
1E
100
AcDbEntity
  8
3
100
AcDbLine
 10
2.28248031496063
 20
0.8051181102362203
 30
0.0
 11
2.28248031496063
 21
0.5590551181102362
 31
0.0
  0
LINE
  5
2CE1
330
1E
100
AcDbEntity
  8
3
100
AcDbLine
 10
2.275590551181102
 20
0.8051181102362203
 30
0.0
 11
2.28248031496063
 21
0.8051181102362203
 31
0.0
  0
LINE
  5
2CE2
330
1E
100
AcDbEntity
  8
3
100
AcDbLine
 10
2.28248031496063
 20
0.5590551181102362
 30
0.0
 11
2.275590551181102
 21
0.5590551181102362
 31
0.0
  0
LINE
  5
2CE3
330
1E
100
AcDbEntity
  8
3
100
AcDbLine
 10
2.065944881889763
 20
0.9852362204724407
 30
0.0
 11
2.064960629921259
 21
0.984251968503937
 31
0.0
  0
LINE
  5
2CE4
330
1E
100
AcDbEntity
  8
3
100
AcDbLine
 10
2.064960629921259
 20
0.984251968503937
 30
0.0
 11
2.064960629921259
 21
1.008858267716535
 31
0.0
  0
LINE
  5
2CE5
330
1E
100
AcDbEntity
  8
3
100
AcDbLine
 10
2.130905511811023
 20
0.9852362204724407
 30
0.0
 11
2.129921259842519
 21
0.984251968503937
 31
0.0
  0
LINE
  5
2CE6
330
1E
100
AcDbEntity
  8
3
100
AcDbLine
 10
2.064960629921259
 20
0.984251968503937
 30
0.0
 11
2.129921259842519
 21
0.984251968503937
 31
0.0
  0
LINE
  5
2CE7
330
1E
100
AcDbEntity
  8
3
100
AcDbLine
 10
1.515748031496062
 20
0.3287401574803148
 30
0.0
 11
1.516732283464567
 21
0.329724409448819
 31
0.0
  0
LINE
  5
2CED
330
1E
100
AcDbEntity
  8
3
100
AcDbLine
 10
1.516732283464567
 20
0.4438976377952755
 30
0.0
 11
1.568897637795275
 21
0.4438976377952755
 31
0.0
  0
LINE
  5
2CEE
330
1E
100
AcDbEntity
  8
3
100
AcDbLine
 10
1.570866141732283
 20
0.329724409448819
 30
0.0
 11
1.569881889763779
 21
0.3789370078740157
 31
0.0
  0
LINE
  5
2CEF
330
1E
100
AcDbEntity
  8
3
100
AcDbLine
 10
1.568897637795275
 20
0.4438976377952755
 30
0.0
 11
1.569881889763779
 21
0.3789370078740157
 31
0.0
  0
LINE
  5
2CF0
330
1E
100
AcDbEntity
  8
3
100
AcDbLine
 10
1.516732283464567
 20
0.3789370078740157
 30
0.0
 11
1.569881889763779
 21
0.3789370078740157
 31
0.0
  0
LINE
  5
2CF6
330
1E
100
AcDbEntity
  8
3
100
AcDbLine
 10
1.601377952755905
 20
0.3454724409448819
 30
0.0
 11
1.601377952755905
 21
0.3897637795275588
 31
0.0
  0
LINE
  5
2CF7
330
1E
100
AcDbEntity
  8
3
100
AcDbLine
 10
1.704724409448818
 20
0.3454724409448819
 30
0.0
 11
1.601377952755905
 21
0.3454724409448819
 31
0.0
  0
LINE
  5
2D02
330
1E
100
AcDbEntity
  8
3
100
AcDbLine
 10
1.601377952755905
 20
0.4842519685039371
 30
0.0
 11
1.722440944881889
 21
0.4842519685039371
 31
0.0
  0
LINE
  5
2D03
330
1E
100
AcDbEntity
  8
3
100
AcDbLine
 10
1.601377952755905
 20
0.3897637795275588
 30
0.0
 11
1.601377952755905
 21
0.4842519685039371
 31
0.0
  0
LINE
  5
2D0A
330
1E
100
AcDbEntity
  8
3
100
AcDbLine
 10
1.364173228346456
 20
0.8051181102362203
 30
0.0
 11
1.364173228346456
 21
0.5590551181102362
 31
0.0
  0
LINE
  5
2D10
330
1E
100
AcDbEntity
  8
3
100
AcDbLine
 10
1.364173228346456
 20
0.5590551181102362
 30
0.0
 11
1.371062992125984
 21
0.5590551181102362
 31
0.0
  0
LINE
  5
2D11
330
1E
100
AcDbEntity
  8
3
100
AcDbLine
 10
1.371062992125984
 20
0.8051181102362203
 30
0.0
 11
1.364173228346456
 21
0.8051181102362203
 31
0.0
  0
LINE
  5
2D17
330
1E
100
AcDbEntity
  8
3
100
AcDbLine
 10
1.515748031496062
 20
0.9852362204724407
 30
0.0
 11
1.516732283464567
 21
0.984251968503937
 31
0.0
  0
LINE
  5
2D18
330
1E
100
AcDbEntity
  8
3
100
AcDbLine
 10
1.581692913385826
 20
0.984251968503937
 30
0.0
 11
1.516732283464567
 21
0.984251968503937
 31
0.0
  0
LINE
  5
2D19
330
1E
100
AcDbEntity
  8
3
100
AcDbLine
 10
1.516732283464567
 20
0.329724409448819
 30
0.0
 11
1.516732283464567
 21
0.984251968503937
 31
0.0
  0
LINE
  5
2D1A
330
1E
100
AcDbEntity
  8
3
100
AcDbLine
 10
1.677165354330708
 20
0.2145669291338583
 30
0.0
 11
1.676181102362204
 21
0.2007874015748032
 31
0.0
  0
LINE
  5
2D20
330
1E
100
AcDbEntity
  8
3
100
AcDbLine
 10
1.624015748031496
 20
0.2145669291338583
 30
0.0
 11
1.677165354330708
 21
0.2145669291338583
 31
0.0
  0
LINE
  5
2D27
330
1E
100
AcDbEntity
  8
3
100
AcDbLine
 10
1.677165354330708
 20
0.2145669291338583
 30
0.0
 11
1.677165354330708
 21
0.2293307086614171
 31
0.0
  0
LINE
  5
2D28
330
1E
100
AcDbEntity
  8
3
100
AcDbLine
 10
1.624015748031496
 20
0.2145669291338583
 30
0.0
 11
1.624015748031496
 21
0.2293307086614171
 31
0.0
  0
LINE
  5
2D2C
330
1E
100
AcDbEntity
  8
3
100
AcDbLine
 10
1.624015748031496
 20
0.188976377952756
 30
0.0
 11
1.624015748031496
 21
0.1919291338582676
 31
0.0
  0
LINE
  5
2D2D
330
1E
100
AcDbEntity
  8
3
100
AcDbLine
 10
1.624015748031496
 20
0.1919291338582676
 30
0.0
 11
1.624015748031496
 21
0.2007874015748032
 31
0.0
  0
LINE
  5
2D2E
330
1E
100
AcDbEntity
  8
3
100
AcDbLine
 10
1.624015748031496
 20
0.2007874015748032
 30
0.0
 11
1.624015748031496
 21
0.2145669291338583
 31
0.0
  0
LINE
  5
2D2F
330
1E
100
AcDbEntity
  8
3
100
AcDbLine
 10
1.676181102362204
 20
0.2007874015748032
 30
0.0
 11
1.676181102362204
 21
0.1919291338582676
 31
0.0
  0
LINE
  5
2D30
330
1E
100
AcDbEntity
  8
3
100
AcDbLine
 10
1.676181102362204
 20
0.1919291338582676
 30
0.0
 11
1.676181102362204
 21
0.188976377952756
 31
0.0
  0
LINE
  5
2D31
330
1E
100
AcDbEntity
  8
3
100
AcDbLine
 10
1.580708661417322
 20
0.9852362204724407
 30
0.0
 11
1.581692913385826
 21
0.984251968503937
 31
0.0
  0
LINE
  5
2D32
330
1E
100
AcDbEntity
  8
3
100
AcDbLine
 10
1.581692913385826
 20
0.984251968503937
 30
0.0
 11
1.581692913385826
 21
1.008858267716535
 31
0.0
  0
LINE
  5
2D33
330
1E
100
AcDbEntity
  8
3
100
AcDbLine
 10
1.364173228346456
 20
0.8051181102362203
 30
0.0
 11
1.358267716535433
 21
0.8051181102362203
 31
0.0
  0
LINE
  5
2D34
330
1E
100
AcDbEntity
  8
3
100
AcDbLine
 10
1.358267716535433
 20
0.8051181102362203
 30
0.0
 11
1.355314960629921
 21
0.8051181102362203
 31
0.0
  0
LINE
  5
2D35
330
1E
100
AcDbEntity
  8
3
100
AcDbLine
 10
1.355314960629921
 20
0.8051181102362203
 30
0.0
 11
1.355314960629921
 21
0.5590551181102362
 31
0.0
  0
LINE
  5
2D36
330
1E
100
AcDbEntity
  8
3
100
AcDbLine
 10
1.355314960629921
 20
0.5590551181102362
 30
0.0
 11
1.358267716535433
 21
0.5590551181102362
 31
0.0
  0
LINE
  5
2D37
330
1E
100
AcDbEntity
  8
3
100
AcDbLine
 10
1.358267716535433
 20
0.5590551181102362
 30
0.0
 11
1.364173228346456
 21
0.5590551181102362
 31
0.0
  0
LINE
  5
2D38
330
1E
100
AcDbEntity
  8
3
100
AcDbLine
 10
1.601377952755905
 20
0.3454724409448819
 30
0.0
 11
1.601377952755905
 21
0.3336614173228347
 31
0.0
  0
LINE
  5
2D39
330
1E
100
AcDbEntity
  8
3
100
AcDbLine
 10
1.601377952755905
 20
0.3336614173228347
 30
0.0
 11
1.601377952755905
 21
0.329724409448819
 31
0.0
  0
LINE
  5
2D3A
330
1E
100
AcDbEntity
  8
3
100
AcDbLine
 10
1.704724409448818
 20
0.3454724409448819
 30
0.0
 11
1.703740157480314
 21
0.3346456692913384
 31
0.0
  0
LINE
  5
2D3B
330
1E
100
AcDbEntity
  8
3
100
AcDbLine
 10
1.703740157480314
 20
0.3346456692913384
 30
0.0
 11
1.703740157480314
 21
0.329724409448819
 31
0.0
  0
LINE
  5
2D3C
330
1E
100
AcDbEntity
  8
3
100
AcDbLine
 10
1.704724409448818
 20
0.3454724409448819
 30
0.0
 11
1.708661417322834
 21
0.3897637795275588
 31
0.0
  0
LINE
  5
2D3D
330
1E
100
AcDbEntity
  8
3
100
AcDbLine
 10
1.708661417322834
 20
0.3897637795275588
 30
0.0
 11
1.601377952755905
 21
0.3897637795275588
 31
0.0
  0
LINE
  5
2D3E
330
1E
100
AcDbEntity
  8
3
100
AcDbLine
 10
2.130905511811023
 20
0.3287401574803148
 30
0.0
 11
2.129921259842519
 21
0.329724409448819
 31
0.0
  0
LINE
  5
2D3F
330
1E
100
AcDbEntity
  8
3
100
AcDbLine
 10
2.129921259842519
 20
0.329724409448819
 30
0.0
 11
2.129921259842519
 21
0.984251968503937
 31
0.0
  0
LINE
  5
2D40
330
1E
100
AcDbEntity
  8
3
100
AcDbLine
 10
2.290354330708661
 20
0.5590551181102362
 30
0.0
 11
2.288385826771653
 21
0.5590551181102362
 31
0.0
  0
LINE
  5
2D41
330
1E
100
AcDbEntity
  8
3
100
AcDbLine
 10
2.288385826771653
 20
0.5590551181102362
 30
0.0
 11
2.28248031496063
 21
0.5590551181102362
 31
0.0
  0
LINE
  5
2D42
330
1E
100
AcDbEntity
  8
3
100
AcDbLine
 10
2.28248031496063
 20
0.8051181102362203
 30
0.0
 11
2.288385826771653
 21
0.8051181102362203
 31
0.0
  0
LINE
  5
2D43
330
1E
100
AcDbEntity
  8
3
100
AcDbLine
 10
2.288385826771653
 20
0.8051181102362203
 30
0.0
 11
2.290354330708661
 21
0.8051181102362203
 31
0.0
  0
LINE
  5
2D44
330
1E
100
AcDbEntity
  8
3
100
AcDbLine
 10
1.723425196850393
 20
0.5009842519685038
 30
0.0
 11
1.723425196850393
 21
0.515748031496063
 31
0.0
  0
LINE
  5
2D45
330
1E
100
AcDbEntity
  8
3
100
AcDbLine
 10
1.723425196850393
 20
0.515748031496063
 30
0.0
 11
1.724409448818897
 21
0.5255905511811024
 31
0.0
  0
LINE
  5
2D46
330
1E
100
AcDbEntity
  8
3
100
AcDbLine
 10
1.724409448818897
 20
0.5255905511811024
 30
0.0
 11
1.724409448818897
 21
0.5295275590551181
 31
0.0
  0
LINE
  5
2D47
330
1E
100
AcDbEntity
  8
3
100
AcDbLine
 10
1.923228346456692
 20
0.5009842519685038
 30
0.0
 11
1.923228346456692
 21
0.515748031496063
 31
0.0
  0
LINE
  5
2D48
330
1E
100
AcDbEntity
  8
3
100
AcDbLine
 10
1.923228346456692
 20
0.515748031496063
 30
0.0
 11
1.922244094488188
 21
0.5255905511811024
 31
0.0
  0
LINE
  5
2D49
330
1E
100
AcDbEntity
  8
3
100
AcDbLine
 10
1.922244094488188
 20
0.5255905511811024
 30
0.0
 11
1.922244094488188
 21
0.5295275590551181
 31
0.0
  0
LINE
  5
2D4A
330
1E
100
AcDbEntity
  8
3
100
AcDbLine
 10
1.941929133858267
 20
0.3454724409448819
 30
0.0
 11
1.942913385826771
 21
0.3346456692913384
 31
0.0
  0
LINE
  5
2D4B
330
1E
100
AcDbEntity
  8
3
100
AcDbLine
 10
1.942913385826771
 20
0.3346456692913384
 30
0.0
 11
1.942913385826771
 21
0.329724409448819
 31
0.0
  0
LINE
  5
2D4C
330
1E
100
AcDbEntity
  8
3
100
AcDbLine
 10
2.045275590551181
 20
0.3454724409448819
 30
0.0
 11
2.045275590551181
 21
0.3336614173228347
 31
0.0
  0
LINE
  5
2D4D
330
1E
100
AcDbEntity
  8
3
100
AcDbLine
 10
2.045275590551181
 20
0.3336614173228347
 30
0.0
 11
2.045275590551181
 21
0.329724409448819
 31
0.0
  0
LINE
  5
2D4E
330
1E
100
AcDbEntity
  8
3
100
AcDbLine
 10
2.02263779527559
 20
0.2145669291338583
 30
0.0
 11
1.969488188976378
 21
0.2145669291338583
 31
0.0
  0
LINE
  5
2D4F
330
1E
100
AcDbEntity
  8
3
100
AcDbLine
 10
1.969488188976378
 20
0.2145669291338583
 30
0.0
 11
1.970472440944881
 21
0.2007874015748032
 31
0.0
  0
LINE
  5
2D50
330
1E
100
AcDbEntity
  8
3
100
AcDbLine
 10
1.970472440944881
 20
0.2007874015748032
 30
0.0
 11
1.970472440944881
 21
0.1919291338582676
 31
0.0
  0
LINE
  5
2D51
330
1E
100
AcDbEntity
  8
3
100
AcDbLine
 10
1.970472440944881
 20
0.1919291338582676
 30
0.0
 11
1.970472440944881
 21
0.188976377952756
 31
0.0
  0
LINE
  5
2D52
330
1E
100
AcDbEntity
  8
3
100
AcDbLine
 10
2.02263779527559
 20
0.188976377952756
 30
0.0
 11
2.02263779527559
 21
0.1919291338582676
 31
0.0
  0
LINE
  5
2D53
330
1E
100
AcDbEntity
  8
3
100
AcDbLine
 10
2.02263779527559
 20
0.1919291338582676
 30
0.0
 11
2.02263779527559
 21
0.2007874015748032
 31
0.0
  0
LINE
  5
2D54
330
1E
100
AcDbEntity
  8
3
100
AcDbLine
 10
2.02263779527559
 20
0.2007874015748032
 30
0.0
 11
2.02263779527559
 21
0.2145669291338583
 31
0.0
  0
LINE
  5
2D55
330
1E
100
AcDbEntity
  8
3
100
AcDbLine
 10
1.941929133858267
 20
0.3454724409448819
 30
0.0
 11
2.045275590551181
 21
0.3454724409448819
 31
0.0
  0
LINE
  5
2D56
330
1E
100
AcDbEntity
  8
3
100
AcDbLine
 10
2.045275590551181
 20
0.3454724409448819
 30
0.0
 11
2.045275590551181
 21
0.3897637795275588
 31
0.0
  0
LINE
  5
2D57
330
1E
100
AcDbEntity
  8
3
100
AcDbLine
 10
2.065944881889763
 20
1.045275590551181
 30
0.0
 11
1.580708661417322
 21
1.045275590551181
 31
0.0
  0
LINE
  5
2D58
330
1E
100
AcDbEntity
  8
3
100
AcDbLine
 10
1.580708661417322
 20
1.045275590551181
 30
0.0
 11
1.581692913385826
 21
1.044291338582676
 31
0.0
  0
LINE
  5
2D59
330
1E
100
AcDbEntity
  8
3
100
AcDbLine
 10
1.581692913385826
 20
1.044291338582676
 30
0.0
 11
2.064960629921259
 21
1.044291338582676
 31
0.0
  0
LINE
  5
2D5A
330
1E
100
AcDbEntity
  8
3
100
AcDbLine
 10
2.176181102362204
 20
0.2303149606299213
 30
0.0
 11
2.206692913385826
 21
0.2352362204724407
 31
0.0
  0
LINE
  5
2D5B
330
1E
100
AcDbEntity
  8
3
100
AcDbLine
 10
2.206692913385826
 20
0.2352362204724407
 30
0.0
 11
2.234251968503937
 21
0.2490157480314958
 31
0.0
  0
LINE
  5
2D5C
330
1E
100
AcDbEntity
  8
3
100
AcDbLine
 10
2.234251968503937
 20
0.2490157480314958
 30
0.0
 11
2.256889763779527
 21
0.2716535433070866
 31
0.0
  0
LINE
  5
2D5D
330
1E
100
AcDbEntity
  8
3
100
AcDbLine
 10
2.256889763779527
 20
0.2716535433070866
 30
0.0
 11
2.270669291338582
 21
0.2992125984251968
 31
0.0
  0
LINE
  5
2D5E
330
1E
100
AcDbEntity
  8
3
100
AcDbLine
 10
2.270669291338582
 20
0.2992125984251968
 30
0.0
 11
2.275590551181102
 21
0.329724409448819
 31
0.0
  0
LINE
  5
2D5F
330
1E
100
AcDbEntity
  8
3
100
AcDbLine
 10
1.371062992125984
 20
0.329724409448819
 30
0.0
 11
1.375984251968504
 21
0.2992125984251968
 31
0.0
  0
LINE
  5
2D60
330
1E
100
AcDbEntity
  8
3
100
AcDbLine
 10
1.375984251968504
 20
0.2992125984251968
 30
0.0
 11
1.389763779527559
 21
0.2716535433070866
 31
0.0
  0
LINE
  5
2D61
330
1E
100
AcDbEntity
  8
3
100
AcDbLine
 10
1.389763779527559
 20
0.2716535433070866
 30
0.0
 11
1.412401574803149
 21
0.2490157480314958
 31
0.0
  0
LINE
  5
2D62
330
1E
100
AcDbEntity
  8
3
100
AcDbLine
 10
1.412401574803149
 20
0.2490157480314958
 30
0.0
 11
1.439960629921259
 21
0.2352362204724407
 31
0.0
  0
LINE
  5
2D63
330
1E
100
AcDbEntity
  8
3
100
AcDbLine
 10
1.470472440944881
 20
1.133858267716535
 30
0.0
 11
1.439960629921259
 21
1.128937007874015
 31
0.0
  0
LINE
  5
2D64
330
1E
100
AcDbEntity
  8
3
100
AcDbLine
 10
1.439960629921259
 20
1.128937007874015
 30
0.0
 11
1.412401574803149
 21
1.11515748031496
 31
0.0
  0
LINE
  5
2D65
330
1E
100
AcDbEntity
  8
3
100
AcDbLine
 10
1.412401574803149
 20
1.11515748031496
 30
0.0
 11
1.389763779527559
 21
1.09251968503937
 31
0.0
  0
LINE
  5
2D66
330
1E
100
AcDbEntity
  8
3
100
AcDbLine
 10
1.389763779527559
 20
1.09251968503937
 30
0.0
 11
1.375984251968504
 21
1.06496062992126
 31
0.0
  0
LINE
  5
2D67
330
1E
100
AcDbEntity
  8
3
100
AcDbLine
 10
1.375984251968504
 20
1.06496062992126
 30
0.0
 11
1.371062992125984
 21
1.034448818897637
 31
0.0
  0
LINE
  5
2D68
330
1E
100
AcDbEntity
  8
3
100
AcDbLine
 10
2.275590551181102
 20
1.034448818897637
 30
0.0
 11
2.270669291338582
 21
1.06496062992126
 31
0.0
  0
LINE
  5
2D69
330
1E
100
AcDbEntity
  8
3
100
AcDbLine
 10
2.270669291338582
 20
1.06496062992126
 30
0.0
 11
2.256889763779527
 21
1.09251968503937
 31
0.0
  0
LINE
  5
2D6A
330
1E
100
AcDbEntity
  8
3
100
AcDbLine
 10
2.256889763779527
 20
1.09251968503937
 30
0.0
 11
2.234251968503937
 21
1.11515748031496
 31
0.0
  0
LINE
  5
2D6B
330
1E
100
AcDbEntity
  8
3
100
AcDbLine
 10
2.234251968503937
 20
1.11515748031496
 30
0.0
 11
2.206692913385826
 21
1.128937007874015
 31
0.0
  0
LINE
  5
2D6C
330
1E
100
AcDbEntity
  8
3
100
AcDbLine
 10
2.206692913385826
 20
1.128937007874015
 30
0.0
 11
2.176181102362204
 21
1.133858267716535
 31
0.0
  0
LINE
  5
2DAA
330
1E
100
AcDbEntity
  8
3
100
AcDbLine
 10
1.581692913385826
 20
2.725393700787401
 30
0.0
 11
1.581692913385826
 21
2.746062992125984
 31
0.0
  0
LINE
  5
2DAB
330
1E
100
AcDbEntity
  8
3
100
AcDbLine
 10
1.581692913385826
 20
2.746062992125984
 30
0.0
 11
1.453740157480314
 21
2.746062992125984
 31
0.0
  0
LINE
  5
2DAC
330
1E
100
AcDbEntity
  8
3
100
AcDbLine
 10
1.474409448818897
 20
2.83759842519685
 30
0.0
 11
1.458661417322834
 21
2.75
 31
0.0
  0
LINE
  5
2DAD
330
1E
100
AcDbEntity
  8
3
100
AcDbLine
 10
1.458661417322834
 20
2.75
 30
0.0
 11
1.455708661417322
 21
2.75
 31
0.0
  0
LINE
  5
2DAE
330
1E
100
AcDbEntity
  8
3
100
AcDbLine
 10
1.364173228346456
 20
2.788385826771653
 30
0.0
 11
1.358267716535433
 21
2.791338582677165
 31
0.0
  0
LINE
  5
2DAF
330
1E
100
AcDbEntity
  8
3
100
AcDbLine
 10
1.358267716535433
 20
2.791338582677165
 30
0.0
 11
1.355314960629921
 21
2.798228346456692
 31
0.0
  0
LINE
  5
2DB0
330
1E
100
AcDbEntity
  8
3
100
AcDbLine
 10
1.601377952755905
 20
4.030511811023622
 30
0.0
 11
1.601377952755905
 21
4.023622047244094
 31
0.0
  0
LINE
  5
2DB1
330
1E
100
AcDbEntity
  8
3
100
AcDbLine
 10
1.601377952755905
 20
4.023622047244094
 30
0.0
 11
1.601377952755905
 21
4.010826771653543
 31
0.0
  0
LINE
  5
2DB2
330
1E
100
AcDbEntity
  8
3
100
AcDbLine
 10
1.704724409448818
 20
4.030511811023622
 30
0.0
 11
1.703740157480314
 21
4.024606299212598
 31
0.0
  0
LINE
  5
2DB3
330
1E
100
AcDbEntity
  8
3
100
AcDbLine
 10
1.703740157480314
 20
4.024606299212598
 30
0.0
 11
1.703740157480314
 21
4.01279527559055
 31
0.0
  0
LINE
  5
2DB4
330
1E
100
AcDbEntity
  8
3
100
AcDbLine
 10
1.704724409448818
 20
4.030511811023622
 30
0.0
 11
1.708661417322834
 21
4.038385826771653
 31
0.0
  0
LINE
  5
2DB5
330
1E
100
AcDbEntity
  8
3
100
AcDbLine
 10
1.708661417322834
 20
4.038385826771653
 30
0.0
 11
1.601377952755905
 21
4.038385826771653
 31
0.0
  0
LINE
  5
2DB6
330
1E
100
AcDbEntity
  8
3
100
AcDbLine
 10
1.410433070866141
 20
3.308070866141732
 30
0.0
 11
1.410433070866141
 21
3.375984251968503
 31
0.0
  0
LINE
  5
2DB7
330
1E
100
AcDbEntity
  8
3
100
AcDbLine
 10
1.410433070866141
 20
3.375984251968503
 30
0.0
 11
1.410433070866141
 21
3.441929133858267
 31
0.0
  0
LINE
  5
2DB8
330
1E
100
AcDbEntity
  8
3
100
AcDbLine
 10
1.410433070866141
 20
3.441929133858267
 30
0.0
 11
1.410433070866141
 21
3.502952755905512
 31
0.0
  0
LINE
  5
2DB9
330
1E
100
AcDbEntity
  8
3
100
AcDbLine
 10
1.410433070866141
 20
3.502952755905512
 30
0.0
 11
1.410433070866141
 21
3.560039370078739
 31
0.0
  0
LINE
  5
2DBA
330
1E
100
AcDbEntity
  8
3
100
AcDbLine
 10
1.410433070866141
 20
3.560039370078739
 30
0.0
 11
1.410433070866141
 21
4.094488188976377
 31
0.0
  0
LINE
  5
2DBB
330
1E
100
AcDbEntity
  8
3
100
AcDbLine
 10
1.474409448818897
 20
3.02755905511811
 30
0.0
 11
1.474409448818897
 21
3.042322834645669
 31
0.0
  0
LINE
  5
2DBC
330
1E
100
AcDbEntity
  8
3
100
AcDbLine
 10
1.474409448818897
 20
3.042322834645669
 30
0.0
 11
1.474409448818897
 21
3.054133858267716
 31
0.0
  0
LINE
  5
2DBD
330
1E
100
AcDbEntity
  8
3
100
AcDbLine
 10
1.474409448818897
 20
3.054133858267716
 30
0.0
 11
1.474409448818897
 21
3.058070866141732
 31
0.0
  0
LINE
  5
2DBE
330
1E
100
AcDbEntity
  8
3
100
AcDbLine
 10
1.474409448818897
 20
3.058070866141732
 30
0.0
 11
1.474409448818897
 21
3.054133858267716
 31
0.0
  0
LINE
  5
2DBF
330
1E
100
AcDbEntity
  8
3
100
AcDbLine
 10
1.474409448818897
 20
3.054133858267716
 30
0.0
 11
1.473425196850393
 21
3.042322834645669
 31
0.0
  0
LINE
  5
2DC0
330
1E
100
AcDbEntity
  8
3
100
AcDbLine
 10
1.473425196850393
 20
3.042322834645669
 30
0.0
 11
1.473425196850393
 21
3.02755905511811
 31
0.0
  0
LINE
  5
2DC1
330
1E
100
AcDbEntity
  8
3
100
AcDbLine
 10
1.471456692913386
 20
2.83759842519685
 30
0.0
 11
1.471456692913386
 21
3.02755905511811
 31
0.0
  0
LINE
  5
2DC2
330
1E
100
AcDbEntity
  8
3
100
AcDbLine
 10
1.471456692913386
 20
3.02755905511811
 30
0.0
 11
1.471456692913386
 21
3.042322834645669
 31
0.0
  0
LINE
  5
2DC3
330
1E
100
AcDbEntity
  8
3
100
AcDbLine
 10
1.471456692913386
 20
3.042322834645669
 30
0.0
 11
1.471456692913386
 21
3.054133858267716
 31
0.0
  0
LINE
  5
2DC4
330
1E
100
AcDbEntity
  8
3
100
AcDbLine
 10
1.471456692913386
 20
3.054133858267716
 30
0.0
 11
1.471456692913386
 21
3.058070866141732
 31
0.0
  0
LINE
  5
2DC5
330
1E
100
AcDbEntity
  8
3
100
AcDbLine
 10
1.471456692913386
 20
3.058070866141732
 30
0.0
 11
1.471456692913386
 21
3.054133858267716
 31
0.0
  0
LINE
  5
2DC6
330
1E
100
AcDbEntity
  8
3
100
AcDbLine
 10
1.471456692913386
 20
3.054133858267716
 30
0.0
 11
1.471456692913386
 21
3.042322834645669
 31
0.0
  0
LINE
  5
2DC7
330
1E
100
AcDbEntity
  8
3
100
AcDbLine
 10
1.471456692913386
 20
3.042322834645669
 30
0.0
 11
1.471456692913386
 21
3.02755905511811
 31
0.0
  0
LINE
  5
2DC8
330
1E
100
AcDbEntity
  8
3
100
AcDbLine
 10
1.470472440944881
 20
3.560039370078739
 30
0.0
 11
1.470472440944881
 21
3.51279527559055
 31
0.0
  0
LINE
  5
2DC9
330
1E
100
AcDbEntity
  8
3
100
AcDbLine
 10
1.470472440944881
 20
3.51279527559055
 30
0.0
 11
1.470472440944881
 21
3.46259842519685
 31
0.0
  0
LINE
  5
2DCA
330
1E
100
AcDbEntity
  8
3
100
AcDbLine
 10
1.470472440944881
 20
3.46259842519685
 30
0.0
 11
1.470472440944881
 21
3.409448818897637
 31
0.0
  0
LINE
  5
2DCB
330
1E
100
AcDbEntity
  8
3
100
AcDbLine
 10
1.470472440944881
 20
3.409448818897637
 30
0.0
 11
1.469488188976378
 21
3.353346456692912
 31
0.0
  0
LINE
  5
2DCC
330
1E
100
AcDbEntity
  8
3
100
AcDbLine
 10
1.469488188976378
 20
3.353346456692912
 30
0.0
 11
1.469488188976378
 21
3.296259842519685
 31
0.0
  0
LINE
  5
2DCD
330
1E
100
AcDbEntity
  8
3
100
AcDbLine
 10
1.469488188976378
 20
3.296259842519685
 30
0.0
 11
1.469488188976378
 21
3.238188976377952
 31
0.0
  0
LINE
  5
2DCE
330
1E
100
AcDbEntity
  8
3
100
AcDbLine
 10
2.172244094488188
 20
2.83759842519685
 30
0.0
 11
2.187992125984251
 21
2.75
 31
0.0
  0
LINE
  5
2DCF
330
1E
100
AcDbEntity
  8
3
100
AcDbLine
 10
2.187992125984251
 20
2.75
 30
0.0
 11
2.190944881889763
 21
2.75
 31
0.0
  0
LINE
  5
2DD0
330
1E
100
AcDbEntity
  8
3
100
AcDbLine
 10
2.183070866141732
 20
2.778543307086613
 30
0.0
 11
2.18503937007874
 21
2.778543307086613
 31
0.0
  0
LINE
  5
2DD1
330
1E
100
AcDbEntity
  8
3
100
AcDbLine
 10
2.18503937007874
 20
2.778543307086613
 30
0.0
 11
2.1751968503937
 21
2.83759842519685
 31
0.0
  0
LINE
  5
2DD2
330
1E
100
AcDbEntity
  8
3
100
AcDbLine
 10
2.28248031496063
 20
2.788385826771653
 30
0.0
 11
2.288385826771653
 21
2.791338582677165
 31
0.0
  0
LINE
  5
2DD3
330
1E
100
AcDbEntity
  8
3
100
AcDbLine
 10
2.288385826771653
 20
2.791338582677165
 30
0.0
 11
2.290354330708661
 21
2.798228346456692
 31
0.0
  0
LINE
  5
2DD4
330
1E
100
AcDbEntity
  8
3
100
AcDbLine
 10
1.723425196850393
 20
4.030511811023622
 30
0.0
 11
1.723425196850393
 21
4.035433070866141
 31
0.0
  0
LINE
  5
2DD5
330
1E
100
AcDbEntity
  8
3
100
AcDbLine
 10
1.723425196850393
 20
4.035433070866141
 30
0.0
 11
1.724409448818897
 21
4.046259842519685
 31
0.0
  0
LINE
  5
2DD6
330
1E
100
AcDbEntity
  8
3
100
AcDbLine
 10
1.724409448818897
 20
4.046259842519685
 30
0.0
 11
1.724409448818897
 21
4.061023622047244
 31
0.0
  0
LINE
  5
2DD7
330
1E
100
AcDbEntity
  8
3
100
AcDbLine
 10
1.724409448818897
 20
4.061023622047244
 30
0.0
 11
1.724409448818897
 21
4.113188976377952
 31
0.0
  0
LINE
  5
2DD8
330
1E
100
AcDbEntity
  8
3
100
AcDbLine
 10
1.923228346456692
 20
4.030511811023622
 30
0.0
 11
1.923228346456692
 21
4.035433070866141
 31
0.0
  0
LINE
  5
2DD9
330
1E
100
AcDbEntity
  8
3
100
AcDbLine
 10
1.923228346456692
 20
4.035433070866141
 30
0.0
 11
1.922244094488188
 21
4.046259842519685
 31
0.0
  0
LINE
  5
2DDA
330
1E
100
AcDbEntity
  8
3
100
AcDbLine
 10
1.922244094488188
 20
4.046259842519685
 30
0.0
 11
1.922244094488188
 21
4.061023622047244
 31
0.0
  0
LINE
  5
2DDB
330
1E
100
AcDbEntity
  8
3
100
AcDbLine
 10
1.941929133858267
 20
4.030511811023622
 30
0.0
 11
1.942913385826771
 21
4.024606299212598
 31
0.0
  0
LINE
  5
2DDC
330
1E
100
AcDbEntity
  8
3
100
AcDbLine
 10
1.942913385826771
 20
4.024606299212598
 30
0.0
 11
1.942913385826771
 21
4.01279527559055
 31
0.0
  0
LINE
  5
2DDD
330
1E
100
AcDbEntity
  8
3
100
AcDbLine
 10
2.045275590551181
 20
4.030511811023622
 30
0.0
 11
2.045275590551181
 21
4.023622047244094
 31
0.0
  0
LINE
  5
2DDE
330
1E
100
AcDbEntity
  8
3
100
AcDbLine
 10
2.045275590551181
 20
4.023622047244094
 30
0.0
 11
2.045275590551181
 21
4.010826771653543
 31
0.0
  0
LINE
  5
2DDF
330
1E
100
AcDbEntity
  8
3
100
AcDbLine
 10
1.941929133858267
 20
4.030511811023622
 30
0.0
 11
2.045275590551181
 21
4.030511811023622
 31
0.0
  0
LINE
  5
2DE0
330
1E
100
AcDbEntity
  8
3
100
AcDbLine
 10
2.045275590551181
 20
4.030511811023622
 30
0.0
 11
2.045275590551181
 21
4.038385826771653
 31
0.0
  0
LINE
  5
2DE1
330
1E
100
AcDbEntity
  8
3
100
AcDbLine
 10
2.077755905511811
 20
4.094488188976377
 30
0.0
 11
2.075787401574803
 21
4.094488188976377
 31
0.0
  0
LINE
  5
2DE2
330
1E
100
AcDbEntity
  8
3
100
AcDbLine
 10
2.075787401574803
 20
4.094488188976377
 30
0.0
 11
2.075787401574803
 21
4.024606299212598
 31
0.0
  0
LINE
  5
2DE3
330
1E
100
AcDbEntity
  8
3
100
AcDbLine
 10
1.903543307086614
 20
3.972440944881889
 30
0.0
 11
1.923228346456692
 21
3.978346456692912
 31
0.0
  0
LINE
  5
2DE4
330
1E
100
AcDbEntity
  8
3
100
AcDbLine
 10
1.923228346456692
 20
3.978346456692912
 30
0.0
 11
1.937992125984251
 21
3.992125984251968
 31
0.0
  0
LINE
  5
2DE5
330
1E
100
AcDbEntity
  8
3
100
AcDbLine
 10
1.937992125984251
 20
3.992125984251968
 30
0.0
 11
1.942913385826771
 21
4.011811023622047
 31
0.0
  0
LINE
  5
2DE6
330
1E
100
AcDbEntity
  8
3
100
AcDbLine
 10
2.046259842519685
 20
3.648622047244094
 30
0.0
 11
2.051181102362204
 21
3.633858267716535
 31
0.0
  0
LINE
  5
2DE7
330
1E
100
AcDbEntity
  8
3
100
AcDbLine
 10
2.051181102362204
 20
3.633858267716535
 30
0.0
 11
2.062992125984251
 21
3.625
 31
0.0
  0
LINE
  5
2DE8
330
1E
100
AcDbEntity
  8
3
100
AcDbLine
 10
2.062992125984251
 20
3.625
 30
0.0
 11
2.078740157480314
 21
3.625
 31
0.0
  0
LINE
  5
2DE9
330
1E
100
AcDbEntity
  8
3
100
AcDbLine
 10
2.078740157480314
 20
3.625
 30
0.0
 11
2.090551181102362
 21
3.633858267716535
 31
0.0
  0
LINE
  5
2DEA
330
1E
100
AcDbEntity
  8
3
100
AcDbLine
 10
2.090551181102362
 20
3.633858267716535
 30
0.0
 11
2.095472440944881
 21
3.648622047244094
 31
0.0
  0
LINE
  5
2DEB
330
1E
100
AcDbEntity
  8
3
100
AcDbLine
 10
2.145669291338582
 20
2.746062992125984
 30
0.0
 11
2.145669291338582
 21
4.024606299212598
 31
0.0
  0
LINE
  5
2DEC
330
1E
100
AcDbEntity
  8
3
100
AcDbLine
 10
2.145669291338582
 20
4.024606299212598
 30
0.0
 11
2.095472440944881
 21
4.024606299212598
 31
0.0
  0
LINE
  5
2DED
330
1E
100
AcDbEntity
  8
3
100
AcDbLine
 10
1.551181102362204
 20
3.648622047244094
 30
0.0
 11
1.556102362204724
 21
3.633858267716535
 31
0.0
  0
LINE
  5
2DEE
330
1E
100
AcDbEntity
  8
3
100
AcDbLine
 10
1.556102362204724
 20
3.633858267716535
 30
0.0
 11
1.567913385826771
 21
3.625
 31
0.0
  0
LINE
  5
2DEF
330
1E
100
AcDbEntity
  8
3
100
AcDbLine
 10
1.567913385826771
 20
3.625
 30
0.0
 11
1.583661417322834
 21
3.625
 31
0.0
  0
LINE
  5
2DF0
330
1E
100
AcDbEntity
  8
3
100
AcDbLine
 10
1.583661417322834
 20
3.625
 30
0.0
 11
1.595472440944881
 21
3.633858267716535
 31
0.0
  0
LINE
  5
2DF1
330
1E
100
AcDbEntity
  8
3
100
AcDbLine
 10
1.595472440944881
 20
3.633858267716535
 30
0.0
 11
1.600393700787401
 21
3.648622047244094
 31
0.0
  0
LINE
  5
2DF2
330
1E
100
AcDbEntity
  8
3
100
AcDbLine
 10
1.723425196850393
 20
3.978346456692912
 30
0.0
 11
1.708661417322834
 21
3.992125984251968
 31
0.0
  0
LINE
  5
2DF3
330
1E
100
AcDbEntity
  8
3
100
AcDbLine
 10
1.708661417322834
 20
3.992125984251968
 30
0.0
 11
1.703740157480314
 21
4.011811023622047
 31
0.0
  0
LINE
  5
2DF4
330
1E
100
AcDbEntity
  8
3
100
AcDbLine
 10
1.903543307086614
 20
3.972440944881889
 30
0.0
 11
1.743110236220472
 21
3.972440944881889
 31
0.0
  0
LINE
  5
2DF5
330
1E
100
AcDbEntity
  8
3
100
AcDbLine
 10
1.743110236220472
 20
3.972440944881889
 30
0.0
 11
1.723425196850393
 21
3.978346456692912
 31
0.0
  0
LINE
  5
2DF6
330
1E
100
AcDbEntity
  8
3
100
AcDbLine
 10
2.236220472440944
 20
3.238188976377952
 30
0.0
 11
2.236220472440944
 21
3.308070866141732
 31
0.0
  0
LINE
  5
2DF7
330
1E
100
AcDbEntity
  8
3
100
AcDbLine
 10
2.236220472440944
 20
3.308070866141732
 30
0.0
 11
2.236220472440944
 21
3.375984251968503
 31
0.0
  0
LINE
  5
2DF8
330
1E
100
AcDbEntity
  8
3
100
AcDbLine
 10
2.236220472440944
 20
3.375984251968503
 30
0.0
 11
2.236220472440944
 21
3.441929133858267
 31
0.0
  0
LINE
  5
2DF9
330
1E
100
AcDbEntity
  8
3
100
AcDbLine
 10
2.236220472440944
 20
3.441929133858267
 30
0.0
 11
2.236220472440944
 21
3.502952755905512
 31
0.0
  0
LINE
  5
2DFA
330
1E
100
AcDbEntity
  8
3
100
AcDbLine
 10
2.236220472440944
 20
3.502952755905512
 30
0.0
 11
2.236220472440944
 21
3.560039370078739
 31
0.0
  0
LINE
  5
2DFB
330
1E
100
AcDbEntity
  8
3
100
AcDbLine
 10
2.176181102362204
 20
3.560039370078739
 30
0.0
 11
2.172244094488188
 21
4.094488188976377
 31
0.0
  0
LINE
  5
2DFC
330
1E
100
AcDbEntity
  8
3
100
AcDbLine
 10
2.172244094488188
 20
4.094488188976377
 30
0.0
 11
2.172244094488188
 21
4.069881889763779
 31
0.0
  0
LINE
  5
2DFD
330
1E
100
AcDbEntity
  8
3
100
AcDbLine
 10
2.172244094488188
 20
4.069881889763779
 30
0.0
 11
2.171259842519685
 21
4.024606299212598
 31
0.0
  0
LINE
  5
2DFE
330
1E
100
AcDbEntity
  8
3
100
AcDbLine
 10
2.176181102362204
 20
3.560039370078739
 30
0.0
 11
2.176181102362204
 21
3.51279527559055
 31
0.0
  0
LINE
  5
2DFF
330
1E
100
AcDbEntity
  8
3
100
AcDbLine
 10
2.176181102362204
 20
3.51279527559055
 30
0.0
 11
2.176181102362204
 21
3.46259842519685
 31
0.0
  0
LINE
  5
2E00
330
1E
100
AcDbEntity
  8
3
100
AcDbLine
 10
2.176181102362204
 20
3.46259842519685
 30
0.0
 11
2.176181102362204
 21
3.409448818897637
 31
0.0
  0
LINE
  5
2E01
330
1E
100
AcDbEntity
  8
3
100
AcDbLine
 10
2.176181102362204
 20
3.409448818897637
 30
0.0
 11
2.176181102362204
 21
3.353346456692912
 31
0.0
  0
LINE
  5
2E02
330
1E
100
AcDbEntity
  8
3
100
AcDbLine
 10
2.176181102362204
 20
3.353346456692912
 30
0.0
 11
2.177165354330708
 21
3.296259842519685
 31
0.0
  0
LINE
  5
2E03
330
1E
100
AcDbEntity
  8
3
100
AcDbLine
 10
2.177165354330708
 20
3.296259842519685
 30
0.0
 11
2.177165354330708
 21
3.238188976377952
 31
0.0
  0
LINE
  5
2E04
330
1E
100
AcDbEntity
  8
3
100
AcDbLine
 10
2.1751968503937
 20
2.83759842519685
 30
0.0
 11
2.177165354330708
 21
2.83759842519685
 31
0.0
  0
LINE
  5
2E05
330
1E
100
AcDbEntity
  8
3
100
AcDbLine
 10
2.177165354330708
 20
2.83759842519685
 30
0.0
 11
2.177165354330708
 21
3.238188976377952
 31
0.0
  0
LINE
  5
2E06
330
1E
100
AcDbEntity
  8
3
100
AcDbLine
 10
2.173228346456693
 20
2.83759842519685
 30
0.0
 11
2.1751968503937
 21
2.83759842519685
 31
0.0
  0
LINE
  5
2E07
330
1E
100
AcDbEntity
  8
3
100
AcDbLine
 10
2.1751968503937
 20
2.83759842519685
 30
0.0
 11
2.1751968503937
 21
3.02755905511811
 31
0.0
  0
LINE
  5
2E08
330
1E
100
AcDbEntity
  8
3
100
AcDbLine
 10
2.1751968503937
 20
3.02755905511811
 30
0.0
 11
2.1751968503937
 21
3.042322834645669
 31
0.0
  0
LINE
  5
2E09
330
1E
100
AcDbEntity
  8
3
100
AcDbLine
 10
2.1751968503937
 20
3.042322834645669
 30
0.0
 11
2.1751968503937
 21
3.054133858267716
 31
0.0
  0
LINE
  5
2E0A
330
1E
100
AcDbEntity
  8
3
100
AcDbLine
 10
2.1751968503937
 20
3.054133858267716
 30
0.0
 11
2.1751968503937
 21
3.058070866141732
 31
0.0
  0
LINE
  5
2E0B
330
1E
100
AcDbEntity
  8
3
100
AcDbLine
 10
2.1751968503937
 20
3.058070866141732
 30
0.0
 11
2.1751968503937
 21
3.054133858267716
 31
0.0
  0
LINE
  5
2E0C
330
1E
100
AcDbEntity
  8
3
100
AcDbLine
 10
2.1751968503937
 20
3.054133858267716
 30
0.0
 11
2.1751968503937
 21
3.042322834645669
 31
0.0
  0
LINE
  5
2E0D
330
1E
100
AcDbEntity
  8
3
100
AcDbLine
 10
2.1751968503937
 20
3.042322834645669
 30
0.0
 11
2.1751968503937
 21
3.02755905511811
 31
0.0
  0
LINE
  5
2E0E
330
1E
100
AcDbEntity
  8
3
100
AcDbLine
 10
2.172244094488188
 20
3.02755905511811
 30
0.0
 11
2.172244094488188
 21
3.042322834645669
 31
0.0
  0
LINE
  5
2E0F
330
1E
100
AcDbEntity
  8
3
100
AcDbLine
 10
2.172244094488188
 20
3.042322834645669
 30
0.0
 11
2.172244094488188
 21
3.054133858267716
 31
0.0
  0
LINE
  5
2E10
330
1E
100
AcDbEntity
  8
3
100
AcDbLine
 10
2.172244094488188
 20
3.054133858267716
 30
0.0
 11
2.172244094488188
 21
3.058070866141732
 31
0.0
  0
LINE
  5
2E11
330
1E
100
AcDbEntity
  8
3
100
AcDbLine
 10
2.172244094488188
 20
3.058070866141732
 30
0.0
 11
2.172244094488188
 21
3.054133858267716
 31
0.0
  0
LINE
  5
2E12
330
1E
100
AcDbEntity
  8
3
100
AcDbLine
 10
2.172244094488188
 20
3.054133858267716
 30
0.0
 11
2.172244094488188
 21
3.042322834645669
 31
0.0
  0
LINE
  5
2E13
330
1E
100
AcDbEntity
  8
3
100
AcDbLine
 10
1.470472440944881
 20
2.64763779527559
 30
0.0
 11
1.439960629921259
 21
2.64763779527559
 31
0.0
  0
LINE
  5
2E14
330
1E
100
AcDbEntity
  8
3
100
AcDbLine
 10
1.439960629921259
 20
2.64763779527559
 30
0.0
 11
1.412401574803149
 21
2.64763779527559
 31
0.0
  0
LINE
  5
2E15
330
1E
100
AcDbEntity
  8
3
100
AcDbLine
 10
1.412401574803149
 20
2.64763779527559
 30
0.0
 11
1.389763779527559
 21
2.64763779527559
 31
0.0
  0
LINE
  5
2E16
330
1E
100
AcDbEntity
  8
3
100
AcDbLine
 10
1.389763779527559
 20
2.64763779527559
 30
0.0
 11
1.375984251968504
 21
2.64763779527559
 31
0.0
  0
LINE
  5
2E17
330
1E
100
AcDbEntity
  8
3
100
AcDbLine
 10
1.375984251968504
 20
2.64763779527559
 30
0.0
 11
1.371062992125984
 21
2.64763779527559
 31
0.0
  0
LINE
  5
2E18
330
1E
100
AcDbEntity
  8
3
100
AcDbLine
 10
1.371062992125984
 20
2.725393700787401
 30
0.0
 11
1.375984251968504
 21
2.725393700787401
 31
0.0
  0
LINE
  5
2E19
330
1E
100
AcDbEntity
  8
3
100
AcDbLine
 10
1.375984251968504
 20
2.725393700787401
 30
0.0
 11
1.389763779527559
 21
2.725393700787401
 31
0.0
  0
LINE
  5
2E1A
330
1E
100
AcDbEntity
  8
3
100
AcDbLine
 10
1.389763779527559
 20
2.725393700787401
 30
0.0
 11
1.412401574803149
 21
2.725393700787401
 31
0.0
  0
LINE
  5
2E1B
330
1E
100
AcDbEntity
  8
3
100
AcDbLine
 10
1.412401574803149
 20
2.725393700787401
 30
0.0
 11
1.439960629921259
 21
2.725393700787401
 31
0.0
  0
LINE
  5
2E1C
330
1E
100
AcDbEntity
  8
3
100
AcDbLine
 10
1.439960629921259
 20
2.725393700787401
 30
0.0
 11
1.470472440944881
 21
2.725393700787401
 31
0.0
  0
LINE
  5
2E1D
330
1E
100
AcDbEntity
  8
3
100
AcDbLine
 10
2.275590551181102
 20
2.64763779527559
 30
0.0
 11
2.270669291338582
 21
2.64763779527559
 31
0.0
  0
LINE
  5
2E1E
330
1E
100
AcDbEntity
  8
3
100
AcDbLine
 10
2.270669291338582
 20
2.64763779527559
 30
0.0
 11
2.256889763779527
 21
2.64763779527559
 31
0.0
  0
LINE
  5
2E1F
330
1E
100
AcDbEntity
  8
3
100
AcDbLine
 10
2.256889763779527
 20
2.64763779527559
 30
0.0
 11
2.234251968503937
 21
2.64763779527559
 31
0.0
  0
LINE
  5
2E20
330
1E
100
AcDbEntity
  8
3
100
AcDbLine
 10
2.234251968503937
 20
2.64763779527559
 30
0.0
 11
2.206692913385826
 21
2.64763779527559
 31
0.0
  0
LINE
  5
2E21
330
1E
100
AcDbEntity
  8
3
100
AcDbLine
 10
2.206692913385826
 20
2.64763779527559
 30
0.0
 11
2.176181102362204
 21
2.64763779527559
 31
0.0
  0
LINE
  5
2E22
330
1E
100
AcDbEntity
  8
3
100
AcDbLine
 10
2.176181102362204
 20
2.725393700787401
 30
0.0
 11
2.206692913385826
 21
2.725393700787401
 31
0.0
  0
LINE
  5
2E23
330
1E
100
AcDbEntity
  8
3
100
AcDbLine
 10
2.206692913385826
 20
2.725393700787401
 30
0.0
 11
2.234251968503937
 21
2.725393700787401
 31
0.0
  0
LINE
  5
2E24
330
1E
100
AcDbEntity
  8
3
100
AcDbLine
 10
2.234251968503937
 20
2.725393700787401
 30
0.0
 11
2.256889763779527
 21
2.725393700787401
 31
0.0
  0
LINE
  5
2E25
330
1E
100
AcDbEntity
  8
3
100
AcDbLine
 10
2.256889763779527
 20
2.725393700787401
 30
0.0
 11
2.270669291338582
 21
2.725393700787401
 31
0.0
  0
LINE
  5
2E26
330
1E
100
AcDbEntity
  8
3
100
AcDbLine
 10
2.270669291338582
 20
2.725393700787401
 30
0.0
 11
2.275590551181102
 21
2.725393700787401
 31
0.0
  0
ENDSEC
  0
SECTION
  2
OBJECTS
  0
DICTIONARY
  5
C
330
0
100
AcDbDictionary
  3
ACAD_GROUP
350
D
  3
ACAD_MLINESTYLE
350
16
  3
ACAD_PLOTSETTINGS
350
18
  3
ACAD_LAYOUT
350
19
1001
ACAD
1000
TREAT_AS_HARD
1070
     0
  0
DICTIONARY
  5
4358
330
1E
100
AcDbDictionary
  3
ACAD_LAYOUTSELFREF
350
4359
  0
DICTIONARY
  5
4356
330
1A
100
AcDbDictionary
  3
ACAD_LAYOUTSELFREF
350
4357
  0
DICTIONARY
  5
D
102
{ACAD_REACTORS
330
C
102
}
330
C
100
AcDbDictionary
1001
ACAD
1000
TREAT_AS_HARD
1070
     0
  0
DICTIONARY
  5
16
102
{ACAD_REACTORS
330
C
102
}
330
C
100
AcDbDictionary
  3
STANDARD
350
17
1001
ACAD
1000
TREAT_AS_HARD
1070
     0
  0
DICTIONARY
  5
18
102
{ACAD_REACTORS
330
C
102
}
330
C
100
AcDbDictionary
1001
ACAD
1000
TREAT_AS_HARD
1070
     0
  0
DICTIONARY
  5
19
102
{ACAD_REACTORS
330
C
102
}
330
C
100
AcDbDictionary
1001
ACAD
1000
TREAT_AS_HARD
1070
     0
  0
XRECORD
  5
4359
102
{ACAD_REACTORS
330
4358
102
}
330
4358
100
AcDbXrecord
340
1E
  0
XRECORD
  5
4357
102
{ACAD_REACTORS
330
4356
102
}
330
4356
100
AcDbXrecord
340
1A
  0
MLINESTYLE
  5
17
102
{ACAD_REACTORS
330
16
102
}
330
16
100
AcDbMlineStyle
  2
STANDARD
 70
     0
  3

 62
   256
 51
90.0
 52
90.0
 71
     2
 49
0.5
 62
   256
  6
BYLAYER
 49
-0.5
 62
   256
  6
BYLAYER
  0
ENDSEC
  0
EOF
