  0
SECTION
  2
HEADER
  9
$ACADVER
  1
AC1015
  9
$ACADMAINTVER
 70
    20
  9
$DWGCODEPAGE
  3
ANSI_1252
  9
$INSBASE
 10
0.0
 20
0.0
 30
0.0
  9
$EXTMIN
 10
0.0
 20
0.0
 30
0.0
  9
$EXTMAX
 10
211.577988
 20
95.224016
 30
0.0
  9
$LIMMIN
 10
-0.5
 20
-0.5
  9
$LIMMAX
 10
5.0
 20
5.0
  9
$ORTHOMODE
 70
     0
  9
$REGENMODE
 70
     1
  9
$FILLMODE
 70
     1
  9
$QTEXTMODE
 70
     0
  9
$MIRRTEXT
 70
     1
  9
$LTSCALE
 40
1.0
  9
$ATTMODE
 70
     1
  9
$TEXTSIZE
 40
0.2
  9
$TRACEWID
 40
0.05
  9
$TEXTSTYLE
  7
Standard
  9
$CLAYER
  8
0
  9
$CELTYPE
  6
ByLayer
  9
$CECOLOR
 62
   256
  9
$CELTSCALE
 40
1.0
  9
$DISPSILH
 70
     0
  9
$DIMSCALE
 40
1.0
  9
$DIMASZ
 40
0.18
  9
$DIMEXO
 40
0.0625
  9
$DIMDLI
 40
0.38
  9
$DIMRND
 40
0.0
  9
$DIMDLE
 40
0.0
  9
$DIMEXE
 40
0.18
  9
$DIMTP
 40
0.0
  9
$DIMTM
 40
0.0
  9
$DIMTXT
 40
0.18
  9
$DIMCEN
 40
0.09
  9
$DIMTSZ
 40
0.0
  9
$DIMTOL
 70
     0
  9
$DIMLIM
 70
     0
  9
$DIMTIH
 70
     1
  9
$DIMTOH
 70
     1
  9
$DIMSE1
 70
     0
  9
$DIMSE2
 70
     0
  9
$DIMTAD
 70
     0
  9
$DIMZIN
 70
     0
  9
$DIMBLK
  1

  9
$DIMASO
 70
     1
  9
$DIMSHO
 70
     1
  9
$DIMPOST
  1

  9
$DIMAPOST
  1

  9
$DIMALT
 70
     0
  9
$DIMALTD
 70
     2
  9
$DIMALTF
 40
25.4
  9
$DIMLFAC
 40
1.0
  9
$DIMTOFL
 70
     0
  9
$DIMTVP
 40
0.0
  9
$DIMTIX
 70
     0
  9
$DIMSOXD
 70
     0
  9
$DIMSAH
 70
     0
  9
$DIMBLK1
  1

  9
$DIMBLK2
  1

  9
$DIMSTYLE
  2
Standard
  9
$DIMCLRD
 70
     0
  9
$DIMCLRE
 70
     0
  9
$DIMCLRT
 70
     0
  9
$DIMTFAC
 40
1.0
  9
$DIMGAP
 40
0.09
  9
$DIMJUST
 70
     0
  9
$DIMSD1
 70
     0
  9
$DIMSD2
 70
     0
  9
$DIMTOLJ
 70
     1
  9
$DIMTZIN
 70
     0
  9
$DIMALTZ
 70
     0
  9
$DIMALTTZ
 70
     0
  9
$DIMUPT
 70
     0
  9
$DIMDEC
 70
     4
  9
$DIMTDEC
 70
     4
  9
$DIMALTU
 70
     2
  9
$DIMALTTD
 70
     2
  9
$DIMTXSTY
  7
Standard
  9
$DIMAUNIT
 70
     0
  9
$DIMADEC
 70
     0
  9
$DIMALTRND
 40
0.0
  9
$DIMAZIN
 70
     0
  9
$DIMDSEP
 70
    46
  9
$DIMATFIT
 70
     3
  9
$DIMFRAC
 70
     0
  9
$DIMLDRBLK
  1

  9
$DIMLUNIT
 70
     2
  9
$DIMLWD
 70
    -2
  9
$DIMLWE
 70
    -2
  9
$DIMTMOVE
 70
     0
  9
$LUNITS
 70
     2
  9
$LUPREC
 70
     4
  9
$SKETCHINC
 40
0.1
  9
$FILLETRAD
 40
0.5
  9
$AUNITS
 70
     0
  9
$AUPREC
 70
     0
  9
$MENU
  1
.
  9
$ELEVATION
 40
0.0
  9
$PELEVATION
 40
0.0
  9
$THICKNESS
 40
0.0
  9
$LIMCHECK
 70
     0
  9
$CHAMFERA
 40
0.0
  9
$CHAMFERB
 40
0.0
  9
$CHAMFERC
 40
0.0
  9
$CHAMFERD
 40
0.0
  9
$SKPOLY
 70
     0
  9
$TDCREATE
 40
2459138.329039352
  9
$TDUCREATE
 40
2459138.537372940
  9
$TDUPDATE
 40
2459138.398622685
  9
$TDUUPDATE
 40
2459138.606956019
  9
$TDINDWG
 40
0.0007639005
  9
$TDUSRTIMER
 40
0.0007639005
  9
$USRTIMER
 70
     1
  9
$ANGBASE
 50
0.0
  9
$ANGDIR
 70
     0
  9
$PDMODE
 70
     0
  9
$PDSIZE
 40
0.0
  9
$PLINEWID
 40
0.0
  9
$SPLFRAME
 70
     0
  9
$SPLINETYPE
 70
     6
  9
$SPLINESEGS
 70
     8
  9
$HANDSEED
  5
381
  9
$SURFTAB1
 70
     6
  9
$SURFTAB2
 70
     6
  9
$SURFTYPE
 70
     6
  9
$SURFU
 70
     6
  9
$SURFV
 70
     6
  9
$UCSBASE
  2

  9
$UCSNAME
  2

  9
$UCSORG
 10
0.0
 20
0.0
 30
0.0
  9
$UCSXDIR
 10
1.0
 20
0.0
 30
0.0
  9
$UCSYDIR
 10
0.0
 20
1.0
 30
0.0
  9
$UCSORTHOREF
  2

  9
$UCSORTHOVIEW
 70
     0
  9
$UCSORGTOP
 10
0.0
 20
0.0
 30
0.0
  9
$UCSORGBOTTOM
 10
0.0
 20
0.0
 30
0.0
  9
$UCSORGLEFT
 10
0.0
 20
0.0
 30
0.0
  9
$UCSORGRIGHT
 10
0.0
 20
0.0
 30
0.0
  9
$UCSORGFRONT
 10
0.0
 20
0.0
 30
0.0
  9
$UCSORGBACK
 10
0.0
 20
0.0
 30
0.0
  9
$PUCSBASE
  2

  9
$PUCSNAME
  2

  9
$PUCSORG
 10
0.0
 20
0.0
 30
0.0
  9
$PUCSXDIR
 10
1.0
 20
0.0
 30
0.0
  9
$PUCSYDIR
 10
0.0
 20
1.0
 30
0.0
  9
$PUCSORTHOREF
  2

  9
$PUCSORTHOVIEW
 70
     0
  9
$PUCSORGTOP
 10
0.0
 20
0.0
 30
0.0
  9
$PUCSORGBOTTOM
 10
0.0
 20
0.0
 30
0.0
  9
$PUCSORGLEFT
 10
0.0
 20
0.0
 30
0.0
  9
$PUCSORGRIGHT
 10
0.0
 20
0.0
 30
0.0
  9
$PUCSORGFRONT
 10
0.0
 20
0.0
 30
0.0
  9
$PUCSORGBACK
 10
0.0
 20
0.0
 30
0.0
  9
$USERI1
 70
     0
  9
$USERI2
 70
     0
  9
$USERI3
 70
     0
  9
$USERI4
 70
     0
  9
$USERI5
 70
     0
  9
$USERR1
 40
0.0
  9
$USERR2
 40
0.0
  9
$USERR3
 40
0.0
  9
$USERR4
 40
0.0
  9
$USERR5
 40
0.0
  9
$WORLDVIEW
 70
     1
  9
$SHADEDGE
 70
     3
  9
$SHADEDIF
 70
    70
  9
$TILEMODE
 70
     1
  9
$MAXACTVP
 70
    64
  9
$PINSBASE
 10
0.0
 20
0.0
 30
0.0
  9
$PLIMCHECK
 70
     0
  9
$PEXTMIN
 10
-0.5
 20
-0.5
 30
-0.5
  9
$PEXTMAX
 10
5.0
 20
5.0
 30
5.0
  9
$PLIMMIN
 10
-0.5
 20
-0.5
  9
$PLIMMAX
 10
5.0
 20
5.0
  9
$UNITMODE
 70
     0
  9
$VISRETAIN
 70
     1
  9
$PLINEGEN
 70
     0
  9
$PSLTSCALE
 70
     1
  9
$TREEDEPTH
 70
  3020
  9
$CMLSTYLE
  2
Standard
  9
$CMLJUST
 70
     0
  9
$CMLSCALE
 40
1.0
  9
$PROXYGRAPHICS
 70
     1
  9
$MEASUREMENT
 70
     0
  9
$CELWEIGHT
370
    70
  9
$ENDCAPS
280
     0
  9
$JOINSTYLE
280
     0
  9
$LWDISPLAY
290
     1
  9
$INSUNITS
 70
     1
  9
$HYPERLINKBASE
  1

  9
$STYLESHEET
  1

  9
$XEDIT
290
     1
  9
$CEPSNTYPE
380
     0
  9
$PSTYLEMODE
290
     1
  9
$FINGERPRINTGUID
  2
{F8DC74DC-C603-4704-9B11-676F236BAB3C}
  9
$VERSIONGUID
  2
{49EA72F6-CD58-A447-8126-6A950D6D7E10}
  9
$EXTNAMES
290
     1
  9
$PSVPSCALE
 40
0.0
  9
$OLESTARTUP
290
     0
  0
ENDSEC
  0
SECTION
  2
CLASSES
  0
CLASS
  1
ACDBDICTIONARYWDFLT
  2
AcDbDictionaryWithDefault
  3
ObjectDBX Classes
 90
        0
280
     0
281
     0
  0
CLASS
  1
VISUALSTYLE
  2
AcDbVisualStyle
  3
ObjectDBX Classes
 90
     4095
280
     0
281
     0
  0
CLASS
  1
MATERIAL
  2
AcDbMaterial
  3
ObjectDBX Classes
 90
     1153
280
     0
281
     0
  0
CLASS
  1
SCALE
  2
AcDbScale
  3
ObjectDBX Classes
 90
     1153
280
     0
281
     0
  0
CLASS
  1
TABLESTYLE
  2
AcDbTableStyle
  3
ObjectDBX Classes
 90
     4095
280
     0
281
     0
  0
CLASS
  1
MLEADERSTYLE
  2
AcDbMLeaderStyle
  3
ACDB_MLEADERSTYLE_CLASS
 90
     4095
280
     0
281
     0
  0
CLASS
  1
SUN
  2
AcDbSun
  3
SCENEOE
 90
    33921
280
     0
281
     0
  0
CLASS
  1
DICTIONARYVAR
  2
AcDbDictionaryVar
  3
ObjectDBX Classes
 90
        0
280
     0
281
     0
  0
CLASS
  1
ACDBPLACEHOLDER
  2
AcDbPlaceHolder
  3
ObjectDBX Classes
 90
        0
280
     0
281
     0
  0
CLASS
  1
LAYOUT
  2
AcDbLayout
  3
ObjectDBX Classes
 90
        0
280
     0
281
     0
  0
CLASS
  1
ACDBSECTIONVIEWSTYLE
  2
AcDbSectionViewStyle
  3
ObjectDBX Classes
 90
     1025
280
     0
281
     0
  0
CLASS
  1
ACDBDETAILVIEWSTYLE
  2
AcDbDetailViewStyle
  3
ObjectDBX Classes
 90
     1025
280
     0
281
     0
  0
CLASS
  1
RAPIDRTRENDERSETTINGS
  2
AcDbRapidRTRenderSettings
  3
ObjectDBX Classes
 90
     1024
280
     0
281
     0
  0
CLASS
  1
SOLID_BACKGROUND
  2
AcDbSolidBackground
  3
SCENEOE
 90
     4095
280
     0
281
     0
  0
CLASS
  1
NPOCOLLECTION
  2
AcDbImpNonPersistentObjectsCollection
  3
ObjectDBX Classes
 90
     1153
280
     0
281
     0
  0
CLASS
  1
DIMASSOC
  2
AcDbDimAssoc
  3
"AcDbDimAssoc|Product Desc:     AcDim ARX App For Dimension|Company:          Autodesk, Inc.|WEB Address:      www.autodesk.com"
 90
        0
280
     0
281
     0
  0
CLASS
  1
CELLSTYLEMAP
  2
AcDbCellStyleMap
  3
ObjectDBX Classes
 90
     1152
280
     0
281
     0
  0
CLASS
  1
MENTALRAYRENDERSETTINGS
  2
AcDbMentalRayRenderSettings
  3
SCENEOE
 90
     1024
280
     0
281
     0
  0
ENDSEC
  0
SECTION
  2
TABLES
  0
TABLE
  2
VPORT
  5
8
330
0
100
AcDbSymbolTable
 70
    16
  0
VPORT
  5
29
330
8
100
AcDbSymbolTableRecord
100
AcDbViewportTableRecord
  2
*Active
 70
     0
 10
0.0
 20
0.0
 11
1.0
 21
1.0
 12
-4.225835752873649
 22
22.59343548554168
 13
0.0
 23
0.0
 14
0.5
 24
0.5
 15
0.5
 25
0.5
 16
-0.0000000000001563
 26
0.0
 36
711.8625836067105
 17
105.7889938354492
 27
47.61200714111327
 37
0.0
 40
145.5029831873623
 41
2.337877312560856
 42
50.0
 43
40.28867
 44
-40.28867
 50
0.0
 51
0.0
 71
     0
 72
   100
 73
     1
 74
     3
 75
     0
 76
     0
 77
     0
 78
     0
281
     0
 65
     1
110
0.0
120
0.0
130
0.0
111
1.0
121
0.0
131
0.0
112
0.0
122
1.0
132
0.0
 79
     0
146
0.0
1001
ACAD_NAV_VCDISPLAY
1070
     3
  0
VPORT
  5
2B0
330
8
100
AcDbSymbolTableRecord
100
AcDbViewportTableRecord
  2
L1
 70
     0
 10
0.0
 20
0.0
 11
1.0
 21
1.0
 12
0.0
 22
0.0
 13
0.0
 23
0.0
 14
0.5
 24
0.5
 15
0.5
 25
0.5
 16
0.7188730927569434
 26
-0.5850486126764433
 36
0.3754192287502549
 17
0.0
 27
0.0
 37
0.0
 40
81.59218299999999
 41
0.217628
 42
50.0
 43
40.28867
 44
-40.28867
 50
0.0
 51
0.0
 71
     0
 72
   100
 73
     1
 74
     3
 75
     0
 76
     0
 77
     0
 78
     0
281
     0
 65
     1
110
0.0
120
0.0
130
0.0
111
1.0
121
0.0
131
0.0
112
0.0
122
1.0
132
0.0
 79
     0
146
0.0
  0
VPORT
  5
2B1
330
8
100
AcDbSymbolTableRecord
100
AcDbViewportTableRecord
  2
L2
 70
     0
 10
0.0
 20
0.0
 11
0.5
 21
1.0
 12
0.0
 22
0.0
 13
0.0
 23
0.0
 14
0.5
 24
0.5
 15
0.5
 25
0.5
 16
0.0
 26
-1.0
 36
0.0
 17
0.0
 27
0.0
 37
0.0
 40
78.612038
 41
0.225878
 42
50.0
 43
40.66421799999999
 44
-40.66421799999999
 50
0.0
 51
0.0
 71
     0
 72
   100
 73
     1
 74
     3
 75
     0
 76
     0
 77
     0
 78
     0
281
     0
 65
     1
110
0.0
120
0.0
130
0.0
111
1.0
121
0.0
131
0.0
112
0.0
122
1.0
132
0.0
 79
     0
146
0.0
  0
VPORT
  5
2B2
330
8
100
AcDbSymbolTableRecord
100
AcDbViewportTableRecord
  2
L2
 70
     0
 10
0.5
 20
0.0
 11
1.0
 21
1.0
 12
0.0
 22
0.0
 13
0.0
 23
0.0
 14
0.5
 24
0.5
 15
0.5
 25
0.5
 16
1.0
 26
0.0
 36
0.0
 17
0.0
 27
0.0
 37
0.0
 40
78.612038
 41
0.225878
 42
50.0
 43
39.704996
 44
-39.704996
 50
0.0
 51
0.0
 71
     0
 72
   100
 73
     1
 74
     3
 75
     0
 76
     0
 77
     0
 78
     0
281
     0
 65
     1
110
0.0
120
0.0
130
0.0
111
1.0
121
0.0
131
0.0
112
0.0
122
1.0
132
0.0
 79
     0
146
0.0
  0
VPORT
  5
2B3
330
8
100
AcDbSymbolTableRecord
100
AcDbViewportTableRecord
  2
L3
 70
     0
 10
0.0
 20
0.5
 11
1.0
 21
1.0
 12
0.0
 22
0.0
 13
0.0
 23
0.0
 14
0.5
 24
0.5
 15
0.5
 25
0.5
 16
0.0
 26
0.0
 36
1.0
 17
0.0
 27
0.0
 37
0.0
 40
11.229167
 41
1.581306999999999
 42
50.0
 43
39.306019
 44
-39.306019
 50
0.0
 51
0.0
 71
     0
 72
   100
 73
     1
 74
     3
 75
     0
 76
     0
 77
     0
 78
     0
281
     0
 65
     1
110
0.0
120
0.0
130
0.0
111
1.0
121
0.0
131
0.0
112
0.0
122
1.0
132
0.0
 79
     0
146
0.0
  0
VPORT
  5
2B4
330
8
100
AcDbSymbolTableRecord
100
AcDbViewportTableRecord
  2
L3
 70
     0
 10
0.0
 20
0.0
 11
1.0
 21
0.5
 12
0.0
 22
0.0
 13
0.0
 23
0.0
 14
0.5
 24
0.5
 15
0.5
 25
0.5
 16
0.0
 26
-1.0
 36
0.0
 17
0.0
 27
0.0
 37
0.0
 40
78.612038
 41
0.225878
 42
50.0
 43
40.66421799999999
 44
-40.66421799999999
 50
0.0
 51
0.0
 71
     0
 72
   100
 73
     1
 74
     3
 75
     0
 76
     0
 77
     0
 78
     0
281
     0
 65
     1
110
0.0
120
0.0
130
0.0
111
1.0
121
0.0
131
0.0
112
0.0
122
1.0
132
0.0
 79
     0
146
0.0
  0
VPORT
  5
2B5
330
8
100
AcDbSymbolTableRecord
100
AcDbViewportTableRecord
  2
L4
 70
     0
 10
0.0
 20
0.5
 11
0.5
 21
1.0
 12
0.0
 22
0.0
 13
0.0
 23
0.0
 14
0.5
 24
0.5
 15
0.5
 25
0.5
 16
0.0
 26
0.0
 36
1.0
 17
0.0
 27
0.0
 37
0.0
 40
11.229167
 41
1.581306999999999
 42
50.0
 43
39.306019
 44
-39.306019
 50
0.0
 51
0.0
 71
     0
 72
   100
 73
     1
 74
     3
 75
     0
 76
     0
 77
     0
 78
     0
281
     0
 65
     1
110
0.0
120
0.0
130
0.0
111
1.0
121
0.0
131
0.0
112
0.0
122
1.0
132
0.0
 79
     0
146
0.0
  0
VPORT
  5
2B6
330
8
100
AcDbSymbolTableRecord
100
AcDbViewportTableRecord
  2
L4
 70
     0
 10
0.0
 20
0.0
 11
0.5
 21
0.5
 12
0.0
 22
0.0
 13
0.0
 23
0.0
 14
0.5
 24
0.5
 15
0.5
 25
0.5
 16
0.0
 26
-1.0
 36
0.0
 17
0.0
 27
0.0
 37
0.0
 40
78.612038
 41
0.225878
 42
50.0
 43
40.66421799999999
 44
-40.66421799999999
 50
0.0
 51
0.0
 71
     0
 72
   100
 73
     1
 74
     3
 75
     0
 76
     0
 77
     0
 78
     0
281
     0
 65
     1
110
0.0
120
0.0
130
0.0
111
1.0
121
0.0
131
0.0
112
0.0
122
1.0
132
0.0
 79
     0
146
0.0
  0
VPORT
  5
2B7
330
8
100
AcDbSymbolTableRecord
100
AcDbViewportTableRecord
  2
L4
 70
     0
 10
0.5
 20
0.0
 11
1.0
 21
0.5
 12
0.0
 22
0.0
 13
0.0
 23
0.0
 14
0.5
 24
0.5
 15
0.5
 25
0.5
 16
1.0
 26
0.0
 36
0.0
 17
0.0
 27
0.0
 37
0.0
 40
78.612038
 41
0.225878
 42
50.0
 43
39.704996
 44
-39.704996
 50
0.0
 51
0.0
 71
     0
 72
   100
 73
     1
 74
     3
 75
     0
 76
     0
 77
     0
 78
     0
281
     0
 65
     1
110
0.0
120
0.0
130
0.0
111
1.0
121
0.0
131
0.0
112
0.0
122
1.0
132
0.0
 79
     0
146
0.0
  0
VPORT
  5
2B8
330
8
100
AcDbSymbolTableRecord
100
AcDbViewportTableRecord
  2
L4
 70
     0
 10
0.5
 20
0.5
 11
1.0
 21
1.0
 12
0.0
 22
0.0
 13
0.0
 23
0.0
 14
0.5
 24
0.5
 15
0.5
 25
0.5
 16
0.5773502691896259
 26
-0.5773502691896259
 36
0.5773502691896259
 17
0.0
 27
0.0
 37
0.0
 40
77.280174
 41
0.229771
 42
50.0
 43
40.269595
 44
-40.269595
 50
0.0
 51
0.0
 71
     0
 72
   100
 73
     1
 74
     3
 75
     0
 76
     0
 77
     0
 78
     0
281
     0
 65
     1
110
0.0
120
0.0
130
0.0
111
1.0
121
0.0
131
0.0
112
0.0
122
1.0
132
0.0
 79
     0
146
0.0
  0
VPORT
  5
2B9
330
8
100
AcDbSymbolTableRecord
100
AcDbViewportTableRecord
  2
L6
 70
     0
 10
0.0
 20
0.5
 11
0.333333
 21
1.0
 12
0.0
 22
0.0
 13
0.0
 23
0.0
 14
0.5
 24
0.5
 15
0.5
 25
0.5
 16
0.7188730927569434
 26
-0.5850486126764433
 36
0.3754192287502549
 17
0.0
 27
0.0
 37
0.0
 40
81.59218299999999
 41
0.217628
 42
50.0
 43
40.28867
 44
-40.28867
 50
0.0
 51
0.0
 71
     0
 72
   100
 73
     1
 74
     3
 75
     0
 76
     0
 77
     0
 78
     0
281
     0
 65
     1
110
0.0
120
0.0
130
0.0
111
1.0
121
0.0
131
0.0
112
0.0
122
1.0
132
0.0
 79
     0
146
0.0
  0
VPORT
  5
2BA
330
8
100
AcDbSymbolTableRecord
100
AcDbViewportTableRecord
  2
L6
 70
     0
 10
0.0
 20
0.0
 11
0.333333
 21
0.5
 12
0.0
 22
0.0
 13
0.0
 23
0.0
 14
0.5
 24
0.5
 15
0.5
 25
0.5
 16
-1.0
 26
0.0
 36
0.0
 17
0.0
 27
0.0
 37
0.0
 40
78.612038
 41
0.225878
 42
50.0
 43
39.704996
 44
-39.704996
 50
0.0
 51
0.0
 71
     0
 72
   100
 73
     1
 74
     3
 75
     0
 76
     0
 77
     0
 78
     0
281
     0
 65
     1
110
0.0
120
0.0
130
0.0
111
1.0
121
0.0
131
0.0
112
0.0
122
1.0
132
0.0
 79
     0
146
0.0
  0
VPORT
  5
2BB
330
8
100
AcDbSymbolTableRecord
100
AcDbViewportTableRecord
  2
L6
 70
     0
 10
0.333333
 20
0.5
 11
0.666667
 21
1.0
 12
0.0
 22
0.0
 13
0.0
 23
0.0
 14
0.5
 24
0.5
 15
0.5
 25
0.5
 16
0.0
 26
0.0
 36
1.0
 17
0.0
 27
0.0
 37
0.0
 40
11.229167
 41
1.581306999999999
 42
50.0
 43
39.306019
 44
-39.306019
 50
0.0
 51
0.0
 71
     0
 72
   100
 73
     1
 74
     3
 75
     0
 76
     0
 77
     0
 78
     0
281
     0
 65
     1
110
0.0
120
0.0
130
0.0
111
1.0
121
0.0
131
0.0
112
0.0
122
1.0
132
0.0
 79
     0
146
0.0
  0
VPORT
  5
2BC
330
8
100
AcDbSymbolTableRecord
100
AcDbViewportTableRecord
  2
L6
 70
     0
 10
0.333333
 20
0.0
 11
0.666667
 21
0.5
 12
0.0
 22
0.0
 13
0.0
 23
0.0
 14
0.5
 24
0.5
 15
0.5
 25
0.5
 16
0.0
 26
-1.0
 36
0.0
 17
0.0
 27
0.0
 37
0.0
 40
78.612038
 41
0.225878
 42
50.0
 43
40.66421799999999
 44
-40.66421799999999
 50
0.0
 51
0.0
 71
     0
 72
   100
 73
     1
 74
     3
 75
     0
 76
     0
 77
     0
 78
     0
281
     0
 65
     1
110
0.0
120
0.0
130
0.0
111
1.0
121
0.0
131
0.0
112
0.0
122
1.0
132
0.0
 79
     0
146
0.0
  0
VPORT
  5
2BD
330
8
100
AcDbSymbolTableRecord
100
AcDbViewportTableRecord
  2
L6
 70
     0
 10
0.666667
 20
0.5
 11
1.0
 21
1.0
 12
0.0
 22
0.0
 13
0.0
 23
0.0
 14
0.5
 24
0.5
 15
0.5
 25
0.5
 16
0.5773502691896259
 26
-0.5773502691896259
 36
0.5773502691896259
 17
0.0
 27
0.0
 37
0.0
 40
77.280174
 41
0.229771
 42
50.0
 43
40.269595
 44
-40.269595
 50
0.0
 51
0.0
 71
     0
 72
   100
 73
     1
 74
     3
 75
     0
 76
     0
 77
     0
 78
     0
281
     0
 65
     1
110
0.0
120
0.0
130
0.0
111
1.0
121
0.0
131
0.0
112
0.0
122
1.0
132
0.0
 79
     0
146
0.0
  0
VPORT
  5
2BE
330
8
100
AcDbSymbolTableRecord
100
AcDbViewportTableRecord
  2
L6
 70
     0
 10
0.666667
 20
0.0
 11
1.0
 21
0.5
 12
0.0
 22
0.0
 13
0.0
 23
0.0
 14
0.5
 24
0.5
 15
0.5
 25
0.5
 16
1.0
 26
0.0
 36
0.0
 17
0.0
 27
0.0
 37
0.0
 40
78.612038
 41
0.225878
 42
50.0
 43
39.704996
 44
-39.704996
 50
0.0
 51
0.0
 71
     0
 72
   100
 73
     1
 74
     3
 75
     0
 76
     0
 77
     0
 78
     0
281
     0
 65
     1
110
0.0
120
0.0
130
0.0
111
1.0
121
0.0
131
0.0
112
0.0
122
1.0
132
0.0
 79
     0
146
0.0
  0
ENDTAB
  0
TABLE
  2
LTYPE
  5
5
330
0
100
AcDbSymbolTable
 70
     6
  0
LTYPE
  5
14
330
5
100
AcDbSymbolTableRecord
100
AcDbLinetypeTableRecord
  2
ByBlock
 70
     0
  3

 72
    65
 73
     0
 40
0.0
  0
LTYPE
  5
15
330
5
100
AcDbSymbolTableRecord
100
AcDbLinetypeTableRecord
  2
ByLayer
 70
     0
  3

 72
    65
 73
     0
 40
0.0
  0
LTYPE
  5
16
330
5
100
AcDbSymbolTableRecord
100
AcDbLinetypeTableRecord
  2
Continuous
 70
     0
  3
Solid line
 72
    65
 73
     0
 40
0.0
  0
LTYPE
  5
6E
330
5
100
AcDbSymbolTableRecord
100
AcDbLinetypeTableRecord
  2
CENTER
 70
     0
  3
____ _ ____ _ ____ _ ____
 72
    65
 73
     4
 40
47.4
 49
22.0
 74
     4
 75
     0
340
0
 46
0.0
 50
0.0
 44
0.0
 45
0.0
 49
-8.5
 74
     4
 75
     0
340
0
 46
0.0
 50
0.0
 44
0.0
 45
0.0
 49
8.5
 74
     4
 75
     0
340
0
 46
0.0
 50
0.0
 44
0.0
 45
0.0
 49
-8.5
 74
     4
 75
     0
340
0
 46
0.0
 50
0.0
 44
0.0
 45
0.0
  0
LTYPE
  5
6F
330
5
100
AcDbSymbolTableRecord
100
AcDbLinetypeTableRecord
  2
DASHDOT
 70
     0
  3
_._._._._._._._._._._._._._._._.
 72
    65
 73
     4
 40
70.0
 49
31.0
 74
     4
 75
     0
340
0
 46
0.0
 50
0.0
 44
0.0
 45
0.0
 49
-13.0
 74
     4
 75
     0
340
0
 46
0.0
 50
0.0
 44
0.0
 45
0.0
 49
13.0
 74
     4
 75
     0
340
0
 46
0.0
 50
0.0
 44
0.0
 45
0.0
 49
-13.0
 74
     4
 75
     0
340
0
 46
0.0
 50
0.0
 44
0.0
 45
0.0
  0
LTYPE
  5
70
330
5
100
AcDbSymbolTableRecord
100
AcDbLinetypeTableRecord
  2
DASHED
 70
     0
  3
__ __ __ __ __ __ __ __ __
 72
    65
 73
     2
 40
25.72
 49
12.86
 74
     4
 75
     0
340
0
 46
0.0
 50
0.0
 44
0.0
 45
0.0
 49
-12.86
 74
     4
 75
     0
340
0
 46
0.0
 50
0.0
 44
0.0
 45
0.0
  0
LTYPE
  5
71
330
5
100
AcDbSymbolTableRecord
100
AcDbLinetypeTableRecord
  2
DOT
 70
     0
  3
.........................
 72
    65
 73
     2
 40
10.0
 49
0.0
 74
     4
 75
     0
340
0
 46
0.0
 50
0.0
 44
0.0
 45
0.0
 49
-10.0
 74
     4
 75
     0
340
0
 46
0.0
 50
0.0
 44
0.0
 45
0.0
  0
LTYPE
  5
72
330
5
100
AcDbSymbolTableRecord
100
AcDbLinetypeTableRecord
  2
PHANTOM
 70
     0
  3
____ _ _ ____ _ _ _____ _ _ ____
 72
    65
 73
     6
 40
50.5
 49
18.0
 74
     4
 75
     0
340
0
 46
0.0
 50
0.0
 44
0.0
 45
0.0
 49
-6.5
 74
     4
 75
     0
340
0
 46
0.0
 50
0.0
 44
0.0
 45
0.0
 49
6.5
 74
     4
 75
     0
340
0
 46
0.0
 50
0.0
 44
0.0
 45
0.0
 49
-6.5
 74
     4
 75
     0
340
0
 46
0.0
 50
0.0
 44
0.0
 45
0.0
 49
6.5
 74
     4
 75
     0
340
0
 46
0.0
 50
0.0
 44
0.0
 45
0.0
 49
-6.5
 74
     4
 75
     0
340
0
 46
0.0
 50
0.0
 44
0.0
 45
0.0
  0
ENDTAB
  0
TABLE
  2
LAYER
  5
2
330
0
100
AcDbSymbolTable
 70
     4
  0
LAYER
  5
10
102
{ACAD_XDICTIONARY
360
333
102
}
330
2
100
AcDbSymbolTableRecord
100
AcDbLayerTableRecord
  2
0
 70
     0
 62
     7
  6
Continuous
370
    -3
390
F
  0
LAYER
  5
74
102
{ACAD_XDICTIONARY
360
335
102
}
330
2
100
AcDbSymbolTableRecord
100
AcDbLayerTableRecord
  2
61
 70
     0
 62
     7
  6
Continuous
370
    -3
390
F
  0
LAYER
  5
76
102
{ACAD_XDICTIONARY
360
337
102
}
330
2
100
AcDbSymbolTableRecord
100
AcDbLayerTableRecord
  2
Trimetric
 70
     0
 62
     7
  6
Continuous
370
    -3
390
F
  0
LAYER
  5
319
330
2
100
AcDbSymbolTableRecord
100
AcDbLayerTableRecord
  2
Defpoints
 70
     0
 62
     7
  6
Continuous
290
     0
370
    -3
390
F
  0
ENDTAB
  0
TABLE
  2
STYLE
  5
3
330
0
100
AcDbSymbolTable
 70
     1
  0
STYLE
  5
11
330
3
100
AcDbSymbolTableRecord
100
AcDbTextStyleTableRecord
  2
Standard
 70
     0
 40
0.0
 41
1.0
 50
0.0
 71
     0
 42
0.2
  3
txt
  4

  0
ENDTAB
  0
TABLE
  2
VIEW
  5
6
330
0
100
AcDbSymbolTable
 70
     8
  0
VIEW
  5
2A8
330
6
100
AcDbSymbolTableRecord
100
AcDbViewTableRecord
  2
Top
 70
     0
 40
11.229167
 10
0.0
 20
0.0
 41
20.84375
 11
0.0
 21
0.0
 31
1.0
 12
0.0
 22
0.0
 32
0.0
 42
50.0
 43
39.306019
 44
-39.306019
 50
0.0
 71
     0
281
     0
 72
     0
  0
VIEW
  5
2A9
330
6
100
AcDbSymbolTableRecord
100
AcDbViewTableRecord
  2
Front
 70
     0
 40
78.612038
 10
0.0
 20
0.0
 41
20.84375
 11
0.0
 21
-1.0
 31
0.0
 12
0.0
 22
0.0
 32
0.0
 42
50.0
 43
40.66421799999999
 44
-40.66421799999999
 50
0.0
 71
     0
281
     0
 72
     0
  0
VIEW
  5
2AA
330
6
100
AcDbSymbolTableRecord
100
AcDbViewTableRecord
  2
Right
 70
     0
 40
78.612038
 10
0.0
 20
0.0
 41
11.229167
 11
1.0
 21
0.0
 31
0.0
 12
0.0
 22
0.0
 32
0.0
 42
50.0
 43
39.704996
 44
-39.704996
 50
0.0
 71
     0
281
     0
 72
     0
  0
VIEW
  5
2AB
330
6
100
AcDbSymbolTableRecord
100
AcDbViewTableRecord
  2
Back
 70
     0
 40
78.612038
 10
0.0
 20
0.0
 41
20.84375
 11
0.0
 21
1.0
 31
0.0
 12
0.0
 22
0.0
 32
0.0
 42
50.0
 43
40.66421799999999
 44
-40.66421799999999
 50
0.0
 71
     0
281
     0
 72
     0
  0
VIEW
  5
2AC
330
6
100
AcDbSymbolTableRecord
100
AcDbViewTableRecord
  2
Bottom
 70
     0
 40
11.229167
 10
0.0
 20
0.0
 41
20.84375
 11
0.0
 21
0.0
 31
-1.0
 12
0.0
 22
0.0
 32
0.0
 42
50.0
 43
39.306019
 44
-39.306019
 50
180.0
 71
     0
281
     0
 72
     0
  0
VIEW
  5
2AD
330
6
100
AcDbSymbolTableRecord
100
AcDbViewTableRecord
  2
Left
 70
     0
 40
78.612038
 10
0.0
 20
0.0
 41
11.229167
 11
-1.0
 21
0.0
 31
0.0
 12
0.0
 22
0.0
 32
0.0
 42
50.0
 43
39.704996
 44
-39.704996
 50
0.0
 71
     0
281
     0
 72
     0
  0
VIEW
  5
2AE
330
6
100
AcDbSymbolTableRecord
100
AcDbViewTableRecord
  2
Isometric
 70
     0
 40
77.280174
 10
0.0
 20
0.0
 41
22.678977
 11
0.5773502691896259
 21
-0.5773502691896259
 31
0.5773502691896259
 12
0.0
 22
0.0
 32
0.0
 42
50.0
 43
40.269595
 44
-40.269595
 50
0.0
 71
     0
281
     0
 72
     0
  0
VIEW
  5
2AF
330
6
100
AcDbSymbolTableRecord
100
AcDbViewTableRecord
  2
Trimetric
 70
     0
 40
81.59218299999999
 10
0.0
 20
0.0
 41
21.866366
 11
0.7188730927569434
 21
-0.5850486126764433
 31
0.3754192287502549
 12
0.0
 22
0.0
 32
0.0
 42
50.0
 43
40.28867
 44
-40.28867
 50
0.0
 71
     0
281
     0
 72
     0
  0
ENDTAB
  0
TABLE
  2
UCS
  5
7
330
0
100
AcDbSymbolTable
 70
     0
  0
ENDTAB
  0
TABLE
  2
APPID
  5
9
330
0
100
AcDbSymbolTable
 70
     3
  0
APPID
  5
12
330
9
100
AcDbSymbolTableRecord
100
AcDbRegAppTableRecord
  2
ACAD
 70
     0
  0
APPID
  5
300
330
9
100
AcDbSymbolTableRecord
100
AcDbRegAppTableRecord
  2
ACAD_MLEADERVER
 70
     0
  0
APPID
  5
33E
330
9
100
AcDbSymbolTableRecord
100
AcDbRegAppTableRecord
  2
ACAD_NAV_VCDISPLAY
 70
     0
  0
ENDTAB
  0
TABLE
  2
DIMSTYLE
  5
A
330
0
100
AcDbSymbolTable
 70
     1
100
AcDbDimStyleTable
 71
     1
340
27
  0
DIMSTYLE
105
27
330
A
100
AcDbSymbolTableRecord
100
AcDbDimStyleTableRecord
  2
Standard
 70
     0
340
11
  0
ENDTAB
  0
TABLE
  2
BLOCK_RECORD
  5
1
330
0
100
AcDbSymbolTable
 70
     2
  0
BLOCK_RECORD
  5
1F
330
1
100
AcDbSymbolTableRecord
100
AcDbBlockTableRecord
  2
*Model_Space
340
22
  0
BLOCK_RECORD
  5
1B
330
1
100
AcDbSymbolTableRecord
100
AcDbBlockTableRecord
  2
*Paper_Space
340
1E
  0
BLOCK_RECORD
  5
23
330
1
100
AcDbSymbolTableRecord
100
AcDbBlockTableRecord
  2
*Paper_Space0
340
26
  0
BLOCK_RECORD
  5
31A
330
1
100
AcDbSymbolTableRecord
100
AcDbBlockTableRecord
  2
*D1
340
0
  0
ENDTAB
  0
ENDSEC
  0
SECTION
  2
BLOCKS
  0
BLOCK
  5
20
330
1F
100
AcDbEntity
  8
0
100
AcDbBlockBegin
  2
*Model_Space
 70
     0
 10
0.0
 20
0.0
 30
0.0
  3
*Model_Space
  1

  0
ENDBLK
  5
21
330
1F
100
AcDbEntity
  8
0
100
AcDbBlockEnd
  0
BLOCK
  5
1C
330
1B
100
AcDbEntity
 67
     1
  8
0
100
AcDbBlockBegin
  2
*Paper_Space
 70
     0
 10
0.0
 20
0.0
 30
0.0
  3
*Paper_Space
  1

  0
ENDBLK
  5
1D
330
1B
100
AcDbEntity
 67
     1
  8
0
100
AcDbBlockEnd
  0
BLOCK
  5
24
330
23
100
AcDbEntity
 67
     1
  8
0
100
AcDbBlockBegin
  2
*Paper_Space0
 70
     0
 10
0.0
 20
0.0
 30
0.0
  3
*Paper_Space0
  1

  0
ENDBLK
  5
25
330
23
100
AcDbEntity
 67
     1
  8
0
100
AcDbBlockEnd
  0
BLOCK
  5
31B
330
31A
100
AcDbEntity
  8
0
370
    70
100
AcDbBlockBegin
  2
*D1
 70
     1
 10
0.0
 20
0.0
 30
0.0
  3
*D1
  1

  0
LINE
  5
328
330
31A
100
AcDbEntity
  8
0
 62
     0
370
    -2
100
AcDbLine
 10
24.497316
 20
67.57378
 30
0.0
 11
24.497316
 21
74.0470711020356
 31
0.0
  0
LINE
  5
329
330
31A
100
AcDbEntity
  8
0
 62
     0
370
    -2
100
AcDbLine
 10
103.23748
 20
67.57378
 30
0.0
 11
103.23748
 21
74.0470711020356
 31
0.0
  0
LINE
  5
32A
330
31A
100
AcDbEntity
  8
0
 62
     0
370
    -2
100
AcDbLine
 10
24.677316
 20
73.86707110203559
 30
0.0
 11
63.252398
 21
73.86707110203559
 31
0.0
  0
LINE
  5
32B
330
31A
100
AcDbEntity
  8
0
 62
     0
370
    -2
100
AcDbLine
 10
103.05748
 20
73.86707110203559
 30
0.0
 11
64.482398
 21
73.86707110203559
 31
0.0
  0
SOLID
  5
32C
330
31A
100
AcDbEntity
  8
0
 62
     0
370
    70
100
AcDbTrace
 10
24.677316
 20
73.89707110203559
 30
0.0
 11
24.677316
 21
73.83707110203559
 31
0.0
 12
24.497316
 22
73.86707110203559
 32
0.0
 13
24.497316
 23
73.86707110203559
 33
0.0
  0
SOLID
  5
32D
330
31A
100
AcDbEntity
  8
0
 62
     0
370
    70
100
AcDbTrace
 10
103.05748
 20
73.89707110203559
 30
0.0
 11
103.05748
 21
73.83707110203559
 31
0.0
 12
103.23748
 22
73.86707110203559
 32
0.0
 13
103.23748
 23
73.86707110203559
 33
0.0
  0
MTEXT
  5
32E
330
31A
100
AcDbEntity
  8
0
 62
     0
370
    70
100
AcDbMText
 10
63.867398
 20
73.86707110203559
 30
0.0
 40
0.18
 41
0.0
 71
     5
 72
     1
  1
\A1;78.7402
 73
     1
 44
1.0
1001
ACAD
1000
MTEXTBEGIN
1070
    73
1070
     1
1070
    44
1040
1.0
1070
    74
1070
     0
1000
MTEXTEND
  0
POINT
  5
32F
330
31A
100
AcDbEntity
  8
Defpoints
 62
     0
370
    70
100
AcDbPoint
 10
24.497316
 20
67.51128
 30
0.0
  0
POINT
  5
330
330
31A
100
AcDbEntity
  8
Defpoints
 62
     0
370
    70
100
AcDbPoint
 10
103.23748
 20
67.51128
 30
0.0
  0
POINT
  5
331
330
31A
100
AcDbEntity
  8
Defpoints
 62
     0
370
    70
100
AcDbPoint
 10
103.23748
 20
73.86707110203559
 30
0.0
  0
ENDBLK
  5
31C
330
31A
100
AcDbEntity
  8
0
370
    70
100
AcDbBlockEnd
  0
ENDSEC
  0
SECTION
  2
ENTITIES
  0
POINT
  5
73
330
1F
100
AcDbEntity
  8
61
  6
Continuous
 62
    23
370
    70
100
AcDbPoint
 10
0.0
 20
0.0
 30
0.0
  0
LINE
  5
79
330
1F
100
AcDbEntity
  8
Trimetric
  6
Continuous
 62
     2
370
    18
100
AcDbLine
 10
7.966739999999999
 20
69.164132
 30
0.0
 11
7.701739999999999
 21
69.164132
 31
0.0
  0
LINE
  5
7A
330
1F
100
AcDbEntity
  8
Trimetric
  6
Continuous
 62
     2
370
    18
100
AcDbLine
 10
7.986739999999999
 20
69.356628
 30
0.0
 11
7.986739999999999
 21
69.184128
 31
0.0
  0
LINE
  5
7B
330
1F
100
AcDbEntity
  8
Trimetric
  6
Continuous
 62
     2
370
    18
100
AcDbLine
 10
7.856739999999999
 20
69.356628
 30
0.0
 11
7.856739999999999
 21
69.49946
 31
0.0
  0
LINE
  5
7C
330
1F
100
AcDbEntity
  8
Trimetric
  6
Continuous
 62
     2
370
    18
100
AcDbLine
 10
7.731739999999999
 20
69.538696
 30
0.0
 11
7.731739999999999
 21
69.356628
 31
0.0
  0
LINE
  5
7D
330
1F
100
AcDbEntity
  8
Trimetric
  6
Continuous
 62
     2
370
    18
100
AcDbLine
 10
8.111739999999999
 20
69.104124
 30
0.0
 11
8.111739999999999
 21
69.356628
 31
0.0
  0
LINE
  5
7E
330
1F
100
AcDbEntity
  8
Trimetric
  6
Continuous
 62
     2
370
    18
100
AcDbLine
 10
7.787532
 20
69.03913199999999
 30
0.0
 11
8.046739999999999
 21
69.03913199999999
 31
0.0
  0
LINE
  5
7F
330
1F
100
AcDbEntity
  8
Trimetric
  6
Continuous
 62
     2
370
    18
100
AcDbLine
 10
7.773871999999999
 20
68.92773599999999
 30
0.0
 11
7.76758
 21
69.01774
 31
0.0
  0
LINE
  5
80
330
1F
100
AcDbEntity
  8
Trimetric
  6
Continuous
 62
     2
370
    18
100
AcDbLine
 10
8.028216
 20
68.90912800000001
 30
0.0
 11
7.793824
 21
68.90912800000001
 31
0.0
  0
LINE
  5
81
330
1F
100
AcDbEntity
  8
Trimetric
  6
Continuous
 62
     2
370
    18
100
AcDbLine
 10
8.031739999999999
 20
68.92913199999999
 30
0.0
 11
8.028216
 21
68.90912800000001
 31
0.0
  0
LINE
  5
82
330
1F
100
AcDbEntity
  8
Trimetric
  6
Continuous
 62
     2
370
    18
100
AcDbLine
 10
8.07174
 20
68.92913199999999
 30
0.0
 11
8.031739999999999
 21
68.92913199999999
 31
0.0
  0
LINE
  5
83
330
1F
100
AcDbEntity
  8
Trimetric
  6
Continuous
 62
     2
370
    18
100
AcDbLine
 10
8.088948
 20
68.919196
 30
0.0
 11
8.07174
 21
68.92913199999999
 31
0.0
  0
LINE
  5
84
330
1F
100
AcDbEntity
  8
Trimetric
  6
Continuous
 62
     2
370
    18
100
AcDbLine
 10
7.801864
 20
68.83412800000001
 30
0.0
 11
8.066155999999999
 21
68.83412800000001
 31
0.0
  0
LINE
  5
85
330
1F
100
AcDbEntity
  8
Trimetric
  6
Continuous
 62
     2
370
    18
100
AcDbLine
 10
7.983028
 20
65.936692
 30
0.0
 11
7.781916
 21
68.812736
 31
0.0
  0
LINE
  5
86
330
1F
100
AcDbEntity
  8
Trimetric
  6
Continuous
 62
     2
370
    18
100
AcDbLine
 10
12.091308
 20
65.704132
 30
0.0
 11
8.232419999999999
 21
65.704132
 31
0.0
  0
LINE
  5
87
330
1F
100
AcDbEntity
  8
Trimetric
  6
Continuous
 62
     2
370
    18
100
AcDbLine
 10
12.541812
 20
68.812736
 30
0.0
 11
12.340696
 21
65.936692
 31
0.0
  0
LINE
  5
88
330
1F
100
AcDbEntity
  8
Trimetric
  6
Continuous
 62
     2
370
    18
100
AcDbLine
 10
12.257572
 20
68.83412800000001
 30
0.0
 11
12.52186
 21
68.83412800000001
 31
0.0
  0
LINE
  5
89
330
1F
100
AcDbEntity
  8
Trimetric
  6
Continuous
 62
     2
370
    18
100
AcDbLine
 10
12.251984
 20
68.92913199999999
 30
0.0
 11
12.234776
 21
68.919196
 31
0.0
  0
LINE
  5
8A
330
1F
100
AcDbEntity
  8
Trimetric
  6
Continuous
 62
     2
370
    18
100
AcDbLine
 10
12.291984
 20
68.92913199999999
 30
0.0
 11
12.251984
 21
68.92913199999999
 31
0.0
  0
LINE
  5
8B
330
1F
100
AcDbEntity
  8
Trimetric
  6
Continuous
 62
     2
370
    18
100
AcDbLine
 10
12.295512
 20
68.90912800000001
 30
0.0
 11
12.291984
 21
68.92913199999999
 31
0.0
  0
LINE
  5
8C
330
1F
100
AcDbEntity
  8
Trimetric
  6
Continuous
 62
     2
370
    18
100
AcDbLine
 10
12.5299
 20
68.90912800000001
 30
0.0
 11
12.295512
 21
68.90912800000001
 31
0.0
  0
LINE
  5
8D
330
1F
100
AcDbEntity
  8
Trimetric
  6
Continuous
 62
     2
370
    18
100
AcDbLine
 10
12.556144
 20
69.01774
 30
0.0
 11
12.549852
 21
68.92773599999999
 31
0.0
  0
LINE
  5
8E
330
1F
100
AcDbEntity
  8
Trimetric
  6
Continuous
 62
     2
370
    18
100
AcDbLine
 10
12.276984
 20
69.03913199999999
 30
0.0
 11
12.536192
 21
69.03913199999999
 31
0.0
  0
LINE
  5
8F
330
1F
100
AcDbEntity
  8
Trimetric
  6
Continuous
 62
     2
370
    18
100
AcDbLine
 10
12.211984
 20
69.356628
 30
0.0
 11
12.211984
 21
69.104124
 31
0.0
  0
LINE
  5
90
330
1F
100
AcDbEntity
  8
Trimetric
  6
Continuous
 62
     2
370
    18
100
AcDbLine
 10
12.591984
 20
69.356628
 30
0.0
 11
12.591984
 21
69.538696
 31
0.0
  0
LINE
  5
91
330
1F
100
AcDbEntity
  8
Trimetric
  6
Continuous
 62
     2
370
    18
100
AcDbLine
 10
12.466984
 20
69.49946
 30
0.0
 11
12.466984
 21
69.356628
 31
0.0
  0
LINE
  5
92
330
1F
100
AcDbEntity
  8
Trimetric
  6
Continuous
 62
     2
370
    18
100
AcDbLine
 10
12.336984
 20
69.184128
 30
0.0
 11
12.336984
 21
69.356628
 31
0.0
  0
LINE
  5
93
330
1F
100
AcDbEntity
  8
Trimetric
  6
Continuous
 62
     2
370
    18
100
AcDbLine
 10
12.621984
 20
69.164132
 30
0.0
 11
12.356984
 21
69.164132
 31
0.0
  0
LINE
  5
94
330
1F
100
AcDbEntity
  8
Trimetric
  6
Continuous
 62
     2
370
    18
100
AcDbLine
 10
12.465392
 20
65.92797199999999
 30
0.0
 11
12.686824
 21
69.094588
 31
0.0
  0
LINE
  5
95
330
1F
100
AcDbEntity
  8
Trimetric
  6
Continuous
 62
     2
370
    18
100
AcDbLine
 10
12.014216
 20
65.579132
 30
0.0
 11
12.091308
 21
65.579132
 31
0.0
  0
LINE
  5
96
330
1F
100
AcDbEntity
  8
Trimetric
  6
Continuous
 62
     2
370
    18
100
AcDbLine
 10
12.004216
 20
65.355124
 30
0.0
 11
12.004216
 21
65.569128
 31
0.0
  0
LINE
  5
97
330
1F
100
AcDbEntity
  8
Trimetric
  6
Continuous
 62
     2
370
    18
100
AcDbLine
 10
12.214216
 20
65.345124
 30
0.0
 11
12.014216
 21
65.345124
 31
0.0
  0
LINE
  5
98
330
1F
100
AcDbEntity
  8
Trimetric
  6
Continuous
 62
     2
370
    18
100
AcDbLine
 10
12.229212
 20
65.235124
 30
0.0
 11
12.229212
 21
65.330124
 31
0.0
  0
LINE
  5
99
330
1F
100
AcDbEntity
  8
Trimetric
  6
Continuous
 62
     2
370
    18
100
AcDbLine
 10
11.669216
 20
65.220124
 30
0.0
 11
12.214216
 21
65.220124
 31
0.0
  0
LINE
  5
9A
330
1F
100
AcDbEntity
  8
Trimetric
  6
Continuous
 62
     2
370
    18
100
AcDbLine
 10
11.654212
 20
65.330124
 30
0.0
 11
11.654212
 21
65.235124
 31
0.0
  0
LINE
  5
9B
330
1F
100
AcDbEntity
  8
Trimetric
  6
Continuous
 62
     2
370
    18
100
AcDbLine
 10
11.869216
 20
65.345124
 30
0.0
 11
11.669216
 21
65.345124
 31
0.0
  0
LINE
  5
9C
330
1F
100
AcDbEntity
  8
Trimetric
  6
Continuous
 62
     2
370
    18
100
AcDbLine
 10
11.879216
 20
65.569128
 30
0.0
 11
11.879216
 21
65.355124
 31
0.0
  0
LINE
  5
9D
330
1F
100
AcDbEntity
  8
Trimetric
  6
Continuous
 62
     2
370
    18
100
AcDbLine
 10
11.139216
 20
65.579132
 30
0.0
 11
11.869216
 21
65.579132
 31
0.0
  0
LINE
  5
9E
330
1F
100
AcDbEntity
  8
Trimetric
  6
Continuous
 62
     2
370
    18
100
AcDbLine
 10
11.129216
 20
65.355124
 30
0.0
 11
11.129216
 21
65.569128
 31
0.0
  0
LINE
  5
9F
330
1F
100
AcDbEntity
  8
Trimetric
  6
Continuous
 62
     2
370
    18
100
AcDbLine
 10
11.339216
 20
65.345124
 30
0.0
 11
11.139216
 21
65.345124
 31
0.0
  0
LINE
  5
A0
330
1F
100
AcDbEntity
  8
Trimetric
  6
Continuous
 62
     2
370
    18
100
AcDbLine
 10
11.354212
 20
65.235124
 30
0.0
 11
11.354212
 21
65.330124
 31
0.0
  0
LINE
  5
A1
330
1F
100
AcDbEntity
  8
Trimetric
  6
Continuous
 62
     2
370
    18
100
AcDbLine
 10
11.079216
 20
65.220124
 30
0.0
 11
11.339216
 21
65.220124
 31
0.0
  0
LINE
  5
A2
330
1F
100
AcDbEntity
  8
Trimetric
  6
Continuous
 62
     2
370
    18
100
AcDbLine
 10
9.334512
 20
65.579132
 30
0.0
 11
10.989212
 21
65.579132
 31
0.0
  0
LINE
  5
A3
330
1F
100
AcDbEntity
  8
Trimetric
  6
Continuous
 62
     2
370
    18
100
AcDbLine
 10
8.984511999999998
 20
65.220124
 30
0.0
 11
9.244512
 21
65.220124
 31
0.0
  0
LINE
  5
A4
330
1F
100
AcDbEntity
  8
Trimetric
  6
Continuous
 62
     2
370
    18
100
AcDbLine
 10
8.969511999999999
 20
65.330124
 30
0.0
 11
8.969511999999999
 21
65.235124
 31
0.0
  0
LINE
  5
A5
330
1F
100
AcDbEntity
  8
Trimetric
  6
Continuous
 62
     2
370
    18
100
AcDbLine
 10
9.184511999999999
 20
65.345124
 30
0.0
 11
8.984511999999998
 21
65.345124
 31
0.0
  0
LINE
  5
A6
330
1F
100
AcDbEntity
  8
Trimetric
  6
Continuous
 62
     2
370
    18
100
AcDbLine
 10
9.194511999999999
 20
65.569128
 30
0.0
 11
9.194511999999999
 21
65.355124
 31
0.0
  0
LINE
  5
A7
330
1F
100
AcDbEntity
  8
Trimetric
  6
Continuous
 62
     2
370
    18
100
AcDbLine
 10
8.454511999999999
 20
65.579132
 30
0.0
 11
9.184511999999999
 21
65.579132
 31
0.0
  0
LINE
  5
A8
330
1F
100
AcDbEntity
  8
Trimetric
  6
Continuous
 62
     2
370
    18
100
AcDbLine
 10
8.444511999999999
 20
65.355124
 30
0.0
 11
8.444511999999999
 21
65.569128
 31
0.0
  0
LINE
  5
A9
330
1F
100
AcDbEntity
  8
Trimetric
  6
Continuous
 62
     2
370
    18
100
AcDbLine
 10
8.654511999999998
 20
65.345124
 30
0.0
 11
8.454511999999999
 21
65.345124
 31
0.0
  0
LINE
  5
AA
330
1F
100
AcDbEntity
  8
Trimetric
  6
Continuous
 62
     2
370
    18
100
AcDbLine
 10
8.669511999999999
 20
65.235124
 30
0.0
 11
8.669511999999999
 21
65.330124
 31
0.0
  0
LINE
  5
AB
330
1F
100
AcDbEntity
  8
Trimetric
  6
Continuous
 62
     2
370
    18
100
AcDbLine
 10
8.109511999999998
 20
65.220124
 30
0.0
 11
8.654511999999998
 21
65.220124
 31
0.0
  0
LINE
  5
AC
330
1F
100
AcDbEntity
  8
Trimetric
  6
Continuous
 62
     2
370
    18
100
AcDbLine
 10
8.094511999999999
 20
65.330124
 30
0.0
 11
8.094511999999999
 21
65.235124
 31
0.0
  0
LINE
  5
AD
330
1F
100
AcDbEntity
  8
Trimetric
  6
Continuous
 62
     2
370
    18
100
AcDbLine
 10
8.309511999999999
 20
65.345124
 30
0.0
 11
8.109511999999998
 21
65.345124
 31
0.0
  0
LINE
  5
AE
330
1F
100
AcDbEntity
  8
Trimetric
  6
Continuous
 62
     2
370
    18
100
AcDbLine
 10
8.319511999999999
 20
65.569128
 30
0.0
 11
8.319511999999999
 21
65.355124
 31
0.0
  0
LINE
  5
AF
330
1F
100
AcDbEntity
  8
Trimetric
  6
Continuous
 62
     2
370
    18
100
AcDbLine
 10
8.232419999999999
 20
65.579132
 30
0.0
 11
8.309511999999999
 21
65.579132
 31
0.0
  0
LINE
  5
B0
330
1F
100
AcDbEntity
  8
Trimetric
  6
Continuous
 62
     2
370
    18
100
AcDbLine
 10
7.636899999999999
 20
69.094588
 30
0.0
 11
7.858332
 21
65.92797199999999
 31
0.0
  0
LINE
  5
B1
330
1F
100
AcDbEntity
  8
Trimetric
  6
Continuous
 62
     2
370
    18
100
AcDbLine
 10
11.004216
 20
65.564132
 30
0.0
 11
11.004216
 21
65.295128
 31
0.0
  0
LINE
  5
B2
330
1F
100
AcDbEntity
  8
Trimetric
  6
Continuous
 62
     2
370
    18
100
AcDbLine
 10
9.319511999999999
 20
65.295128
 30
0.0
 11
9.319511999999999
 21
65.564132
 31
0.0
  0
LINE
  5
B3
330
1F
100
AcDbEntity
  8
Trimetric
  6
Continuous
 62
    74
370
    18
100
AcDbLine
 10
12.541812
 20
68.812736
 30
0.0
 11
12.340696
 21
65.936692
 31
0.0
  0
LINE
  5
B4
330
1F
100
AcDbEntity
  8
Trimetric
  6
Continuous
 62
    74
370
    18
100
AcDbLine
 10
8.031739999999999
 20
68.92913199999999
 30
0.0
 11
8.07174
 21
68.92913199999999
 31
0.0
  0
LINE
  5
B5
330
1F
100
AcDbEntity
  8
Trimetric
  6
Continuous
 62
    74
370
    18
100
AcDbLine
 10
12.536192
 20
69.03913199999999
 30
0.0
 11
12.276984
 21
69.03913199999999
 31
0.0
  0
LINE
  5
B6
330
1F
100
AcDbEntity
  8
Trimetric
  6
Continuous
 62
    74
370
    18
100
AcDbLine
 10
8.969511999999999
 20
65.235124
 30
0.0
 11
8.969511999999999
 21
65.330124
 31
0.0
  0
LINE
  5
B7
330
1F
100
AcDbEntity
  8
Trimetric
  6
Continuous
 62
    74
370
    18
100
AcDbLine
 10
12.295512
 20
68.90912800000001
 30
0.0
 11
12.291984
 21
68.92913199999999
 31
0.0
  0
LINE
  5
B8
330
1F
100
AcDbEntity
  8
Trimetric
  6
Continuous
 62
    74
370
    18
100
AcDbLine
 10
8.454511999999999
 20
65.579132
 30
0.0
 11
9.184511999999999
 21
65.579132
 31
0.0
  0
LINE
  5
B9
330
1F
100
AcDbEntity
  8
Trimetric
  6
Continuous
 62
    74
370
    18
100
AcDbLine
 10
12.621984
 20
69.164132
 30
0.0
 11
12.356984
 21
69.164132
 31
0.0
  0
LINE
  5
BA
330
1F
100
AcDbEntity
  8
Trimetric
  6
Continuous
 62
    74
370
    18
100
AcDbLine
 10
11.129216
 20
65.355124
 30
0.0
 11
11.129216
 21
65.569128
 31
0.0
  0
LINE
  5
BB
330
1F
100
AcDbEntity
  8
Trimetric
  6
Continuous
 62
    74
370
    18
100
AcDbLine
 10
7.801864
 20
68.83412800000001
 30
0.0
 11
8.066155999999999
 21
68.83412800000001
 31
0.0
  0
LINE
  5
BC
330
1F
100
AcDbEntity
  8
Trimetric
  6
Continuous
 62
    74
370
    18
100
AcDbLine
 10
8.444511999999999
 20
65.355124
 30
0.0
 11
8.444511999999999
 21
65.569128
 31
0.0
  0
LINE
  5
BD
330
1F
100
AcDbEntity
  8
Trimetric
  6
Continuous
 62
    74
370
    18
100
AcDbLine
 10
11.339216
 20
65.345124
 30
0.0
 11
11.139216
 21
65.345124
 31
0.0
  0
LINE
  5
BE
330
1F
100
AcDbEntity
  8
Trimetric
  6
Continuous
 62
    74
370
    18
100
AcDbLine
 10
12.5299
 20
68.90912800000001
 30
0.0
 11
12.295512
 21
68.90912800000001
 31
0.0
  0
LINE
  5
BF
330
1F
100
AcDbEntity
  8
Trimetric
  6
Continuous
 62
    74
370
    18
100
AcDbLine
 10
8.094511999999999
 20
65.235124
 30
0.0
 11
8.094511999999999
 21
65.330124
 31
0.0
  0
LINE
  5
C0
330
1F
100
AcDbEntity
  8
Trimetric
  6
Continuous
 62
    74
370
    18
100
AcDbLine
 10
9.334512
 20
65.579132
 30
0.0
 11
10.989212
 21
65.579132
 31
0.0
  0
LINE
  5
C1
330
1F
100
AcDbEntity
  8
Trimetric
  6
Continuous
 62
    74
370
    18
100
AcDbLine
 10
7.787532
 20
69.03913199999999
 30
0.0
 11
8.046739999999999
 21
69.03913199999999
 31
0.0
  0
LINE
  5
C2
330
1F
100
AcDbEntity
  8
Trimetric
  6
Continuous
 62
    74
370
    18
100
AcDbLine
 10
7.986739999999999
 20
69.184128
 30
0.0
 11
7.986739999999999
 21
69.356628
 31
0.0
  0
LINE
  5
C3
330
1F
100
AcDbEntity
  8
Trimetric
  6
Continuous
 62
    74
370
    18
100
AcDbLine
 10
11.654212
 20
65.235124
 30
0.0
 11
11.654212
 21
65.330124
 31
0.0
  0
LINE
  5
C4
330
1F
100
AcDbEntity
  8
Trimetric
  6
Continuous
 62
    74
370
    18
100
AcDbLine
 10
8.309511999999999
 20
65.579132
 30
0.0
 11
8.232419999999999
 21
65.579132
 31
0.0
  0
LINE
  5
C5
330
1F
100
AcDbEntity
  8
Trimetric
  6
Continuous
 62
    74
370
    18
100
AcDbLine
 10
7.636899999999999
 20
69.094588
 30
0.0
 11
7.858332
 21
65.92797199999999
 31
0.0
  0
LINE
  5
C6
330
1F
100
AcDbEntity
  8
Trimetric
  6
Continuous
 62
    74
370
    18
100
AcDbLine
 10
7.76758
 20
69.01774
 30
0.0
 11
7.773871999999999
 21
68.92773599999999
 31
0.0
  0
LINE
  5
C7
330
1F
100
AcDbEntity
  8
Trimetric
  6
Continuous
 62
    74
370
    18
100
AcDbLine
 10
7.701739999999999
 20
69.164132
 30
0.0
 11
7.966739999999999
 21
69.164132
 31
0.0
  0
LINE
  5
C8
330
1F
100
AcDbEntity
  8
Trimetric
  6
Continuous
 62
    74
370
    18
100
AcDbLine
 10
8.454511999999999
 20
65.345124
 30
0.0
 11
8.654511999999998
 21
65.345124
 31
0.0
  0
LINE
  5
C9
330
1F
100
AcDbEntity
  8
Trimetric
  6
Continuous
 62
    74
370
    18
100
AcDbLine
 10
12.234776
 20
68.919196
 30
0.0
 11
12.251984
 21
68.92913199999999
 31
0.0
  0
LINE
  5
CA
330
1F
100
AcDbEntity
  8
Trimetric
  6
Continuous
 62
    74
370
    18
100
AcDbLine
 10
12.556144
 20
69.01774
 30
0.0
 11
12.549852
 21
68.92773599999999
 31
0.0
  0
LINE
  5
CB
330
1F
100
AcDbEntity
  8
Trimetric
  6
Continuous
 62
    74
370
    18
100
AcDbLine
 10
12.004216
 20
65.355124
 30
0.0
 11
12.004216
 21
65.569128
 31
0.0
  0
LINE
  5
CC
330
1F
100
AcDbEntity
  8
Trimetric
  6
Continuous
 62
    74
370
    18
100
AcDbLine
 10
7.856739999999999
 20
69.356628
 30
0.0
 11
7.856739999999999
 21
69.49946
 31
0.0
  0
LINE
  5
CD
330
1F
100
AcDbEntity
  8
Trimetric
  6
Continuous
 62
    74
370
    18
100
AcDbLine
 10
9.319511999999999
 20
65.295128
 30
0.0
 11
9.319511999999999
 21
65.564132
 31
0.0
  0
LINE
  5
CE
330
1F
100
AcDbEntity
  8
Trimetric
  6
Continuous
 62
    74
370
    18
100
AcDbLine
 10
8.984511999999998
 20
65.345124
 30
0.0
 11
9.184511999999999
 21
65.345124
 31
0.0
  0
LINE
  5
CF
330
1F
100
AcDbEntity
  8
Trimetric
  6
Continuous
 62
    74
370
    18
100
AcDbLine
 10
12.214216
 20
65.220124
 30
0.0
 11
11.669216
 21
65.220124
 31
0.0
  0
LINE
  5
D0
330
1F
100
AcDbEntity
  8
Trimetric
  6
Continuous
 62
    74
370
    18
100
AcDbLine
 10
8.109511999999998
 20
65.345124
 30
0.0
 11
8.309511999999999
 21
65.345124
 31
0.0
  0
LINE
  5
D1
330
1F
100
AcDbEntity
  8
Trimetric
  6
Continuous
 62
    74
370
    18
100
AcDbLine
 10
8.319511999999999
 20
65.355124
 30
0.0
 11
8.319511999999999
 21
65.569128
 31
0.0
  0
LINE
  5
D2
330
1F
100
AcDbEntity
  8
Trimetric
  6
Continuous
 62
    74
370
    18
100
AcDbLine
 10
12.336984
 20
69.184128
 30
0.0
 11
12.336984
 21
69.356628
 31
0.0
  0
LINE
  5
D3
330
1F
100
AcDbEntity
  8
Trimetric
  6
Continuous
 62
    74
370
    18
100
AcDbLine
 10
7.793824
 20
68.90912800000001
 30
0.0
 11
8.028216
 21
68.90912800000001
 31
0.0
  0
LINE
  5
D4
330
1F
100
AcDbEntity
  8
Trimetric
  6
Continuous
 62
    74
370
    18
100
AcDbLine
 10
12.014216
 20
65.579132
 30
0.0
 11
12.091308
 21
65.579132
 31
0.0
  0
LINE
  5
D5
330
1F
100
AcDbEntity
  8
Trimetric
  6
Continuous
 62
    74
370
    18
100
AcDbLine
 10
11.879216
 20
65.355124
 30
0.0
 11
11.879216
 21
65.569128
 31
0.0
  0
LINE
  5
D6
330
1F
100
AcDbEntity
  8
Trimetric
  6
Continuous
 62
    74
370
    18
100
AcDbLine
 10
8.111739999999999
 20
69.104124
 30
0.0
 11
8.111739999999999
 21
69.356628
 31
0.0
  0
LINE
  5
D7
330
1F
100
AcDbEntity
  8
Trimetric
  6
Continuous
 62
    74
370
    18
100
AcDbLine
 10
8.669511999999999
 20
65.235124
 30
0.0
 11
8.669511999999999
 21
65.330124
 31
0.0
  0
LINE
  5
D8
330
1F
100
AcDbEntity
  8
Trimetric
  6
Continuous
 62
    74
370
    18
100
AcDbLine
 10
11.339216
 20
65.220124
 30
0.0
 11
11.079216
 21
65.220124
 31
0.0
  0
LINE
  5
D9
330
1F
100
AcDbEntity
  8
Trimetric
  6
Continuous
 62
    74
370
    18
100
AcDbLine
 10
7.781916
 20
68.812736
 30
0.0
 11
7.983028
 21
65.936692
 31
0.0
  0
LINE
  5
DA
330
1F
100
AcDbEntity
  8
Trimetric
  6
Continuous
 62
    74
370
    18
100
AcDbLine
 10
12.211984
 20
69.104124
 30
0.0
 11
12.211984
 21
69.356628
 31
0.0
  0
LINE
  5
DB
330
1F
100
AcDbEntity
  8
Trimetric
  6
Continuous
 62
    74
370
    18
100
AcDbLine
 10
12.214216
 20
65.345124
 30
0.0
 11
12.014216
 21
65.345124
 31
0.0
  0
LINE
  5
DC
330
1F
100
AcDbEntity
  8
Trimetric
  6
Continuous
 62
    74
370
    18
100
AcDbLine
 10
12.291984
 20
68.92913199999999
 30
0.0
 11
12.251984
 21
68.92913199999999
 31
0.0
  0
LINE
  5
DD
330
1F
100
AcDbEntity
  8
Trimetric
  6
Continuous
 62
    74
370
    18
100
AcDbLine
 10
8.028216
 20
68.90912800000001
 30
0.0
 11
8.031739999999999
 21
68.92913199999999
 31
0.0
  0
LINE
  5
DE
330
1F
100
AcDbEntity
  8
Trimetric
  6
Continuous
 62
    74
370
    18
100
AcDbLine
 10
12.466984
 20
69.356628
 30
0.0
 11
12.466984
 21
69.49946
 31
0.0
  0
LINE
  5
DF
330
1F
100
AcDbEntity
  8
Trimetric
  6
Continuous
 62
    74
370
    18
100
AcDbLine
 10
8.232419999999999
 20
65.704132
 30
0.0
 11
12.091308
 21
65.704132
 31
0.0
  0
LINE
  5
E0
330
1F
100
AcDbEntity
  8
Trimetric
  6
Continuous
 62
    74
370
    18
100
AcDbLine
 10
12.52186
 20
68.83412800000001
 30
0.0
 11
12.257572
 21
68.83412800000001
 31
0.0
  0
LINE
  5
E1
330
1F
100
AcDbEntity
  8
Trimetric
  6
Continuous
 62
    74
370
    18
100
AcDbLine
 10
11.869216
 20
65.579132
 30
0.0
 11
11.139216
 21
65.579132
 31
0.0
  0
LINE
  5
E2
330
1F
100
AcDbEntity
  8
Trimetric
  6
Continuous
 62
    74
370
    18
100
AcDbLine
 10
11.354212
 20
65.235124
 30
0.0
 11
11.354212
 21
65.330124
 31
0.0
  0
LINE
  5
E3
330
1F
100
AcDbEntity
  8
Trimetric
  6
Continuous
 62
    74
370
    18
100
AcDbLine
 10
8.984511999999998
 20
65.220124
 30
0.0
 11
9.244512
 21
65.220124
 31
0.0
  0
LINE
  5
E4
330
1F
100
AcDbEntity
  8
Trimetric
  6
Continuous
 62
    74
370
    18
100
AcDbLine
 10
9.194511999999999
 20
65.355124
 30
0.0
 11
9.194511999999999
 21
65.569128
 31
0.0
  0
LINE
  5
E5
330
1F
100
AcDbEntity
  8
Trimetric
  6
Continuous
 62
    74
370
    18
100
AcDbLine
 10
12.591984
 20
69.356628
 30
0.0
 11
12.591984
 21
69.538696
 31
0.0
  0
LINE
  5
E6
330
1F
100
AcDbEntity
  8
Trimetric
  6
Continuous
 62
    74
370
    18
100
AcDbLine
 10
7.731739999999999
 20
69.356628
 30
0.0
 11
7.731739999999999
 21
69.538696
 31
0.0
  0
LINE
  5
E7
330
1F
100
AcDbEntity
  8
Trimetric
  6
Continuous
 62
    74
370
    18
100
AcDbLine
 10
8.109511999999998
 20
65.220124
 30
0.0
 11
8.654511999999998
 21
65.220124
 31
0.0
  0
LINE
  5
E8
330
1F
100
AcDbEntity
  8
Trimetric
  6
Continuous
 62
    74
370
    18
100
AcDbLine
 10
11.004216
 20
65.295128
 30
0.0
 11
11.004216
 21
65.564132
 31
0.0
  0
LINE
  5
E9
330
1F
100
AcDbEntity
  8
Trimetric
  6
Continuous
 62
    74
370
    18
100
AcDbLine
 10
8.088948
 20
68.919196
 30
0.0
 11
8.07174
 21
68.92913199999999
 31
0.0
  0
LINE
  5
EA
330
1F
100
AcDbEntity
  8
Trimetric
  6
Continuous
 62
    74
370
    18
100
AcDbLine
 10
11.869216
 20
65.345124
 30
0.0
 11
11.669216
 21
65.345124
 31
0.0
  0
LINE
  5
EB
330
1F
100
AcDbEntity
  8
Trimetric
  6
Continuous
 62
    74
370
    18
100
AcDbLine
 10
12.686824
 20
69.094588
 30
0.0
 11
12.465392
 21
65.92797199999999
 31
0.0
  0
LINE
  5
EC
330
1F
100
AcDbEntity
  8
Trimetric
  6
Continuous
 62
    74
370
    18
100
AcDbLine
 10
12.229212
 20
65.235124
 30
0.0
 11
12.229212
 21
65.330124
 31
0.0
  0
LINE
  5
ED
330
1F
100
AcDbEntity
  8
Trimetric
  6
Continuous
 62
     2
370
    18
100
AcDbLine
 10
103.23748
 20
69.164132
 30
0.0
 11
24.497316
 21
69.164132
 31
0.0
  0
LINE
  5
EE
330
1F
100
AcDbEntity
  8
Trimetric
  6
Continuous
 62
     2
370
    18
100
AcDbLine
 10
103.23748
 20
65.92797199999999
 30
0.0
 11
103.23748
 21
69.094588
 31
0.0
  0
LINE
  5
EF
330
1F
100
AcDbEntity
  8
Trimetric
  6
Continuous
 62
     2
370
    18
100
AcDbLine
 10
24.497316
 20
65.92797199999999
 30
0.0
 11
24.497316
 21
69.094588
 31
0.0
  0
LINE
  5
F0
330
1F
100
AcDbEntity
  8
Trimetric
  6
Continuous
 62
     2
370
    18
100
AcDbLine
 10
103.23748
 20
69.663696
 30
0.0
 11
24.497316
 21
69.663696
 31
0.0
  0
LINE
  5
F1
330
1F
100
AcDbEntity
  8
Trimetric
  6
Continuous
 62
     2
370
    18
100
AcDbLine
 10
103.23748
 20
69.356628
 30
0.0
 11
103.23748
 21
69.538696
 31
0.0
  0
LINE
  5
F2
330
1F
100
AcDbEntity
  8
Trimetric
  6
Continuous
 62
     2
370
    18
100
AcDbLine
 10
24.497316
 20
69.356628
 30
0.0
 11
24.497316
 21
69.538696
 31
0.0
  0
LINE
  5
F3
330
1F
100
AcDbEntity
  8
Trimetric
  6
Continuous
 62
     2
370
    18
100
AcDbLine
 10
24.497316
 20
69.294128
 30
0.0
 11
103.23748
 21
69.294128
 31
0.0
  0
LINE
  5
F4
330
1F
100
AcDbEntity
  8
Trimetric
  6
Continuous
 62
     2
370
    18
100
AcDbLine
 10
103.23748
 20
65.579132
 30
0.0
 11
24.497316
 21
65.579132
 31
0.0
  0
LINE
  5
F5
330
1F
100
AcDbEntity
  8
Trimetric
  6
Continuous
 62
     2
370
    18
100
AcDbLine
 10
103.23748
 20
69.184128
 30
0.0
 11
103.23748
 21
69.294128
 31
0.0
  0
LINE
  5
F6
330
1F
100
AcDbEntity
  8
Trimetric
  6
Continuous
 62
     2
370
    18
100
AcDbLine
 10
24.497316
 20
69.184128
 30
0.0
 11
24.497316
 21
69.294128
 31
0.0
  0
LINE
  5
F7
330
1F
100
AcDbEntity
  8
Trimetric
  6
Continuous
 62
     2
370
    18
100
AcDbLine
 10
103.23748
 20
65.345124
 30
0.0
 11
24.497316
 21
65.345124
 31
0.0
  0
LINE
  5
F8
330
1F
100
AcDbEntity
  8
Trimetric
  6
Continuous
 62
     2
370
    18
100
AcDbLine
 10
103.23748
 20
65.220124
 30
0.0
 11
24.497316
 21
65.220124
 31
0.0
  0
LINE
  5
F9
330
1F
100
AcDbEntity
  8
Trimetric
  6
Continuous
 62
     2
370
    18
100
AcDbLine
 10
103.23748
 20
65.235124
 30
0.0
 11
103.23748
 21
65.330124
 31
0.0
  0
LINE
  5
FA
330
1F
100
AcDbEntity
  8
Trimetric
  6
Continuous
 62
     2
370
    18
100
AcDbLine
 10
24.497316
 20
65.235124
 30
0.0
 11
24.497316
 21
65.330124
 31
0.0
  0
LINE
  5
FB
330
1F
100
AcDbEntity
  8
Trimetric
  6
Continuous
 62
     2
370
    18
100
AcDbLine
 10
103.23748
 20
65.355124
 30
0.0
 11
103.23748
 21
65.569128
 31
0.0
  0
LINE
  5
FC
330
1F
100
AcDbEntity
  8
Trimetric
  6
Continuous
 62
     2
370
    18
100
AcDbLine
 10
24.497316
 20
65.355124
 30
0.0
 11
24.497316
 21
65.569128
 31
0.0
  0
LINE
  5
FD
330
1F
100
AcDbEntity
  8
Trimetric
  6
Continuous
 62
    74
370
    18
100
AcDbLine
 10
24.497316
 20
65.355124
 30
0.0
 11
24.497316
 21
65.569128
 31
0.0
  0
LINE
  5
FE
330
1F
100
AcDbEntity
  8
Trimetric
  6
Continuous
 62
    74
370
    18
100
AcDbLine
 10
24.497316
 20
69.184128
 30
0.0
 11
24.497316
 21
69.294128
 31
0.0
  0
LINE
  5
FF
330
1F
100
AcDbEntity
  8
Trimetric
  6
Continuous
 62
    74
370
    18
100
AcDbLine
 10
24.497316
 20
69.356628
 30
0.0
 11
24.497316
 21
69.538696
 31
0.0
  0
LINE
  5
100
330
1F
100
AcDbEntity
  8
Trimetric
  6
Continuous
 62
    74
370
    18
100
AcDbLine
 10
24.497316
 20
69.094588
 30
0.0
 11
24.497316
 21
65.92797199999999
 31
0.0
  0
LINE
  5
101
330
1F
100
AcDbEntity
  8
Trimetric
  6
Continuous
 62
    74
370
    18
100
AcDbLine
 10
24.497316
 20
65.235124
 30
0.0
 11
24.497316
 21
65.330124
 31
0.0
  0
LINE
  5
102
330
1F
100
AcDbEntity
  8
Trimetric
  6
Continuous
 62
     2
370
    18
100
AcDbLine
 10
119.880616
 20
69.164132
 30
0.0
 11
120.145616
 21
69.164132
 31
0.0
  0
LINE
  5
103
330
1F
100
AcDbEntity
  8
Trimetric
  6
Continuous
 62
     2
370
    18
100
AcDbLine
 10
119.86062
 20
69.356628
 30
0.0
 11
119.86062
 21
69.184128
 31
0.0
  0
LINE
  5
104
330
1F
100
AcDbEntity
  8
Trimetric
  6
Continuous
 62
     2
370
    18
100
AcDbLine
 10
119.990616
 20
69.356628
 30
0.0
 11
119.990616
 21
69.49946
 31
0.0
  0
LINE
  5
105
330
1F
100
AcDbEntity
  8
Trimetric
  6
Continuous
 62
     2
370
    18
100
AcDbLine
 10
120.115616
 20
69.538696
 30
0.0
 11
120.115616
 21
69.356628
 31
0.0
  0
LINE
  5
106
330
1F
100
AcDbEntity
  8
Trimetric
  6
Continuous
 62
     2
370
    18
100
AcDbLine
 10
119.73562
 20
69.104124
 30
0.0
 11
119.73562
 21
69.356628
 31
0.0
  0
LINE
  5
107
330
1F
100
AcDbEntity
  8
Trimetric
  6
Continuous
 62
     2
370
    18
100
AcDbLine
 10
120.059824
 20
69.03913199999999
 30
0.0
 11
119.800612
 21
69.03913199999999
 31
0.0
  0
LINE
  5
108
330
1F
100
AcDbEntity
  8
Trimetric
  6
Continuous
 62
     2
370
    18
100
AcDbLine
 10
120.07348
 20
68.92773599999999
 30
0.0
 11
120.07978
 21
69.01774
 31
0.0
  0
LINE
  5
109
330
1F
100
AcDbEntity
  8
Trimetric
  6
Continuous
 62
     2
370
    18
100
AcDbLine
 10
119.819144
 20
68.90912800000001
 30
0.0
 11
120.053528
 21
68.90912800000001
 31
0.0
  0
LINE
  5
10A
330
1F
100
AcDbEntity
  8
Trimetric
  6
Continuous
 62
     2
370
    18
100
AcDbLine
 10
119.815612
 20
68.92913199999999
 30
0.0
 11
119.819144
 21
68.90912800000001
 31
0.0
  0
LINE
  5
10B
330
1F
100
AcDbEntity
  8
Trimetric
  6
Continuous
 62
     2
370
    18
100
AcDbLine
 10
119.775612
 20
68.92913199999999
 30
0.0
 11
119.815612
 21
68.92913199999999
 31
0.0
  0
LINE
  5
10C
330
1F
100
AcDbEntity
  8
Trimetric
  6
Continuous
 62
     2
370
    18
100
AcDbLine
 10
119.758416
 20
68.919196
 30
0.0
 11
119.775612
 21
68.92913199999999
 31
0.0
  0
LINE
  5
10D
330
1F
100
AcDbEntity
  8
Trimetric
  6
Continuous
 62
     2
370
    18
100
AcDbLine
 10
120.045496
 20
68.83412800000001
 30
0.0
 11
119.781204
 21
68.83412800000001
 31
0.0
  0
LINE
  5
10E
330
1F
100
AcDbEntity
  8
Trimetric
  6
Continuous
 62
     2
370
    18
100
AcDbLine
 10
119.864328
 20
65.936692
 30
0.0
 11
120.065444
 21
68.812736
 31
0.0
  0
LINE
  5
10F
330
1F
100
AcDbEntity
  8
Trimetric
  6
Continuous
 62
     2
370
    18
100
AcDbLine
 10
115.756044
 20
65.704132
 30
0.0
 11
119.614936
 21
65.704132
 31
0.0
  0
LINE
  5
110
330
1F
100
AcDbEntity
  8
Trimetric
  6
Continuous
 62
     2
370
    18
100
AcDbLine
 10
115.305548
 20
68.812736
 30
0.0
 11
115.506652
 21
65.936692
 31
0.0
  0
LINE
  5
111
330
1F
100
AcDbEntity
  8
Trimetric
  6
Continuous
 62
     2
370
    18
100
AcDbLine
 10
115.589784
 20
68.83412800000001
 30
0.0
 11
115.3255
 21
68.83412800000001
 31
0.0
  0
LINE
  5
112
330
1F
100
AcDbEntity
  8
Trimetric
  6
Continuous
 62
     2
370
    18
100
AcDbLine
 10
115.595368
 20
68.92913199999999
 30
0.0
 11
115.61258
 21
68.919196
 31
0.0
  0
LINE
  5
113
330
1F
100
AcDbEntity
  8
Trimetric
  6
Continuous
 62
     2
370
    18
100
AcDbLine
 10
115.555368
 20
68.92913199999999
 30
0.0
 11
115.595368
 21
68.92913199999999
 31
0.0
  0
LINE
  5
114
330
1F
100
AcDbEntity
  8
Trimetric
  6
Continuous
 62
     2
370
    18
100
AcDbLine
 10
115.551848
 20
68.90912800000001
 30
0.0
 11
115.555368
 21
68.92913199999999
 31
0.0
  0
LINE
  5
115
330
1F
100
AcDbEntity
  8
Trimetric
  6
Continuous
 62
     2
370
    18
100
AcDbLine
 10
115.317452
 20
68.90912800000001
 30
0.0
 11
115.551848
 21
68.90912800000001
 31
0.0
  0
LINE
  5
116
330
1F
100
AcDbEntity
  8
Trimetric
  6
Continuous
 62
     2
370
    18
100
AcDbLine
 10
115.291212
 20
69.01774
 30
0.0
 11
115.2975
 21
68.92773599999999
 31
0.0
  0
LINE
  5
117
330
1F
100
AcDbEntity
  8
Trimetric
  6
Continuous
 62
     2
370
    18
100
AcDbLine
 10
115.570364
 20
69.03913199999999
 30
0.0
 11
115.311164
 21
69.03913199999999
 31
0.0
  0
LINE
  5
118
330
1F
100
AcDbEntity
  8
Trimetric
  6
Continuous
 62
     2
370
    18
100
AcDbLine
 10
115.635368
 20
69.356628
 30
0.0
 11
115.635368
 21
69.104124
 31
0.0
  0
LINE
  5
119
330
1F
100
AcDbEntity
  8
Trimetric
  6
Continuous
 62
     2
370
    18
100
AcDbLine
 10
115.255372
 20
69.356628
 30
0.0
 11
115.255372
 21
69.538696
 31
0.0
  0
LINE
  5
11A
330
1F
100
AcDbEntity
  8
Trimetric
  6
Continuous
 62
     2
370
    18
100
AcDbLine
 10
115.380372
 20
69.49946
 30
0.0
 11
115.380372
 21
69.356628
 31
0.0
  0
LINE
  5
11B
330
1F
100
AcDbEntity
  8
Trimetric
  6
Continuous
 62
     2
370
    18
100
AcDbLine
 10
115.510368
 20
69.184128
 30
0.0
 11
115.510368
 21
69.356628
 31
0.0
  0
LINE
  5
11C
330
1F
100
AcDbEntity
  8
Trimetric
  6
Continuous
 62
     2
370
    18
100
AcDbLine
 10
115.225364
 20
69.164132
 30
0.0
 11
115.490364
 21
69.164132
 31
0.0
  0
LINE
  5
11D
330
1F
100
AcDbEntity
  8
Trimetric
  6
Continuous
 62
     2
370
    18
100
AcDbLine
 10
115.381964
 20
65.92797199999999
 30
0.0
 11
115.160536
 21
69.094588
 31
0.0
  0
LINE
  5
11E
330
1F
100
AcDbEntity
  8
Trimetric
  6
Continuous
 62
     2
370
    18
100
AcDbLine
 10
115.833136
 20
65.579132
 30
0.0
 11
115.756044
 21
65.579132
 31
0.0
  0
LINE
  5
11F
330
1F
100
AcDbEntity
  8
Trimetric
  6
Continuous
 62
     2
370
    18
100
AcDbLine
 10
115.84314
 20
65.355124
 30
0.0
 11
115.84314
 21
65.569128
 31
0.0
  0
LINE
  5
120
330
1F
100
AcDbEntity
  8
Trimetric
  6
Continuous
 62
     2
370
    18
100
AcDbLine
 10
115.63314
 20
65.345124
 30
0.0
 11
115.833136
 21
65.345124
 31
0.0
  0
LINE
  5
121
330
1F
100
AcDbEntity
  8
Trimetric
  6
Continuous
 62
     2
370
    18
100
AcDbLine
 10
115.61814
 20
65.235124
 30
0.0
 11
115.61814
 21
65.330124
 31
0.0
  0
LINE
  5
122
330
1F
100
AcDbEntity
  8
Trimetric
  6
Continuous
 62
     2
370
    18
100
AcDbLine
 10
116.17814
 20
65.220124
 30
0.0
 11
115.63314
 21
65.220124
 31
0.0
  0
LINE
  5
123
330
1F
100
AcDbEntity
  8
Trimetric
  6
Continuous
 62
     2
370
    18
100
AcDbLine
 10
116.19314
 20
65.330124
 30
0.0
 11
116.19314
 21
65.235124
 31
0.0
  0
LINE
  5
124
330
1F
100
AcDbEntity
  8
Trimetric
  6
Continuous
 62
     2
370
    18
100
AcDbLine
 10
115.97814
 20
65.345124
 30
0.0
 11
116.17814
 21
65.345124
 31
0.0
  0
LINE
  5
125
330
1F
100
AcDbEntity
  8
Trimetric
  6
Continuous
 62
     2
370
    18
100
AcDbLine
 10
115.96814
 20
65.569128
 30
0.0
 11
115.96814
 21
65.355124
 31
0.0
  0
LINE
  5
126
330
1F
100
AcDbEntity
  8
Trimetric
  6
Continuous
 62
     2
370
    18
100
AcDbLine
 10
116.708136
 20
65.579132
 30
0.0
 11
115.97814
 21
65.579132
 31
0.0
  0
LINE
  5
127
330
1F
100
AcDbEntity
  8
Trimetric
  6
Continuous
 62
     2
370
    18
100
AcDbLine
 10
116.71814
 20
65.355124
 30
0.0
 11
116.71814
 21
65.569128
 31
0.0
  0
LINE
  5
128
330
1F
100
AcDbEntity
  8
Trimetric
  6
Continuous
 62
     2
370
    18
100
AcDbLine
 10
116.50814
 20
65.345124
 30
0.0
 11
116.708136
 21
65.345124
 31
0.0
  0
LINE
  5
129
330
1F
100
AcDbEntity
  8
Trimetric
  6
Continuous
 62
     2
370
    18
100
AcDbLine
 10
116.49314
 20
65.235124
 30
0.0
 11
116.49314
 21
65.330124
 31
0.0
  0
LINE
  5
12A
330
1F
100
AcDbEntity
  8
Trimetric
  6
Continuous
 62
     2
370
    18
100
AcDbLine
 10
116.768144
 20
65.220124
 30
0.0
 11
116.50814
 21
65.220124
 31
0.0
  0
LINE
  5
12B
330
1F
100
AcDbEntity
  8
Trimetric
  6
Continuous
 62
     2
370
    18
100
AcDbLine
 10
116.84314
 20
65.564132
 30
0.0
 11
116.84314
 21
65.295128
 31
0.0
  0
LINE
  5
12C
330
1F
100
AcDbEntity
  8
Trimetric
  6
Continuous
 62
     2
370
    18
100
AcDbLine
 10
118.51284
 20
65.579132
 30
0.0
 11
116.85814
 21
65.579132
 31
0.0
  0
LINE
  5
12D
330
1F
100
AcDbEntity
  8
Trimetric
  6
Continuous
 62
     2
370
    18
100
AcDbLine
 10
118.52784
 20
65.295128
 30
0.0
 11
118.52784
 21
65.564132
 31
0.0
  0
LINE
  5
12E
330
1F
100
AcDbEntity
  8
Trimetric
  6
Continuous
 62
     2
370
    18
100
AcDbLine
 10
118.86284
 20
65.220124
 30
0.0
 11
118.602844
 21
65.220124
 31
0.0
  0
LINE
  5
12F
330
1F
100
AcDbEntity
  8
Trimetric
  6
Continuous
 62
     2
370
    18
100
AcDbLine
 10
118.87784
 20
65.330124
 30
0.0
 11
118.87784
 21
65.235124
 31
0.0
  0
LINE
  5
130
330
1F
100
AcDbEntity
  8
Trimetric
  6
Continuous
 62
     2
370
    18
100
AcDbLine
 10
118.66284
 20
65.345124
 30
0.0
 11
118.86284
 21
65.345124
 31
0.0
  0
LINE
  5
131
330
1F
100
AcDbEntity
  8
Trimetric
  6
Continuous
 62
     2
370
    18
100
AcDbLine
 10
118.65284
 20
65.569128
 30
0.0
 11
118.65284
 21
65.355124
 31
0.0
  0
LINE
  5
132
330
1F
100
AcDbEntity
  8
Trimetric
  6
Continuous
 62
     2
370
    18
100
AcDbLine
 10
119.392844
 20
65.579132
 30
0.0
 11
118.66284
 21
65.579132
 31
0.0
  0
LINE
  5
133
330
1F
100
AcDbEntity
  8
Trimetric
  6
Continuous
 62
     2
370
    18
100
AcDbLine
 10
119.40284
 20
65.355124
 30
0.0
 11
119.40284
 21
65.569128
 31
0.0
  0
LINE
  5
134
330
1F
100
AcDbEntity
  8
Trimetric
  6
Continuous
 62
     2
370
    18
100
AcDbLine
 10
119.19284
 20
65.345124
 30
0.0
 11
119.392844
 21
65.345124
 31
0.0
  0
LINE
  5
135
330
1F
100
AcDbEntity
  8
Trimetric
  6
Continuous
 62
     2
370
    18
100
AcDbLine
 10
119.17784
 20
65.235124
 30
0.0
 11
119.17784
 21
65.330124
 31
0.0
  0
LINE
  5
136
330
1F
100
AcDbEntity
  8
Trimetric
  6
Continuous
 62
     2
370
    18
100
AcDbLine
 10
119.73784
 20
65.220124
 30
0.0
 11
119.19284
 21
65.220124
 31
0.0
  0
LINE
  5
137
330
1F
100
AcDbEntity
  8
Trimetric
  6
Continuous
 62
     2
370
    18
100
AcDbLine
 10
119.75284
 20
65.330124
 30
0.0
 11
119.75284
 21
65.235124
 31
0.0
  0
LINE
  5
138
330
1F
100
AcDbEntity
  8
Trimetric
  6
Continuous
 62
     2
370
    18
100
AcDbLine
 10
119.53784
 20
65.345124
 30
0.0
 11
119.73784
 21
65.345124
 31
0.0
  0
LINE
  5
139
330
1F
100
AcDbEntity
  8
Trimetric
  6
Continuous
 62
     2
370
    18
100
AcDbLine
 10
119.52784
 20
65.569128
 30
0.0
 11
119.52784
 21
65.355124
 31
0.0
  0
LINE
  5
13A
330
1F
100
AcDbEntity
  8
Trimetric
  6
Continuous
 62
     2
370
    18
100
AcDbLine
 10
119.614936
 20
65.579132
 30
0.0
 11
119.53784
 21
65.579132
 31
0.0
  0
LINE
  5
13B
330
1F
100
AcDbEntity
  8
Trimetric
  6
Continuous
 62
     2
370
    18
100
AcDbLine
 10
120.210456
 20
69.094588
 30
0.0
 11
119.989028
 21
65.92797199999999
 31
0.0
  0
LINE
  5
13C
330
1F
100
AcDbEntity
  8
Trimetric
  6
Continuous
 62
     2
370
    18
100
AcDbLine
 10
102.267624
 20
90.26876800000001
 30
0.0
 11
23.527464
 21
90.26876800000001
 31
0.0
  0
LINE
  5
13D
330
1F
100
AcDbEntity
  8
Trimetric
  6
Continuous
 62
     2
370
    18
100
AcDbLine
 10
102.267624
 20
95.12901199999999
 30
0.0
 11
23.527464
 21
95.12901199999999
 31
0.0
  0
LINE
  5
13E
330
1F
100
AcDbEntity
  8
Trimetric
  6
Continuous
 62
     2
370
    18
100
AcDbLine
 10
102.267624
 20
90.64876400000001
 30
0.0
 11
23.527464
 21
90.64876400000001
 31
0.0
  0
LINE
  5
13F
330
1F
100
AcDbEntity
  8
Trimetric
  6
Continuous
 62
     2
370
    18
100
AcDbLine
 10
102.267624
 20
94.749016
 30
0.0
 11
23.527464
 21
94.749016
 31
0.0
  0
LINE
  5
140
330
1F
100
AcDbEntity
  8
Trimetric
  6
Continuous
 62
     2
370
    18
100
AcDbLine
 10
102.267624
 20
90.23875999999999
 30
0.0
 11
102.267624
 21
90.26876800000001
 31
0.0
  0
LINE
  5
141
330
1F
100
AcDbEntity
  8
Trimetric
  6
Continuous
 62
     2
370
    18
100
AcDbLine
 10
23.527464
 20
90.23875999999999
 30
0.0
 11
23.527464
 21
90.26876800000001
 31
0.0
  0
LINE
  5
142
330
1F
100
AcDbEntity
  8
Trimetric
  6
Continuous
 62
     2
370
    18
100
AcDbLine
 10
23.527464
 20
90.173768
 30
0.0
 11
102.267624
 21
90.173768
 31
0.0
  0
LINE
  5
143
330
1F
100
AcDbEntity
  8
Trimetric
  6
Continuous
 62
     2
370
    18
100
AcDbLine
 10
102.267624
 20
95.12900400000001
 30
0.0
 11
102.267624
 21
95.159012
 31
0.0
  0
LINE
  5
144
330
1F
100
AcDbEntity
  8
Trimetric
  6
Continuous
 62
     2
370
    18
100
AcDbLine
 10
23.527464
 20
95.12900400000001
 30
0.0
 11
23.527464
 21
95.159012
 31
0.0
  0
LINE
  5
145
330
1F
100
AcDbEntity
  8
Trimetric
  6
Continuous
 62
     2
370
    18
100
AcDbLine
 10
102.267624
 20
95.224016
 30
0.0
 11
23.527464
 21
95.224016
 31
0.0
  0
LINE
  5
146
330
1F
100
AcDbEntity
  8
Trimetric
  6
Continuous
 62
     2
370
    18
100
AcDbLine
 10
102.267624
 20
90.76944000000001
 30
0.0
 11
102.267624
 21
94.62833600000001
 31
0.0
  0
LINE
  5
147
330
1F
100
AcDbEntity
  8
Trimetric
  6
Continuous
 62
     2
370
    18
100
AcDbLine
 10
23.527464
 20
90.76944000000001
 30
0.0
 11
23.527464
 21
94.62833600000001
 31
0.0
  0
LINE
  5
148
330
1F
100
AcDbEntity
  8
Trimetric
  6
Continuous
 62
    74
370
    18
100
AcDbLine
 10
23.527464
 20
90.23875999999999
 30
0.0
 11
23.527464
 21
90.26876800000001
 31
0.0
  0
LINE
  5
149
330
1F
100
AcDbEntity
  8
Trimetric
  6
Continuous
 62
    74
370
    18
100
AcDbLine
 10
23.527464
 20
95.159012
 30
0.0
 11
23.527464
 21
95.12900400000001
 31
0.0
  0
LINE
  5
14A
330
1F
100
AcDbEntity
  8
Trimetric
  6
Continuous
 62
    74
370
    18
100
AcDbLine
 10
23.527464
 20
94.62833600000001
 30
0.0
 11
23.527464
 21
90.76944000000001
 31
0.0
  0
LINE
  5
14B
330
1F
100
AcDbEntity
  8
Trimetric
  6
Continuous
 62
     2
370
    18
100
AcDbLine
 10
102.267624
 20
45.04865999999999
 30
0.0
 11
23.527464
 21
45.04865999999999
 31
0.0
  0
LINE
  5
14C
330
1F
100
AcDbEntity
  8
Trimetric
  6
Continuous
 62
     2
370
    18
100
AcDbLine
 10
102.267624
 20
45.12366
 30
0.0
 11
102.267624
 21
45.38365999999999
 31
0.0
  0
LINE
  5
14D
330
1F
100
AcDbEntity
  8
Trimetric
  6
Continuous
 62
     2
370
    18
100
AcDbLine
 10
23.527464
 20
45.12366
 30
0.0
 11
23.527464
 21
45.38365999999999
 31
0.0
  0
LINE
  5
14E
330
1F
100
AcDbEntity
  8
Trimetric
  6
Continuous
 62
     2
370
    18
100
AcDbLine
 10
102.267624
 20
45.71366
 30
0.0
 11
102.267624
 21
46.25866
 31
0.0
  0
LINE
  5
14F
330
1F
100
AcDbEntity
  8
Trimetric
  6
Continuous
 62
     2
370
    18
100
AcDbLine
 10
23.527464
 20
45.71366
 30
0.0
 11
23.527464
 21
46.25866
 31
0.0
  0
LINE
  5
150
330
1F
100
AcDbEntity
  8
Trimetric
  6
Continuous
 62
     2
370
    18
100
AcDbLine
 10
102.267624
 20
46.27366
 30
0.0
 11
23.527464
 21
46.27366
 31
0.0
  0
LINE
  5
151
330
1F
100
AcDbEntity
  8
Trimetric
  6
Continuous
 62
     2
370
    18
100
AcDbLine
 10
102.267624
 20
43.013956
 30
0.0
 11
23.527464
 21
43.013956
 31
0.0
  0
LINE
  5
152
330
1F
100
AcDbEntity
  8
Trimetric
  6
Continuous
 62
     2
370
    18
100
AcDbLine
 10
102.267624
 20
45.39865999999999
 30
0.0
 11
23.527464
 21
45.39865999999999
 31
0.0
  0
LINE
  5
153
330
1F
100
AcDbEntity
  8
Trimetric
  6
Continuous
 62
     2
370
    18
100
AcDbLine
 10
102.267624
 20
43.028956
 30
0.0
 11
102.267624
 21
43.288956
 31
0.0
  0
LINE
  5
154
330
1F
100
AcDbEntity
  8
Trimetric
  6
Continuous
 62
     2
370
    18
100
AcDbLine
 10
23.527464
 20
43.028956
 30
0.0
 11
23.527464
 21
43.288956
 31
0.0
  0
LINE
  5
155
330
1F
100
AcDbEntity
  8
Trimetric
  6
Continuous
 62
     2
370
    18
100
AcDbLine
 10
102.267624
 20
42.15395599999999
 30
0.0
 11
102.267624
 21
42.698956
 31
0.0
  0
LINE
  5
156
330
1F
100
AcDbEntity
  8
Trimetric
  6
Continuous
 62
     2
370
    18
100
AcDbLine
 10
23.527464
 20
42.15395599999999
 30
0.0
 11
23.527464
 21
42.698956
 31
0.0
  0
LINE
  5
157
330
1F
100
AcDbEntity
  8
Trimetric
  6
Continuous
 62
     2
370
    18
100
AcDbLine
 10
102.267624
 20
43.363956
 30
0.0
 11
23.527464
 21
43.363956
 31
0.0
  0
LINE
  5
158
330
1F
100
AcDbEntity
  8
Trimetric
  6
Continuous
 62
     2
370
    18
100
AcDbLine
 10
102.267624
 20
42.713956
 30
0.0
 11
23.527464
 21
42.713956
 31
0.0
  0
LINE
  5
159
330
1F
100
AcDbEntity
  8
Trimetric
  6
Continuous
 62
     2
370
    18
100
AcDbLine
 10
102.267624
 20
42.13895599999999
 30
0.0
 11
23.527464
 21
42.13895599999999
 31
0.0
  0
LINE
  5
15A
330
1F
100
AcDbEntity
  8
Trimetric
  6
Continuous
 62
     2
370
    18
100
AcDbLine
 10
102.267624
 20
45.69866
 30
0.0
 11
23.527464
 21
45.69866
 31
0.0
  0
LINE
  5
15B
330
1F
100
AcDbEntity
  8
Trimetric
  6
Continuous
 62
     2
370
    18
100
AcDbLine
 10
102.267624
 20
43.378956
 30
0.0
 11
102.267624
 21
45.03365999999999
 31
0.0
  0
LINE
  5
15C
330
1F
100
AcDbEntity
  8
Trimetric
  6
Continuous
 62
     2
370
    18
100
AcDbLine
 10
23.527464
 20
43.378956
 30
0.0
 11
23.527464
 21
45.03365999999999
 31
0.0
  0
LINE
  5
15D
330
1F
100
AcDbEntity
  8
Trimetric
  6
Continuous
 62
     2
370
    18
100
AcDbLine
 10
102.267624
 20
45.39867199999999
 30
0.0
 11
102.267624
 21
45.69865599999999
 31
0.0
  0
LINE
  5
15E
330
1F
100
AcDbEntity
  8
Trimetric
  6
Continuous
 62
     2
370
    18
100
AcDbLine
 10
23.527464
 20
45.39867199999999
 30
0.0
 11
23.527464
 21
45.69865599999999
 31
0.0
  0
LINE
  5
15F
330
1F
100
AcDbEntity
  8
Trimetric
  6
Continuous
 62
     2
370
    18
100
AcDbLine
 10
102.267624
 20
42.713968
 30
0.0
 11
102.267624
 21
43.013952
 31
0.0
  0
LINE
  5
160
330
1F
100
AcDbEntity
  8
Trimetric
  6
Continuous
 62
     2
370
    18
100
AcDbLine
 10
23.527464
 20
42.713968
 30
0.0
 11
23.527464
 21
43.013952
 31
0.0
  0
LINE
  5
161
330
1F
100
AcDbEntity
  8
Trimetric
  6
Continuous
 62
     2
370
    18
100
AcDbLine
 10
102.267624
 20
46.50984
 30
0.0
 11
102.267624
 21
46.731268
 31
0.0
  0
LINE
  5
162
330
1F
100
AcDbEntity
  8
Trimetric
  6
Continuous
 62
     2
370
    18
100
AcDbLine
 10
23.527464
 20
46.50984
 30
0.0
 11
23.527464
 21
46.731268
 31
0.0
  0
LINE
  5
163
330
1F
100
AcDbEntity
  8
Trimetric
  6
Continuous
 62
     2
370
    18
100
AcDbLine
 10
102.267624
 20
41.68134799999999
 30
0.0
 11
102.267624
 21
41.90278
 31
0.0
  0
LINE
  5
164
330
1F
100
AcDbEntity
  8
Trimetric
  6
Continuous
 62
     2
370
    18
100
AcDbLine
 10
23.527464
 20
41.68134799999999
 30
0.0
 11
23.527464
 21
41.90278
 31
0.0
  0
LINE
  5
165
330
1F
100
AcDbEntity
  8
Trimetric
  6
Continuous
 62
     2
370
    18
100
AcDbLine
 10
102.267624
 20
46.731432
 30
0.0
 11
23.527464
 21
46.731432
 31
0.0
  0
LINE
  5
166
330
1F
100
AcDbEntity
  8
Trimetric
  6
Continuous
 62
     2
370
    18
100
AcDbLine
 10
23.527464
 20
41.68119199999999
 30
0.0
 11
102.267624
 21
41.68119199999999
 31
0.0
  0
LINE
  5
167
330
1F
100
AcDbEntity
  8
Trimetric
  6
Continuous
 62
    74
370
    18
100
AcDbLine
 10
23.527464
 20
42.713968
 30
0.0
 11
23.527464
 21
43.013952
 31
0.0
  0
LINE
  5
168
330
1F
100
AcDbEntity
  8
Trimetric
  6
Continuous
 62
    74
370
    18
100
AcDbLine
 10
23.527464
 20
43.378956
 30
0.0
 11
23.527464
 21
45.03365999999999
 31
0.0
  0
LINE
  5
169
330
1F
100
AcDbEntity
  8
Trimetric
  6
Continuous
 62
    74
370
    18
100
AcDbLine
 10
23.527464
 20
41.68134799999999
 30
0.0
 11
23.527464
 21
41.90278
 31
0.0
  0
LINE
  5
16A
330
1F
100
AcDbEntity
  8
Trimetric
  6
Continuous
 62
    74
370
    18
100
AcDbLine
 10
23.527464
 20
46.25866
 30
0.0
 11
23.527464
 21
45.71366
 31
0.0
  0
LINE
  5
16B
330
1F
100
AcDbEntity
  8
Trimetric
  6
Continuous
 62
    74
370
    18
100
AcDbLine
 10
23.527464
 20
45.38365999999999
 30
0.0
 11
23.527464
 21
45.12366
 31
0.0
  0
LINE
  5
16C
330
1F
100
AcDbEntity
  8
Trimetric
  6
Continuous
 62
    74
370
    18
100
AcDbLine
 10
23.527464
 20
45.69865599999999
 30
0.0
 11
23.527464
 21
45.39867199999999
 31
0.0
  0
LINE
  5
16D
330
1F
100
AcDbEntity
  8
Trimetric
  6
Continuous
 62
    74
370
    18
100
AcDbLine
 10
23.527464
 20
43.028956
 30
0.0
 11
23.527464
 21
43.288956
 31
0.0
  0
LINE
  5
16E
330
1F
100
AcDbEntity
  8
Trimetric
  6
Continuous
 62
    74
370
    18
100
AcDbLine
 10
23.527464
 20
42.15395599999999
 30
0.0
 11
23.527464
 21
42.698956
 31
0.0
  0
LINE
  5
16F
330
1F
100
AcDbEntity
  8
Trimetric
  6
Continuous
 62
    74
370
    18
100
AcDbLine
 10
23.527464
 20
46.731268
 30
0.0
 11
23.527464
 21
46.50984
 31
0.0
  0
LINE
  5
170
330
1F
100
AcDbEntity
  8
Trimetric
  6
Continuous
 62
     2
370
    18
100
AcDbLine
 10
132.837816
 20
69.164132
 30
0.0
 11
211.577988
 21
69.164132
 31
0.0
  0
LINE
  5
171
330
1F
100
AcDbEntity
  8
Trimetric
  6
Continuous
 62
     2
370
    18
100
AcDbLine
 10
132.837816
 20
69.094588
 30
0.0
 11
132.837816
 21
65.92797199999999
 31
0.0
  0
LINE
  5
172
330
1F
100
AcDbEntity
  8
Trimetric
  6
Continuous
 62
     2
370
    18
100
AcDbLine
 10
211.577988
 20
69.094588
 30
0.0
 11
211.577988
 21
65.92797199999999
 31
0.0
  0
LINE
  5
173
330
1F
100
AcDbEntity
  8
Trimetric
  6
Continuous
 62
     2
370
    18
100
AcDbLine
 10
132.837816
 20
69.538696
 30
0.0
 11
132.837816
 21
69.356628
 31
0.0
  0
LINE
  5
174
330
1F
100
AcDbEntity
  8
Trimetric
  6
Continuous
 62
     2
370
    18
100
AcDbLine
 10
211.577988
 20
69.538696
 30
0.0
 11
211.577988
 21
69.356628
 31
0.0
  0
LINE
  5
175
330
1F
100
AcDbEntity
  8
Trimetric
  6
Continuous
 62
     2
370
    18
100
AcDbLine
 10
211.577988
 20
69.663696
 30
0.0
 11
132.837816
 21
69.663696
 31
0.0
  0
LINE
  5
176
330
1F
100
AcDbEntity
  8
Trimetric
  6
Continuous
 62
     2
370
    18
100
AcDbLine
 10
132.837816
 20
69.294128
 30
0.0
 11
211.577988
 21
69.294128
 31
0.0
  0
LINE
  5
177
330
1F
100
AcDbEntity
  8
Trimetric
  6
Continuous
 62
     2
370
    18
100
AcDbLine
 10
132.837816
 20
65.579132
 30
0.0
 11
211.577988
 21
65.579132
 31
0.0
  0
LINE
  5
178
330
1F
100
AcDbEntity
  8
Trimetric
  6
Continuous
 62
     2
370
    18
100
AcDbLine
 10
132.837816
 20
69.294128
 30
0.0
 11
132.837816
 21
69.184128
 31
0.0
  0
LINE
  5
179
330
1F
100
AcDbEntity
  8
Trimetric
  6
Continuous
 62
     2
370
    18
100
AcDbLine
 10
211.577988
 20
69.294128
 30
0.0
 11
211.577988
 21
69.184128
 31
0.0
  0
LINE
  5
17A
330
1F
100
AcDbEntity
  8
Trimetric
  6
Continuous
 62
     2
370
    18
100
AcDbLine
 10
132.837816
 20
65.345124
 30
0.0
 11
211.577988
 21
65.345124
 31
0.0
  0
LINE
  5
17B
330
1F
100
AcDbEntity
  8
Trimetric
  6
Continuous
 62
     2
370
    18
100
AcDbLine
 10
132.837816
 20
65.220124
 30
0.0
 11
211.577988
 21
65.220124
 31
0.0
  0
LINE
  5
17C
330
1F
100
AcDbEntity
  8
Trimetric
  6
Continuous
 62
     2
370
    18
100
AcDbLine
 10
132.837816
 20
65.330124
 30
0.0
 11
132.837816
 21
65.235124
 31
0.0
  0
LINE
  5
17D
330
1F
100
AcDbEntity
  8
Trimetric
  6
Continuous
 62
     2
370
    18
100
AcDbLine
 10
211.577988
 20
65.330124
 30
0.0
 11
211.577988
 21
65.235124
 31
0.0
  0
LINE
  5
17E
330
1F
100
AcDbEntity
  8
Trimetric
  6
Continuous
 62
     2
370
    18
100
AcDbLine
 10
132.837816
 20
65.569128
 30
0.0
 11
132.837816
 21
65.355124
 31
0.0
  0
LINE
  5
17F
330
1F
100
AcDbEntity
  8
Trimetric
  6
Continuous
 62
     2
370
    18
100
AcDbLine
 10
211.577988
 20
65.569128
 30
0.0
 11
211.577988
 21
65.355124
 31
0.0
  0
LINE
  5
180
330
1F
100
AcDbEntity
  8
Trimetric
  6
Continuous
 62
    74
370
    18
100
AcDbLine
 10
211.577988
 20
65.235124
 30
0.0
 11
211.577988
 21
65.330124
 31
0.0
  0
LINE
  5
181
330
1F
100
AcDbEntity
  8
Trimetric
  6
Continuous
 62
    74
370
    18
100
AcDbLine
 10
211.577988
 20
69.184128
 30
0.0
 11
211.577988
 21
69.294128
 31
0.0
  0
LINE
  5
182
330
1F
100
AcDbEntity
  8
Trimetric
  6
Continuous
 62
    74
370
    18
100
AcDbLine
 10
211.577988
 20
69.094588
 30
0.0
 11
211.577988
 21
65.92797199999999
 31
0.0
  0
LINE
  5
183
330
1F
100
AcDbEntity
  8
Trimetric
  6
Continuous
 62
    74
370
    18
100
AcDbLine
 10
211.577988
 20
65.355124
 30
0.0
 11
211.577988
 21
65.569128
 31
0.0
  0
LINE
  5
184
330
1F
100
AcDbEntity
  8
Trimetric
  6
Continuous
 62
    74
370
    18
100
AcDbLine
 10
211.577988
 20
69.356628
 30
0.0
 11
211.577988
 21
69.538696
 31
0.0
  0
ARC
  5
185
330
1F
100
AcDbEntity
  8
Trimetric
  6
Continuous
 62
     2
370
    18
100
AcDbCircle
 10
7.966739999999999
 20
69.184128
 30
0.0
 40
0.0199999995529652
100
AcDbArc
 50
270.0
 51
0.0
  0
ARC
  5
186
330
1F
100
AcDbEntity
  8
Trimetric
  6
Continuous
 62
     2
370
    18
100
AcDbCircle
 10
7.794239999999999
 20
69.356628
 30
0.0
 40
0.1925000101327896
100
AcDbArc
 50
0.0
 51
58.507427
  0
ARC
  5
187
330
1F
100
AcDbEntity
  8
Trimetric
  6
Continuous
 62
     2
370
    18
100
AcDbCircle
 10
7.881739999999999
 20
69.49946
 30
0.0
 40
0.0250000003725292
100
AcDbArc
 50
58.507426
 51
180.0
  0
ARC
  5
188
330
1F
100
AcDbEntity
  8
Trimetric
  6
Continuous
 62
     2
370
    18
100
AcDbCircle
 10
7.794239999999999
 20
69.356628
 30
0.0
 40
0.0625
100
AcDbArc
 50
180.0
 51
0.0
  0
ARC
  5
189
330
1F
100
AcDbEntity
  8
Trimetric
  6
Continuous
 62
     2
370
    18
100
AcDbCircle
 10
7.856739999999999
 20
69.538696
 30
0.0
 40
0.125
100
AcDbArc
 50
71.05409399999999
 51
180.0
  0
ARC
  5
18A
330
1F
100
AcDbEntity
  8
Trimetric
  6
Continuous
 62
     2
370
    18
100
AcDbCircle
 10
7.794239999999999
 20
69.356628
 30
0.0
 40
0.3174999952316284
100
AcDbArc
 50
0.0
 51
71.05409399999999
  0
ARC
  5
18B
330
1F
100
AcDbEntity
  8
Trimetric
  6
Continuous
 62
     2
370
    18
100
AcDbCircle
 10
8.046739999999999
 20
69.104124
 30
0.0
 40
0.0650000050663948
100
AcDbArc
 50
270.0
 51
0.0
  0
ARC
  5
18C
330
1F
100
AcDbEntity
  8
Trimetric
  6
Continuous
 62
     2
370
    18
100
AcDbCircle
 10
7.787532
 20
69.01912800000001
 30
0.0
 40
0.0199999995529652
100
AcDbArc
 50
90.0
 51
184.0
  0
ARC
  5
18D
330
1F
100
AcDbEntity
  8
Trimetric
  6
Continuous
 62
     2
370
    18
100
AcDbCircle
 10
7.793824
 20
68.92913199999999
 30
0.0
 40
0.0199999995529652
100
AcDbArc
 50
184.0
 51
270.0
  0
ARC
  5
18E
330
1F
100
AcDbEntity
  8
Trimetric
  6
Continuous
 62
     2
370
    18
100
AcDbCircle
 10
8.066155999999999
 20
68.879716
 30
0.0
 40
0.045586571097374
100
AcDbArc
 50
270.0
 51
60.0
  0
ARC
  5
18F
330
1F
100
AcDbEntity
  8
Trimetric
  6
Continuous
 62
     2
370
    18
100
AcDbCircle
 10
7.801864
 20
68.814132
 30
0.0
 40
0.0199999995529652
100
AcDbArc
 50
90.0
 51
184.0
  0
ARC
  5
190
330
1F
100
AcDbEntity
  8
Trimetric
  6
Continuous
 62
     2
370
    18
100
AcDbCircle
 10
8.232419999999999
 20
65.954132
 30
0.0
 40
0.25
100
AcDbArc
 50
184.0
 51
270.0
  0
ARC
  5
191
330
1F
100
AcDbEntity
  8
Trimetric
  6
Continuous
 62
     2
370
    18
100
AcDbCircle
 10
12.091308
 20
65.954132
 30
0.0
 40
0.25
100
AcDbArc
 50
270.0
 51
356.0
  0
ARC
  5
192
330
1F
100
AcDbEntity
  8
Trimetric
  6
Continuous
 62
     2
370
    18
100
AcDbCircle
 10
12.52186
 20
68.814132
 30
0.0
 40
0.0199999995529652
100
AcDbArc
 50
356.0
 51
90.0
  0
ARC
  5
193
330
1F
100
AcDbEntity
  8
Trimetric
  6
Continuous
 62
     2
370
    18
100
AcDbCircle
 10
12.257572
 20
68.879716
 30
0.0
 40
0.045586571097374
100
AcDbArc
 50
120.0
 51
270.0
  0
ARC
  5
194
330
1F
100
AcDbEntity
  8
Trimetric
  6
Continuous
 62
     2
370
    18
100
AcDbCircle
 10
12.5299
 20
68.92913199999999
 30
0.0
 40
0.0199999995529652
100
AcDbArc
 50
270.0
 51
356.0
  0
ARC
  5
195
330
1F
100
AcDbEntity
  8
Trimetric
  6
Continuous
 62
     2
370
    18
100
AcDbCircle
 10
12.536192
 20
69.01912800000001
 30
0.0
 40
0.0199999995529652
100
AcDbArc
 50
356.0
 51
90.0
  0
ARC
  5
196
330
1F
100
AcDbEntity
  8
Trimetric
  6
Continuous
 62
     2
370
    18
100
AcDbCircle
 10
12.276984
 20
69.104124
 30
0.0
 40
0.0650000050663948
100
AcDbArc
 50
180.0
 51
270.0
  0
ARC
  5
197
330
1F
100
AcDbEntity
  8
Trimetric
  6
Continuous
 62
     2
370
    18
100
AcDbCircle
 10
12.529484
 20
69.356628
 30
0.0
 40
0.3174999952316284
100
AcDbArc
 50
108.945906
 51
180.0
  0
ARC
  5
198
330
1F
100
AcDbEntity
  8
Trimetric
  6
Continuous
 62
     2
370
    18
100
AcDbCircle
 10
12.466984
 20
69.538696
 30
0.0
 40
0.125
100
AcDbArc
 50
0.0
 51
108.945906
  0
ARC
  5
199
330
1F
100
AcDbEntity
  8
Trimetric
  6
Continuous
 62
     2
370
    18
100
AcDbCircle
 10
12.529484
 20
69.356628
 30
0.0
 40
0.0625
100
AcDbArc
 50
180.0
 51
0.0
  0
ARC
  5
19A
330
1F
100
AcDbEntity
  8
Trimetric
  6
Continuous
 62
     2
370
    18
100
AcDbCircle
 10
12.441984
 20
69.49946
 30
0.0
 40
0.0250000003725292
100
AcDbArc
 50
0.0
 51
121.492574
  0
ARC
  5
19B
330
1F
100
AcDbEntity
  8
Trimetric
  6
Continuous
 62
     2
370
    18
100
AcDbCircle
 10
12.529484
 20
69.356628
 30
0.0
 40
0.1925000101327896
100
AcDbArc
 50
121.492573
 51
180.0
  0
ARC
  5
19C
330
1F
100
AcDbEntity
  8
Trimetric
  6
Continuous
 62
     2
370
    18
100
AcDbCircle
 10
12.356984
 20
69.184128
 30
0.0
 40
0.0199999995529652
100
AcDbArc
 50
180.0
 51
270.0
  0
ARC
  5
19D
330
1F
100
AcDbEntity
  8
Trimetric
  6
Continuous
 62
     2
370
    18
100
AcDbCircle
 10
12.621984
 20
69.099128
 30
0.0
 40
0.0650000050663948
100
AcDbArc
 50
356.0
 51
90.0
  0
ARC
  5
19E
330
1F
100
AcDbEntity
  8
Trimetric
  6
Continuous
 62
     2
370
    18
100
AcDbCircle
 10
12.091308
 20
65.954132
 30
0.0
 40
0.375
100
AcDbArc
 50
270.0
 51
356.0
  0
ARC
  5
19F
330
1F
100
AcDbEntity
  8
Trimetric
  6
Continuous
 62
     2
370
    18
100
AcDbCircle
 10
12.014216
 20
65.569128
 30
0.0
 40
0.0099999997764824
100
AcDbArc
 50
90.0
 51
180.0
  0
ARC
  5
1A0
330
1F
100
AcDbEntity
  8
Trimetric
  6
Continuous
 62
     2
370
    18
100
AcDbCircle
 10
12.014216
 20
65.355124
 30
0.0
 40
0.0099999997764824
100
AcDbArc
 50
180.0
 51
270.0
  0
ARC
  5
1A1
330
1F
100
AcDbEntity
  8
Trimetric
  6
Continuous
 62
     2
370
    18
100
AcDbCircle
 10
12.214216
 20
65.330124
 30
0.0
 40
0.0150000005960464
100
AcDbArc
 50
0.0
 51
90.0
  0
ARC
  5
1A2
330
1F
100
AcDbEntity
  8
Trimetric
  6
Continuous
 62
     2
370
    18
100
AcDbCircle
 10
12.214216
 20
65.235124
 30
0.0
 40
0.0150000005960464
100
AcDbArc
 50
270.0
 51
0.0
  0
ARC
  5
1A3
330
1F
100
AcDbEntity
  8
Trimetric
  6
Continuous
 62
     2
370
    18
100
AcDbCircle
 10
11.669216
 20
65.235124
 30
0.0
 40
0.0150000005960464
100
AcDbArc
 50
180.0
 51
270.0
  0
ARC
  5
1A4
330
1F
100
AcDbEntity
  8
Trimetric
  6
Continuous
 62
     2
370
    18
100
AcDbCircle
 10
11.669216
 20
65.330124
 30
0.0
 40
0.0150000005960464
100
AcDbArc
 50
90.0
 51
180.0
  0
ARC
  5
1A5
330
1F
100
AcDbEntity
  8
Trimetric
  6
Continuous
 62
     2
370
    18
100
AcDbCircle
 10
11.869216
 20
65.355124
 30
0.0
 40
0.0099999997764824
100
AcDbArc
 50
270.0
 51
0.0
  0
ARC
  5
1A6
330
1F
100
AcDbEntity
  8
Trimetric
  6
Continuous
 62
     2
370
    18
100
AcDbCircle
 10
11.869216
 20
65.569128
 30
0.0
 40
0.0099999997764824
100
AcDbArc
 50
0.0
 51
90.0
  0
ARC
  5
1A7
330
1F
100
AcDbEntity
  8
Trimetric
  6
Continuous
 62
     2
370
    18
100
AcDbCircle
 10
11.139216
 20
65.569128
 30
0.0
 40
0.0099999997764824
100
AcDbArc
 50
90.0
 51
180.0
  0
ARC
  5
1A8
330
1F
100
AcDbEntity
  8
Trimetric
  6
Continuous
 62
     2
370
    18
100
AcDbCircle
 10
11.139216
 20
65.355124
 30
0.0
 40
0.0099999997764824
100
AcDbArc
 50
180.0
 51
270.0
  0
ARC
  5
1A9
330
1F
100
AcDbEntity
  8
Trimetric
  6
Continuous
 62
     2
370
    18
100
AcDbCircle
 10
11.339216
 20
65.330124
 30
0.0
 40
0.0150000005960464
100
AcDbArc
 50
0.0
 51
90.0
  0
ARC
  5
1AA
330
1F
100
AcDbEntity
  8
Trimetric
  6
Continuous
 62
     2
370
    18
100
AcDbCircle
 10
11.339216
 20
65.235124
 30
0.0
 40
0.0150000005960464
100
AcDbArc
 50
270.0
 51
0.0
  0
ARC
  5
1AB
330
1F
100
AcDbEntity
  8
Trimetric
  6
Continuous
 62
     2
370
    18
100
AcDbCircle
 10
10.989212
 20
65.564132
 30
0.0
 40
0.0150000005960464
100
AcDbArc
 50
0.0
 51
90.0
  0
ARC
  5
1AC
330
1F
100
AcDbEntity
  8
Trimetric
  6
Continuous
 62
     2
370
    18
100
AcDbCircle
 10
9.244512
 20
65.295128
 30
0.0
 40
0.0750000029802324
100
AcDbArc
 50
270.0
 51
0.0
  0
ARC
  5
1AD
330
1F
100
AcDbEntity
  8
Trimetric
  6
Continuous
 62
     2
370
    18
100
AcDbCircle
 10
8.984511999999998
 20
65.235124
 30
0.0
 40
0.0150000005960464
100
AcDbArc
 50
180.0
 51
270.0
  0
ARC
  5
1AE
330
1F
100
AcDbEntity
  8
Trimetric
  6
Continuous
 62
     2
370
    18
100
AcDbCircle
 10
8.984511999999998
 20
65.330124
 30
0.0
 40
0.0150000005960464
100
AcDbArc
 50
90.0
 51
180.0
  0
ARC
  5
1AF
330
1F
100
AcDbEntity
  8
Trimetric
  6
Continuous
 62
     2
370
    18
100
AcDbCircle
 10
9.184511999999999
 20
65.355124
 30
0.0
 40
0.0099999997764824
100
AcDbArc
 50
270.0
 51
0.0
  0
ARC
  5
1B0
330
1F
100
AcDbEntity
  8
Trimetric
  6
Continuous
 62
     2
370
    18
100
AcDbCircle
 10
9.184511999999999
 20
65.569128
 30
0.0
 40
0.0099999997764824
100
AcDbArc
 50
0.0
 51
90.0
  0
ARC
  5
1B1
330
1F
100
AcDbEntity
  8
Trimetric
  6
Continuous
 62
     2
370
    18
100
AcDbCircle
 10
8.454511999999999
 20
65.569128
 30
0.0
 40
0.0099999997764824
100
AcDbArc
 50
90.0
 51
180.0
  0
ARC
  5
1B2
330
1F
100
AcDbEntity
  8
Trimetric
  6
Continuous
 62
     2
370
    18
100
AcDbCircle
 10
8.454511999999999
 20
65.355124
 30
0.0
 40
0.0099999997764824
100
AcDbArc
 50
180.0
 51
270.0
  0
ARC
  5
1B3
330
1F
100
AcDbEntity
  8
Trimetric
  6
Continuous
 62
     2
370
    18
100
AcDbCircle
 10
8.654511999999998
 20
65.330124
 30
0.0
 40
0.0150000005960464
100
AcDbArc
 50
0.0
 51
90.0
  0
ARC
  5
1B4
330
1F
100
AcDbEntity
  8
Trimetric
  6
Continuous
 62
     2
370
    18
100
AcDbCircle
 10
8.654511999999998
 20
65.235124
 30
0.0
 40
0.0150000005960464
100
AcDbArc
 50
270.0
 51
0.0
  0
ARC
  5
1B5
330
1F
100
AcDbEntity
  8
Trimetric
  6
Continuous
 62
     2
370
    18
100
AcDbCircle
 10
8.109511999999998
 20
65.235124
 30
0.0
 40
0.0150000005960464
100
AcDbArc
 50
180.0
 51
270.0
  0
ARC
  5
1B6
330
1F
100
AcDbEntity
  8
Trimetric
  6
Continuous
 62
     2
370
    18
100
AcDbCircle
 10
8.109511999999998
 20
65.330124
 30
0.0
 40
0.0150000005960464
100
AcDbArc
 50
90.0
 51
180.0
  0
ARC
  5
1B7
330
1F
100
AcDbEntity
  8
Trimetric
  6
Continuous
 62
     2
370
    18
100
AcDbCircle
 10
8.309511999999999
 20
65.355124
 30
0.0
 40
0.0099999997764824
100
AcDbArc
 50
270.0
 51
0.0
  0
ARC
  5
1B8
330
1F
100
AcDbEntity
  8
Trimetric
  6
Continuous
 62
     2
370
    18
100
AcDbCircle
 10
8.309511999999999
 20
65.569128
 30
0.0
 40
0.0099999997764824
100
AcDbArc
 50
0.0
 51
90.0
  0
ARC
  5
1B9
330
1F
100
AcDbEntity
  8
Trimetric
  6
Continuous
 62
     2
370
    18
100
AcDbCircle
 10
8.232419999999999
 20
65.954132
 30
0.0
 40
0.375
100
AcDbArc
 50
184.0
 51
270.0
  0
ARC
  5
1BA
330
1F
100
AcDbEntity
  8
Trimetric
  6
Continuous
 62
     2
370
    18
100
AcDbCircle
 10
7.701739999999999
 20
69.099128
 30
0.0
 40
0.0650000050663948
100
AcDbArc
 50
90.0
 51
184.0
  0
ARC
  5
1BB
330
1F
100
AcDbEntity
  8
Trimetric
  6
Continuous
 62
     2
370
    18
100
AcDbCircle
 10
11.079216
 20
65.295128
 30
0.0
 40
0.0750000029802324
100
AcDbArc
 50
180.0
 51
270.0
  0
ARC
  5
1BC
330
1F
100
AcDbEntity
  8
Trimetric
  6
Continuous
 62
     2
370
    18
100
AcDbCircle
 10
9.334512
 20
65.564132
 30
0.0
 40
0.0150000005960464
100
AcDbArc
 50
90.0
 51
180.0
  0
ARC
  5
1BD
330
1F
100
AcDbEntity
  8
Trimetric
  6
Continuous
 62
    74
370
    18
100
AcDbCircle
 10
12.529484
 20
69.356628
 30
0.0
 40
0.1925000101327896
100
AcDbArc
 50
121.492573
 51
180.0
  0
ARC
  5
1BE
330
1F
100
AcDbEntity
  8
Trimetric
  6
Continuous
 62
    74
370
    18
100
AcDbCircle
 10
12.014216
 20
65.569128
 30
0.0
 40
0.0099999997764824
100
AcDbArc
 50
90.0
 51
180.0
  0
ARC
  5
1BF
330
1F
100
AcDbEntity
  8
Trimetric
  6
Continuous
 62
    74
370
    18
100
AcDbCircle
 10
11.869216
 20
65.355124
 30
0.0
 40
0.0099999997764824
100
AcDbArc
 50
270.0
 51
0.0
  0
ARC
  5
1C0
330
1F
100
AcDbEntity
  8
Trimetric
  6
Continuous
 62
    74
370
    18
100
AcDbCircle
 10
8.984511999999998
 20
65.235124
 30
0.0
 40
0.0150000005960464
100
AcDbArc
 50
180.0
 51
270.0
  0
ARC
  5
1C1
330
1F
100
AcDbEntity
  8
Trimetric
  6
Continuous
 62
    74
370
    18
100
AcDbCircle
 10
8.309511999999999
 20
65.355124
 30
0.0
 40
0.0099999997764824
100
AcDbArc
 50
270.0
 51
0.0
  0
ARC
  5
1C2
330
1F
100
AcDbEntity
  8
Trimetric
  6
Continuous
 62
    74
370
    18
100
AcDbCircle
 10
7.701739999999999
 20
69.099128
 30
0.0
 40
0.0650000050663948
100
AcDbArc
 50
90.0
 51
184.0
  0
ARC
  5
1C3
330
1F
100
AcDbEntity
  8
Trimetric
  6
Continuous
 62
    74
370
    18
100
AcDbCircle
 10
12.536192
 20
69.01912800000001
 30
0.0
 40
0.0199999995529652
100
AcDbArc
 50
356.0
 51
90.0
  0
ARC
  5
1C4
330
1F
100
AcDbEntity
  8
Trimetric
  6
Continuous
 62
    74
370
    18
100
AcDbCircle
 10
12.257572
 20
68.879716
 30
0.0
 40
0.045586571097374
100
AcDbArc
 50
120.0
 51
270.0
  0
ARC
  5
1C5
330
1F
100
AcDbEntity
  8
Trimetric
  6
Continuous
 62
    74
370
    18
100
AcDbCircle
 10
8.046739999999999
 20
69.104124
 30
0.0
 40
0.0650000050663948
100
AcDbArc
 50
270.0
 51
0.0
  0
ARC
  5
1C6
330
1F
100
AcDbEntity
  8
Trimetric
  6
Continuous
 62
    74
370
    18
100
AcDbCircle
 10
12.529484
 20
69.356628
 30
0.0
 40
0.0625
100
AcDbArc
 50
180.0
 51
0.0
  0
ARC
  5
1C7
330
1F
100
AcDbEntity
  8
Trimetric
  6
Continuous
 62
    74
370
    18
100
AcDbCircle
 10
12.214216
 20
65.235124
 30
0.0
 40
0.0150000005960464
100
AcDbArc
 50
270.0
 51
0.0
  0
ARC
  5
1C8
330
1F
100
AcDbEntity
  8
Trimetric
  6
Continuous
 62
    74
370
    18
100
AcDbCircle
 10
11.139216
 20
65.569128
 30
0.0
 40
0.0099999997764824
100
AcDbArc
 50
90.0
 51
180.0
  0
ARC
  5
1C9
330
1F
100
AcDbEntity
  8
Trimetric
  6
Continuous
 62
    74
370
    18
100
AcDbCircle
 10
8.454511999999999
 20
65.569128
 30
0.0
 40
0.0099999997764824
100
AcDbArc
 50
90.0
 51
180.0
  0
ARC
  5
1CA
330
1F
100
AcDbEntity
  8
Trimetric
  6
Continuous
 62
    74
370
    18
100
AcDbCircle
 10
11.079216
 20
65.295128
 30
0.0
 40
0.0750000029802324
100
AcDbArc
 50
180.0
 51
270.0
  0
ARC
  5
1CB
330
1F
100
AcDbEntity
  8
Trimetric
  6
Continuous
 62
    74
370
    18
100
AcDbCircle
 10
8.984511999999998
 20
65.330124
 30
0.0
 40
0.0150000005960464
100
AcDbArc
 50
90.0
 51
180.0
  0
ARC
  5
1CC
330
1F
100
AcDbEntity
  8
Trimetric
  6
Continuous
 62
    74
370
    18
100
AcDbCircle
 10
7.794239999999999
 20
69.356628
 30
0.0
 40
0.0625
100
AcDbArc
 50
180.0
 51
0.0
  0
ARC
  5
1CD
330
1F
100
AcDbEntity
  8
Trimetric
  6
Continuous
 62
    74
370
    18
100
AcDbCircle
 10
12.529484
 20
69.356628
 30
0.0
 40
0.3174999952316284
100
AcDbArc
 50
108.945906
 51
180.0
  0
ARC
  5
1CE
330
1F
100
AcDbEntity
  8
Trimetric
  6
Continuous
 62
    74
370
    18
100
AcDbCircle
 10
8.232419999999999
 20
65.954132
 30
0.0
 40
0.25
100
AcDbArc
 50
184.0
 51
270.0
  0
ARC
  5
1CF
330
1F
100
AcDbEntity
  8
Trimetric
  6
Continuous
 62
    74
370
    18
100
AcDbCircle
 10
12.356984
 20
69.184128
 30
0.0
 40
0.0199999995529652
100
AcDbArc
 50
180.0
 51
270.0
  0
ARC
  5
1D0
330
1F
100
AcDbEntity
  8
Trimetric
  6
Continuous
 62
    74
370
    18
100
AcDbCircle
 10
12.091308
 20
65.954132
 30
0.0
 40
0.375
100
AcDbArc
 50
270.0
 51
356.0
  0
ARC
  5
1D1
330
1F
100
AcDbEntity
  8
Trimetric
  6
Continuous
 62
    74
370
    18
100
AcDbCircle
 10
11.869216
 20
65.569128
 30
0.0
 40
0.0099999997764824
100
AcDbArc
 50
0.0
 51
90.0
  0
ARC
  5
1D2
330
1F
100
AcDbEntity
  8
Trimetric
  6
Continuous
 62
    74
370
    18
100
AcDbCircle
 10
9.184511999999999
 20
65.569128
 30
0.0
 40
0.0099999997764824
100
AcDbArc
 50
0.0
 51
90.0
  0
ARC
  5
1D3
330
1F
100
AcDbEntity
  8
Trimetric
  6
Continuous
 62
    74
370
    18
100
AcDbCircle
 10
8.309511999999999
 20
65.569128
 30
0.0
 40
0.0099999997764824
100
AcDbArc
 50
0.0
 51
90.0
  0
ARC
  5
1D4
330
1F
100
AcDbEntity
  8
Trimetric
  6
Continuous
 62
    74
370
    18
100
AcDbCircle
 10
8.232419999999999
 20
65.954132
 30
0.0
 40
0.375
100
AcDbArc
 50
184.0
 51
270.0
  0
ARC
  5
1D5
330
1F
100
AcDbEntity
  8
Trimetric
  6
Continuous
 62
    74
370
    18
100
AcDbCircle
 10
11.339216
 20
65.330124
 30
0.0
 40
0.0150000005960464
100
AcDbArc
 50
0.0
 51
90.0
  0
ARC
  5
1D6
330
1F
100
AcDbEntity
  8
Trimetric
  6
Continuous
 62
    74
370
    18
100
AcDbCircle
 10
12.091308
 20
65.954132
 30
0.0
 40
0.25
100
AcDbArc
 50
270.0
 51
356.0
  0
ARC
  5
1D7
330
1F
100
AcDbEntity
  8
Trimetric
  6
Continuous
 62
    74
370
    18
100
AcDbCircle
 10
12.5299
 20
68.92913199999999
 30
0.0
 40
0.0199999995529652
100
AcDbArc
 50
270.0
 51
356.0
  0
ARC
  5
1D8
330
1F
100
AcDbEntity
  8
Trimetric
  6
Continuous
 62
    74
370
    18
100
AcDbCircle
 10
7.794239999999999
 20
69.356628
 30
0.0
 40
0.3174999952316284
100
AcDbArc
 50
0.0
 51
71.05409399999999
  0
ARC
  5
1D9
330
1F
100
AcDbEntity
  8
Trimetric
  6
Continuous
 62
    74
370
    18
100
AcDbCircle
 10
12.214216
 20
65.330124
 30
0.0
 40
0.0150000005960464
100
AcDbArc
 50
0.0
 51
90.0
  0
ARC
  5
1DA
330
1F
100
AcDbEntity
  8
Trimetric
  6
Continuous
 62
    74
370
    18
100
AcDbCircle
 10
11.139216
 20
65.355124
 30
0.0
 40
0.0099999997764824
100
AcDbArc
 50
180.0
 51
270.0
  0
ARC
  5
1DB
330
1F
100
AcDbEntity
  8
Trimetric
  6
Continuous
 62
    74
370
    18
100
AcDbCircle
 10
8.654511999999998
 20
65.235124
 30
0.0
 40
0.0150000005960464
100
AcDbArc
 50
270.0
 51
0.0
  0
ARC
  5
1DC
330
1F
100
AcDbEntity
  8
Trimetric
  6
Continuous
 62
    74
370
    18
100
AcDbCircle
 10
11.339216
 20
65.235124
 30
0.0
 40
0.0150000005960464
100
AcDbArc
 50
270.0
 51
0.0
  0
ARC
  5
1DD
330
1F
100
AcDbEntity
  8
Trimetric
  6
Continuous
 62
    74
370
    18
100
AcDbCircle
 10
8.454511999999999
 20
65.355124
 30
0.0
 40
0.0099999997764824
100
AcDbArc
 50
180.0
 51
270.0
  0
ARC
  5
1DE
330
1F
100
AcDbEntity
  8
Trimetric
  6
Continuous
 62
    74
370
    18
100
AcDbCircle
 10
7.801864
 20
68.814132
 30
0.0
 40
0.0199999995529652
100
AcDbArc
 50
90.0
 51
184.0
  0
ARC
  5
1DF
330
1F
100
AcDbEntity
  8
Trimetric
  6
Continuous
 62
    74
370
    18
100
AcDbCircle
 10
12.466984
 20
69.538696
 30
0.0
 40
0.125
100
AcDbArc
 50
0.0
 51
108.945906
  0
ARC
  5
1E0
330
1F
100
AcDbEntity
  8
Trimetric
  6
Continuous
 62
    74
370
    18
100
AcDbCircle
 10
7.856739999999999
 20
69.538696
 30
0.0
 40
0.125
100
AcDbArc
 50
71.05409399999999
 51
180.0
  0
ARC
  5
1E1
330
1F
100
AcDbEntity
  8
Trimetric
  6
Continuous
 62
    74
370
    18
100
AcDbCircle
 10
12.621984
 20
69.099128
 30
0.0
 40
0.0650000050663948
100
AcDbArc
 50
356.0
 51
90.0
  0
ARC
  5
1E2
330
1F
100
AcDbEntity
  8
Trimetric
  6
Continuous
 62
    74
370
    18
100
AcDbCircle
 10
9.184511999999999
 20
65.355124
 30
0.0
 40
0.0099999997764824
100
AcDbArc
 50
270.0
 51
0.0
  0
ARC
  5
1E3
330
1F
100
AcDbEntity
  8
Trimetric
  6
Continuous
 62
    74
370
    18
100
AcDbCircle
 10
9.334512
 20
65.564132
 30
0.0
 40
0.0150000005960464
100
AcDbArc
 50
90.0
 51
180.0
  0
ARC
  5
1E4
330
1F
100
AcDbEntity
  8
Trimetric
  6
Continuous
 62
    74
370
    18
100
AcDbCircle
 10
7.966739999999999
 20
69.184128
 30
0.0
 40
0.0199999995529652
100
AcDbArc
 50
270.0
 51
0.0
  0
ARC
  5
1E5
330
1F
100
AcDbEntity
  8
Trimetric
  6
Continuous
 62
    74
370
    18
100
AcDbCircle
 10
7.881739999999999
 20
69.49946
 30
0.0
 40
0.0250000003725292
100
AcDbArc
 50
58.507426
 51
180.0
  0
ARC
  5
1E6
330
1F
100
AcDbEntity
  8
Trimetric
  6
Continuous
 62
    74
370
    18
100
AcDbCircle
 10
8.066155999999999
 20
68.879716
 30
0.0
 40
0.045586571097374
100
AcDbArc
 50
270.0
 51
60.0
  0
ARC
  5
1E7
330
1F
100
AcDbEntity
  8
Trimetric
  6
Continuous
 62
    74
370
    18
100
AcDbCircle
 10
7.793824
 20
68.92913199999999
 30
0.0
 40
0.0199999995529652
100
AcDbArc
 50
184.0
 51
270.0
  0
ARC
  5
1E8
330
1F
100
AcDbEntity
  8
Trimetric
  6
Continuous
 62
    74
370
    18
100
AcDbCircle
 10
12.441984
 20
69.49946
 30
0.0
 40
0.0250000003725292
100
AcDbArc
 50
0.0
 51
121.492574
  0
ARC
  5
1E9
330
1F
100
AcDbEntity
  8
Trimetric
  6
Continuous
 62
    74
370
    18
100
AcDbCircle
 10
12.014216
 20
65.355124
 30
0.0
 40
0.0099999997764824
100
AcDbArc
 50
180.0
 51
270.0
  0
ARC
  5
1EA
330
1F
100
AcDbEntity
  8
Trimetric
  6
Continuous
 62
    74
370
    18
100
AcDbCircle
 10
8.654511999999998
 20
65.330124
 30
0.0
 40
0.0150000005960464
100
AcDbArc
 50
0.0
 51
90.0
  0
ARC
  5
1EB
330
1F
100
AcDbEntity
  8
Trimetric
  6
Continuous
 62
    74
370
    18
100
AcDbCircle
 10
8.109511999999998
 20
65.235124
 30
0.0
 40
0.0150000005960464
100
AcDbArc
 50
180.0
 51
270.0
  0
ARC
  5
1EC
330
1F
100
AcDbEntity
  8
Trimetric
  6
Continuous
 62
    74
370
    18
100
AcDbCircle
 10
8.109511999999998
 20
65.330124
 30
0.0
 40
0.0150000005960464
100
AcDbArc
 50
90.0
 51
180.0
  0
ARC
  5
1ED
330
1F
100
AcDbEntity
  8
Trimetric
  6
Continuous
 62
    74
370
    18
100
AcDbCircle
 10
12.276984
 20
69.104124
 30
0.0
 40
0.0650000050663948
100
AcDbArc
 50
180.0
 51
270.0
  0
ARC
  5
1EE
330
1F
100
AcDbEntity
  8
Trimetric
  6
Continuous
 62
    74
370
    18
100
AcDbCircle
 10
12.52186
 20
68.814132
 30
0.0
 40
0.0199999995529652
100
AcDbArc
 50
356.0
 51
90.0
  0
ARC
  5
1EF
330
1F
100
AcDbEntity
  8
Trimetric
  6
Continuous
 62
    74
370
    18
100
AcDbCircle
 10
7.787532
 20
69.01912800000001
 30
0.0
 40
0.0199999995529652
100
AcDbArc
 50
90.0
 51
184.0
  0
ARC
  5
1F0
330
1F
100
AcDbEntity
  8
Trimetric
  6
Continuous
 62
    74
370
    18
100
AcDbCircle
 10
11.669216
 20
65.235124
 30
0.0
 40
0.0150000005960464
100
AcDbArc
 50
180.0
 51
270.0
  0
ARC
  5
1F1
330
1F
100
AcDbEntity
  8
Trimetric
  6
Continuous
 62
    74
370
    18
100
AcDbCircle
 10
11.669216
 20
65.330124
 30
0.0
 40
0.0150000005960464
100
AcDbArc
 50
90.0
 51
180.0
  0
ARC
  5
1F2
330
1F
100
AcDbEntity
  8
Trimetric
  6
Continuous
 62
    74
370
    18
100
AcDbCircle
 10
10.989212
 20
65.564132
 30
0.0
 40
0.0150000005960464
100
AcDbArc
 50
0.0
 51
90.0
  0
ARC
  5
1F3
330
1F
100
AcDbEntity
  8
Trimetric
  6
Continuous
 62
    74
370
    18
100
AcDbCircle
 10
7.794239999999999
 20
69.356628
 30
0.0
 40
0.1925000101327896
100
AcDbArc
 50
0.0
 51
58.507427
  0
ARC
  5
1F4
330
1F
100
AcDbEntity
  8
Trimetric
  6
Continuous
 62
    74
370
    18
100
AcDbCircle
 10
9.244512
 20
65.295128
 30
0.0
 40
0.0750000029802324
100
AcDbArc
 50
270.0
 51
0.0
  0
ARC
  5
1F5
330
1F
100
AcDbEntity
  8
Trimetric
  6
Continuous
 62
     2
370
    18
100
AcDbCircle
 10
119.880616
 20
69.184128
 30
0.0
 40
0.0199999995529652
100
AcDbArc
 50
180.0
 51
270.0
  0
ARC
  5
1F6
330
1F
100
AcDbEntity
  8
Trimetric
  6
Continuous
 62
     2
370
    18
100
AcDbCircle
 10
120.053116
 20
69.356628
 30
0.0
 40
0.1925000101327896
100
AcDbArc
 50
121.492573
 51
180.0
  0
ARC
  5
1F7
330
1F
100
AcDbEntity
  8
Trimetric
  6
Continuous
 62
     2
370
    18
100
AcDbCircle
 10
119.965616
 20
69.49946
 30
0.0
 40
0.0250000003725292
100
AcDbArc
 50
0.0
 51
121.492574
  0
ARC
  5
1F8
330
1F
100
AcDbEntity
  8
Trimetric
  6
Continuous
 62
     2
370
    18
100
AcDbCircle
 10
120.053116
 20
69.356628
 30
0.0
 40
0.0625
100
AcDbArc
 50
180.0
 51
0.0
  0
ARC
  5
1F9
330
1F
100
AcDbEntity
  8
Trimetric
  6
Continuous
 62
     2
370
    18
100
AcDbCircle
 10
119.990616
 20
69.538696
 30
0.0
 40
0.125
100
AcDbArc
 50
0.0
 51
108.945906
  0
ARC
  5
1FA
330
1F
100
AcDbEntity
  8
Trimetric
  6
Continuous
 62
     2
370
    18
100
AcDbCircle
 10
120.053116
 20
69.356628
 30
0.0
 40
0.3174999952316284
100
AcDbArc
 50
108.945906
 51
180.0
  0
ARC
  5
1FB
330
1F
100
AcDbEntity
  8
Trimetric
  6
Continuous
 62
     2
370
    18
100
AcDbCircle
 10
119.800612
 20
69.104124
 30
0.0
 40
0.0650000050663948
100
AcDbArc
 50
180.0
 51
270.0
  0
ARC
  5
1FC
330
1F
100
AcDbEntity
  8
Trimetric
  6
Continuous
 62
     2
370
    18
100
AcDbCircle
 10
120.059824
 20
69.01912800000001
 30
0.0
 40
0.0199999995529652
100
AcDbArc
 50
356.0
 51
90.0
  0
ARC
  5
1FD
330
1F
100
AcDbEntity
  8
Trimetric
  6
Continuous
 62
     2
370
    18
100
AcDbCircle
 10
120.053528
 20
68.92913199999999
 30
0.0
 40
0.0199999995529652
100
AcDbArc
 50
270.0
 51
356.0
  0
ARC
  5
1FE
330
1F
100
AcDbEntity
  8
Trimetric
  6
Continuous
 62
     2
370
    18
100
AcDbCircle
 10
119.781204
 20
68.879716
 30
0.0
 40
0.045586571097374
100
AcDbArc
 50
120.0
 51
270.0
  0
ARC
  5
1FF
330
1F
100
AcDbEntity
  8
Trimetric
  6
Continuous
 62
     2
370
    18
100
AcDbCircle
 10
120.045496
 20
68.814132
 30
0.0
 40
0.0199999995529652
100
AcDbArc
 50
356.0
 51
90.0
  0
ARC
  5
200
330
1F
100
AcDbEntity
  8
Trimetric
  6
Continuous
 62
     2
370
    18
100
AcDbCircle
 10
119.614936
 20
65.954132
 30
0.0
 40
0.25
100
AcDbArc
 50
270.0
 51
356.0
  0
ARC
  5
201
330
1F
100
AcDbEntity
  8
Trimetric
  6
Continuous
 62
     2
370
    18
100
AcDbCircle
 10
115.756044
 20
65.954132
 30
0.0
 40
0.25
100
AcDbArc
 50
184.0
 51
270.0
  0
ARC
  5
202
330
1F
100
AcDbEntity
  8
Trimetric
  6
Continuous
 62
     2
370
    18
100
AcDbCircle
 10
115.3255
 20
68.814132
 30
0.0
 40
0.0199999995529652
100
AcDbArc
 50
90.0
 51
184.0
  0
ARC
  5
203
330
1F
100
AcDbEntity
  8
Trimetric
  6
Continuous
 62
     2
370
    18
100
AcDbCircle
 10
115.589784
 20
68.879716
 30
0.0
 40
0.045586571097374
100
AcDbArc
 50
270.0
 51
60.0
  0
ARC
  5
204
330
1F
100
AcDbEntity
  8
Trimetric
  6
Continuous
 62
     2
370
    18
100
AcDbCircle
 10
115.317452
 20
68.92913199999999
 30
0.0
 40
0.0199999995529652
100
AcDbArc
 50
184.0
 51
270.0
  0
ARC
  5
205
330
1F
100
AcDbEntity
  8
Trimetric
  6
Continuous
 62
     2
370
    18
100
AcDbCircle
 10
115.311164
 20
69.01912800000001
 30
0.0
 40
0.0199999995529652
100
AcDbArc
 50
90.0
 51
184.0
  0
ARC
  5
206
330
1F
100
AcDbEntity
  8
Trimetric
  6
Continuous
 62
     2
370
    18
100
AcDbCircle
 10
115.570364
 20
69.104124
 30
0.0
 40
0.0650000050663948
100
AcDbArc
 50
270.0
 51
0.0
  0
ARC
  5
207
330
1F
100
AcDbEntity
  8
Trimetric
  6
Continuous
 62
     2
370
    18
100
AcDbCircle
 10
115.317872
 20
69.356628
 30
0.0
 40
0.3174999952316284
100
AcDbArc
 50
0.0
 51
71.05409399999999
  0
ARC
  5
208
330
1F
100
AcDbEntity
  8
Trimetric
  6
Continuous
 62
     2
370
    18
100
AcDbCircle
 10
115.380372
 20
69.538696
 30
0.0
 40
0.125
100
AcDbArc
 50
71.05409399999999
 51
180.0
  0
ARC
  5
209
330
1F
100
AcDbEntity
  8
Trimetric
  6
Continuous
 62
     2
370
    18
100
AcDbCircle
 10
115.317872
 20
69.356628
 30
0.0
 40
0.0625
100
AcDbArc
 50
180.0
 51
0.0
  0
ARC
  5
20A
330
1F
100
AcDbEntity
  8
Trimetric
  6
Continuous
 62
     2
370
    18
100
AcDbCircle
 10
115.405364
 20
69.49946
 30
0.0
 40
0.0250000003725292
100
AcDbArc
 50
58.507426
 51
180.0
  0
ARC
  5
20B
330
1F
100
AcDbEntity
  8
Trimetric
  6
Continuous
 62
     2
370
    18
100
AcDbCircle
 10
115.317872
 20
69.356628
 30
0.0
 40
0.1925000101327896
100
AcDbArc
 50
0.0
 51
58.507427
  0
ARC
  5
20C
330
1F
100
AcDbEntity
  8
Trimetric
  6
Continuous
 62
     2
370
    18
100
AcDbCircle
 10
115.490364
 20
69.184128
 30
0.0
 40
0.0199999995529652
100
AcDbArc
 50
270.0
 51
0.0
  0
ARC
  5
20D
330
1F
100
AcDbEntity
  8
Trimetric
  6
Continuous
 62
     2
370
    18
100
AcDbCircle
 10
115.225364
 20
69.099128
 30
0.0
 40
0.0650000050663948
100
AcDbArc
 50
90.0
 51
184.0
  0
ARC
  5
20E
330
1F
100
AcDbEntity
  8
Trimetric
  6
Continuous
 62
     2
370
    18
100
AcDbCircle
 10
115.756044
 20
65.954132
 30
0.0
 40
0.375
100
AcDbArc
 50
184.0
 51
270.0
  0
ARC
  5
20F
330
1F
100
AcDbEntity
  8
Trimetric
  6
Continuous
 62
     2
370
    18
100
AcDbCircle
 10
115.833136
 20
65.569128
 30
0.0
 40
0.0099999997764824
100
AcDbArc
 50
0.0
 51
90.0
  0
ARC
  5
210
330
1F
100
AcDbEntity
  8
Trimetric
  6
Continuous
 62
     2
370
    18
100
AcDbCircle
 10
115.833136
 20
65.355124
 30
0.0
 40
0.0099999997764824
100
AcDbArc
 50
270.0
 51
0.0
  0
ARC
  5
211
330
1F
100
AcDbEntity
  8
Trimetric
  6
Continuous
 62
     2
370
    18
100
AcDbCircle
 10
115.63314
 20
65.330124
 30
0.0
 40
0.0150000005960464
100
AcDbArc
 50
90.0
 51
180.0
  0
ARC
  5
212
330
1F
100
AcDbEntity
  8
Trimetric
  6
Continuous
 62
     2
370
    18
100
AcDbCircle
 10
115.63314
 20
65.235124
 30
0.0
 40
0.0150000005960464
100
AcDbArc
 50
180.0
 51
270.0
  0
ARC
  5
213
330
1F
100
AcDbEntity
  8
Trimetric
  6
Continuous
 62
     2
370
    18
100
AcDbCircle
 10
116.17814
 20
65.235124
 30
0.0
 40
0.0150000005960464
100
AcDbArc
 50
270.0
 51
0.0
  0
ARC
  5
214
330
1F
100
AcDbEntity
  8
Trimetric
  6
Continuous
 62
     2
370
    18
100
AcDbCircle
 10
116.17814
 20
65.330124
 30
0.0
 40
0.0150000005960464
100
AcDbArc
 50
0.0
 51
90.0
  0
ARC
  5
215
330
1F
100
AcDbEntity
  8
Trimetric
  6
Continuous
 62
     2
370
    18
100
AcDbCircle
 10
115.97814
 20
65.355124
 30
0.0
 40
0.0099999997764824
100
AcDbArc
 50
180.0
 51
270.0
  0
ARC
  5
216
330
1F
100
AcDbEntity
  8
Trimetric
  6
Continuous
 62
     2
370
    18
100
AcDbCircle
 10
115.97814
 20
65.569128
 30
0.0
 40
0.0099999997764824
100
AcDbArc
 50
90.0
 51
180.0
  0
ARC
  5
217
330
1F
100
AcDbEntity
  8
Trimetric
  6
Continuous
 62
     2
370
    18
100
AcDbCircle
 10
116.708136
 20
65.569128
 30
0.0
 40
0.0099999997764824
100
AcDbArc
 50
0.0
 51
90.0
  0
ARC
  5
218
330
1F
100
AcDbEntity
  8
Trimetric
  6
Continuous
 62
     2
370
    18
100
AcDbCircle
 10
116.708136
 20
65.355124
 30
0.0
 40
0.0099999997764824
100
AcDbArc
 50
270.0
 51
0.0
  0
ARC
  5
219
330
1F
100
AcDbEntity
  8
Trimetric
  6
Continuous
 62
     2
370
    18
100
AcDbCircle
 10
116.50814
 20
65.330124
 30
0.0
 40
0.0150000005960464
100
AcDbArc
 50
90.0
 51
180.0
  0
ARC
  5
21A
330
1F
100
AcDbEntity
  8
Trimetric
  6
Continuous
 62
     2
370
    18
100
AcDbCircle
 10
116.50814
 20
65.235124
 30
0.0
 40
0.0150000005960464
100
AcDbArc
 50
180.0
 51
270.0
  0
ARC
  5
21B
330
1F
100
AcDbEntity
  8
Trimetric
  6
Continuous
 62
     2
370
    18
100
AcDbCircle
 10
116.768144
 20
65.295128
 30
0.0
 40
0.0750000029802324
100
AcDbArc
 50
270.0
 51
0.0
  0
ARC
  5
21C
330
1F
100
AcDbEntity
  8
Trimetric
  6
Continuous
 62
     2
370
    18
100
AcDbCircle
 10
116.85814
 20
65.564132
 30
0.0
 40
0.0150000005960464
100
AcDbArc
 50
90.0
 51
180.0
  0
ARC
  5
21D
330
1F
100
AcDbEntity
  8
Trimetric
  6
Continuous
 62
     2
370
    18
100
AcDbCircle
 10
118.51284
 20
65.564132
 30
0.0
 40
0.0150000005960464
100
AcDbArc
 50
0.0
 51
90.0
  0
ARC
  5
21E
330
1F
100
AcDbEntity
  8
Trimetric
  6
Continuous
 62
     2
370
    18
100
AcDbCircle
 10
118.602844
 20
65.295128
 30
0.0
 40
0.0750000029802324
100
AcDbArc
 50
180.0
 51
270.0
  0
ARC
  5
21F
330
1F
100
AcDbEntity
  8
Trimetric
  6
Continuous
 62
     2
370
    18
100
AcDbCircle
 10
118.86284
 20
65.235124
 30
0.0
 40
0.0150000005960464
100
AcDbArc
 50
270.0
 51
0.0
  0
ARC
  5
220
330
1F
100
AcDbEntity
  8
Trimetric
  6
Continuous
 62
     2
370
    18
100
AcDbCircle
 10
118.86284
 20
65.330124
 30
0.0
 40
0.0150000005960464
100
AcDbArc
 50
0.0
 51
90.0
  0
ARC
  5
221
330
1F
100
AcDbEntity
  8
Trimetric
  6
Continuous
 62
     2
370
    18
100
AcDbCircle
 10
118.66284
 20
65.355124
 30
0.0
 40
0.0099999997764824
100
AcDbArc
 50
180.0
 51
270.0
  0
ARC
  5
222
330
1F
100
AcDbEntity
  8
Trimetric
  6
Continuous
 62
     2
370
    18
100
AcDbCircle
 10
118.66284
 20
65.569128
 30
0.0
 40
0.0099999997764824
100
AcDbArc
 50
90.0
 51
180.0
  0
ARC
  5
223
330
1F
100
AcDbEntity
  8
Trimetric
  6
Continuous
 62
     2
370
    18
100
AcDbCircle
 10
119.392844
 20
65.569128
 30
0.0
 40
0.0099999997764824
100
AcDbArc
 50
0.0
 51
90.0
  0
ARC
  5
224
330
1F
100
AcDbEntity
  8
Trimetric
  6
Continuous
 62
     2
370
    18
100
AcDbCircle
 10
119.392844
 20
65.355124
 30
0.0
 40
0.0099999997764824
100
AcDbArc
 50
270.0
 51
0.0
  0
ARC
  5
225
330
1F
100
AcDbEntity
  8
Trimetric
  6
Continuous
 62
     2
370
    18
100
AcDbCircle
 10
119.19284
 20
65.330124
 30
0.0
 40
0.0150000005960464
100
AcDbArc
 50
90.0
 51
180.0
  0
ARC
  5
226
330
1F
100
AcDbEntity
  8
Trimetric
  6
Continuous
 62
     2
370
    18
100
AcDbCircle
 10
119.19284
 20
65.235124
 30
0.0
 40
0.0150000005960464
100
AcDbArc
 50
180.0
 51
270.0
  0
ARC
  5
227
330
1F
100
AcDbEntity
  8
Trimetric
  6
Continuous
 62
     2
370
    18
100
AcDbCircle
 10
119.73784
 20
65.235124
 30
0.0
 40
0.0150000005960464
100
AcDbArc
 50
270.0
 51
0.0
  0
ARC
  5
228
330
1F
100
AcDbEntity
  8
Trimetric
  6
Continuous
 62
     2
370
    18
100
AcDbCircle
 10
119.73784
 20
65.330124
 30
0.0
 40
0.0150000005960464
100
AcDbArc
 50
0.0
 51
90.0
  0
ARC
  5
229
330
1F
100
AcDbEntity
  8
Trimetric
  6
Continuous
 62
     2
370
    18
100
AcDbCircle
 10
119.53784
 20
65.355124
 30
0.0
 40
0.0099999997764824
100
AcDbArc
 50
180.0
 51
270.0
  0
ARC
  5
22A
330
1F
100
AcDbEntity
  8
Trimetric
  6
Continuous
 62
     2
370
    18
100
AcDbCircle
 10
119.53784
 20
65.569128
 30
0.0
 40
0.0099999997764824
100
AcDbArc
 50
90.0
 51
180.0
  0
ARC
  5
22B
330
1F
100
AcDbEntity
  8
Trimetric
  6
Continuous
 62
     2
370
    18
100
AcDbCircle
 10
119.614936
 20
65.954132
 30
0.0
 40
0.375
100
AcDbArc
 50
270.0
 51
356.0
  0
ARC
  5
22C
330
1F
100
AcDbEntity
  8
Trimetric
  6
Continuous
 62
     2
370
    18
100
AcDbCircle
 10
120.145616
 20
69.099128
 30
0.0
 40
0.0650000050663948
100
AcDbArc
 50
356.0
 51
90.0
  0
SPLINE
  5
231
330
1F
100
AcDbEntity
  8
Trimetric
  6
Continuous
 62
     2
370
    18
100
AcDbSpline
210
0.0
220
0.0
230
1.0
 70
    24
 71
     1
 72
     4
 73
     2
 74
     0
 42
0.000000001
 43
0.0000000001
 40
0.0
 40
0.0
 40
1.0
 40
1.0
 10
103.2374764581655
 20
69.09459151683312
 30
0.0
 10
103.2374764581655
 20
69.1641292789336
 30
0.0
  0
SPLINE
  5
232
330
1F
100
AcDbEntity
  8
Trimetric
  6
Continuous
 62
     2
370
    18
100
AcDbSpline
210
0.0
220
0.0
230
1.0
 70
    24
 71
     1
 72
     4
 73
     2
 74
     0
 42
0.000000001
 43
0.0000000001
 40
0.0
 40
0.0
 40
1.0
 40
1.0
 10
24.49731504631245
 20
69.09459151683312
 30
0.0
 10
24.49731504631245
 20
69.1641292789336
 30
0.0
  0
SPLINE
  5
233
330
1F
100
AcDbEntity
  8
Trimetric
  6
Continuous
 62
     2
370
    18
100
AcDbSpline
210
0.0
220
0.0
230
1.0
 70
    24
 71
     1
 72
     5
 73
     3
 74
     0
 42
0.000000001
 43
0.0000000001
 40
0.0
 40
0.0
 40
0.5
 40
1.0
 40
1.0
 10
103.2374764581655
 20
69.53869960050359
 30
0.0
 10
103.2374764581655
 20
69.601199602017
 30
0.0
 10
103.2374764581655
 20
69.6636996035304
 30
0.0
  0
SPLINE
  5
234
330
1F
100
AcDbEntity
  8
Trimetric
  6
Continuous
 62
     2
370
    18
100
AcDbSpline
210
0.0
220
0.0
230
1.0
 70
    24
 71
     1
 72
     5
 73
     3
 74
     0
 42
0.000000001
 43
0.0000000001
 40
0.0
 40
0.0
 40
0.5
 40
1.0
 40
1.0
 10
24.49731504631245
 20
69.53869960050359
 30
0.0
 10
24.49731504631245
 20
69.601199602017
 30
0.0
 10
24.49731504631245
 20
69.6636996035304
 30
0.0
  0
SPLINE
  5
235
330
1F
100
AcDbEntity
  8
Trimetric
  6
Continuous
 62
     2
370
    18
100
AcDbSpline
210
0.0
220
0.0
230
1.0
 70
    24
 71
     1
 72
     4
 73
     2
 74
     0
 42
0.000000001
 43
0.0000000001
 40
0.0
 40
0.0
 40
1.0
 40
1.0
 10
103.2374764581655
 20
69.29412928208148
 30
0.0
 10
103.2374764581655
 20
69.35662928359488
 30
0.0
  0
SPLINE
  5
236
330
1F
100
AcDbEntity
  8
Trimetric
  6
Continuous
 62
     2
370
    18
100
AcDbSpline
210
0.0
220
0.0
230
1.0
 70
    24
 71
     1
 72
     4
 73
     2
 74
     0
 42
0.000000001
 43
0.0000000001
 40
0.0
 40
0.0
 40
1.0
 40
1.0
 10
24.49731504631245
 20
69.29412928208148
 30
0.0
 10
24.49731504631245
 20
69.35662928359488
 30
0.0
  0
SPLINE
  5
237
330
1F
100
AcDbEntity
  8
Trimetric
  6
Continuous
 62
     2
370
    18
100
AcDbSpline
210
0.0
220
0.0
230
1.0
 70
    24
 71
     1
 72
     6
 73
     4
 74
     0
 42
0.000000001
 43
0.0000000001
 40
0.0
 40
0.0
 40
0.048075846366317
 40
0.4072636333096936
 40
1.0
 40
1.0
 10
103.2374764581655
 20
65.57912919212504
 30
0.0
 10
103.2374764581655
 20
65.59590002586448
 30
0.0
 10
103.2374764581655
 20
65.72119950806521
 30
0.0
 10
103.2374764581655
 20
65.92797034640536
 30
0.0
  0
SPLINE
  5
238
330
1F
100
AcDbEntity
  8
Trimetric
  6
Continuous
 62
     2
370
    18
100
AcDbSpline
210
0.0
220
0.0
230
1.0
 70
    24
 71
     1
 72
     6
 73
     4
 74
     0
 42
0.000000001
 43
0.0000000001
 40
0.0
 40
0.0
 40
0.048075846366317
 40
0.4072636333096936
 40
1.0
 40
1.0
 10
24.49731504631245
 20
65.57912919212504
 30
0.0
 10
24.49731504631245
 20
65.59590002586448
 30
0.0
 10
24.49731504631245
 20
65.72119950806521
 30
0.0
 10
24.49731504631245
 20
65.92797034640536
 30
0.0
  0
SPLINE
  5
239
330
1F
100
AcDbEntity
  8
Trimetric
  6
Continuous
 62
     2
370
    18
100
AcDbSpline
210
0.0
220
0.0
230
1.0
 70
    24
 71
     1
 72
     4
 73
     2
 74
     0
 42
0.000000001
 43
0.0000000001
 40
0.0
 40
0.0
 40
1.0
 40
1.0
 10
103.2374764581655
 20
69.1641292789336
 30
0.0
 10
103.2374764581655
 20
69.18412927941793
 30
0.0
  0
SPLINE
  5
23A
330
1F
100
AcDbEntity
  8
Trimetric
  6
Continuous
 62
     2
370
    18
100
AcDbSpline
210
0.0
220
0.0
230
1.0
 70
    24
 71
     1
 72
     4
 73
     2
 74
     0
 42
0.000000001
 43
0.0000000001
 40
0.0
 40
0.0
 40
1.0
 40
1.0
 10
24.49731504631245
 20
69.1641292789336
 30
0.0
 10
24.49731504631245
 20
69.18412927941793
 30
0.0
  0
SPLINE
  5
23B
330
1F
100
AcDbEntity
  8
Trimetric
  6
Continuous
 62
     2
370
    18
100
AcDbSpline
210
0.0
220
0.0
230
1.0
 70
    24
 71
     1
 72
     4
 73
     2
 74
     0
 42
0.000000001
 43
0.0000000001
 40
0.0
 40
0.0
 40
1.0
 40
1.0
 10
103.2374764581655
 20
65.33012527984556
 30
0.0
 10
103.2374764581655
 20
65.34512528020876
 30
0.0
  0
SPLINE
  5
23C
330
1F
100
AcDbEntity
  8
Trimetric
  6
Continuous
 62
     2
370
    18
100
AcDbSpline
210
0.0
220
0.0
230
1.0
 70
    24
 71
     1
 72
     4
 73
     2
 74
     0
 42
0.000000001
 43
0.0000000001
 40
0.0
 40
0.0
 40
1.0
 40
1.0
 10
24.49731504631245
 20
65.33012527984556
 30
0.0
 10
24.49731504631245
 20
65.34512528020876
 30
0.0
  0
SPLINE
  5
23D
330
1F
100
AcDbEntity
  8
Trimetric
  6
Continuous
 62
     2
370
    18
100
AcDbSpline
210
0.0
220
0.0
230
1.0
 70
    24
 71
     1
 72
     4
 73
     2
 74
     0
 42
0.000000001
 43
0.0000000001
 40
0.0
 40
0.0
 40
1.0
 40
1.0
 10
103.2374764581655
 20
65.22012527718196
 30
0.0
 10
103.2374764581655
 20
65.23512527754521
 30
0.0
  0
SPLINE
  5
23E
330
1F
100
AcDbEntity
  8
Trimetric
  6
Continuous
 62
     2
370
    18
100
AcDbSpline
210
0.0
220
0.0
230
1.0
 70
    24
 71
     1
 72
     4
 73
     2
 74
     0
 42
0.000000001
 43
0.0000000001
 40
0.0
 40
0.0
 40
1.0
 40
1.0
 10
24.49731504631245
 20
65.22012527718196
 30
0.0
 10
24.49731504631245
 20
65.23512527754521
 30
0.0
  0
SPLINE
  5
23F
330
1F
100
AcDbEntity
  8
Trimetric
  6
Continuous
 62
     2
370
    18
100
AcDbSpline
210
0.0
220
0.0
230
1.0
 70
    24
 71
     1
 72
     4
 73
     2
 74
     0
 42
0.000000001
 43
0.0000000001
 40
0.0
 40
0.0
 40
1.0
 40
1.0
 10
103.2374764581655
 20
65.34512528020876
 30
0.0
 10
103.2374764581655
 20
65.35512528045092
 30
0.0
  0
SPLINE
  5
240
330
1F
100
AcDbEntity
  8
Trimetric
  6
Continuous
 62
     2
370
    18
100
AcDbSpline
210
0.0
220
0.0
230
1.0
 70
    24
 71
     1
 72
     4
 73
     2
 74
     0
 42
0.000000001
 43
0.0000000001
 40
0.0
 40
0.0
 40
1.0
 40
1.0
 10
24.49731504631245
 20
65.34512528020876
 30
0.0
 10
24.49731504631245
 20
65.35512528045092
 30
0.0
  0
SPLINE
  5
241
330
1F
100
AcDbEntity
  8
Trimetric
  6
Continuous
 62
     2
370
    18
100
AcDbSpline
210
0.0
220
0.0
230
1.0
 70
    24
 71
     1
 72
     4
 73
     2
 74
     0
 42
0.000000001
 43
0.0000000001
 40
0.0
 40
0.0
 40
1.0
 40
1.0
 10
103.2374764581655
 20
65.56912919188289
 30
0.0
 10
103.2374764581655
 20
65.57912919212504
 30
0.0
  0
SPLINE
  5
242
330
1F
100
AcDbEntity
  8
Trimetric
  6
Continuous
 62
     2
370
    18
100
AcDbSpline
210
0.0
220
0.0
230
1.0
 70
    24
 71
     1
 72
     4
 73
     2
 74
     0
 42
0.000000001
 43
0.0000000001
 40
0.0
 40
0.0
 40
1.0
 40
1.0
 10
24.49731504631245
 20
65.56912919188289
 30
0.0
 10
24.49731504631245
 20
65.57912919212504
 30
0.0
  0
SPLINE
  5
243
330
1F
100
AcDbEntity
  8
Trimetric
  6
Continuous
 62
    74
370
    18
100
AcDbSpline
210
0.0
220
0.0
230
1.0
 70
    24
 71
     1
 72
     4
 73
     2
 74
     0
 42
0.000000001
 43
0.0000000001
 40
0.0
 40
0.0
 40
1.0
 40
1.0
 10
24.49731504631245
 20
65.57912919212504
 30
0.0
 10
24.49731504631245
 20
65.56912919188289
 30
0.0
  0
SPLINE
  5
244
330
1F
100
AcDbEntity
  8
Trimetric
  6
Continuous
 62
    74
370
    18
100
AcDbSpline
210
0.0
220
0.0
230
1.0
 70
    24
 71
     1
 72
     4
 73
     2
 74
     0
 42
0.000000001
 43
0.0000000001
 40
0.0
 40
0.0
 40
1.0
 40
1.0
 10
24.49731504631245
 20
69.35662928359488
 30
0.0
 10
24.49731504631245
 20
69.29412928208148
 30
0.0
  0
SPLINE
  5
245
330
1F
100
AcDbEntity
  8
Trimetric
  6
Continuous
 62
    74
370
    18
100
AcDbSpline
210
0.0
220
0.0
230
1.0
 70
    24
 71
     1
 72
     4
 73
     2
 74
     0
 42
0.000000001
 43
0.0000000001
 40
0.0
 40
0.0
 40
1.0
 40
1.0
 10
24.49731504631245
 20
65.22012527718196
 30
0.0
 10
24.49731504631245
 20
65.23512527754521
 30
0.0
  0
SPLINE
  5
246
330
1F
100
AcDbEntity
  8
Trimetric
  6
Continuous
 62
    74
370
    18
100
AcDbSpline
210
0.0
220
0.0
230
1.0
 70
    24
 71
     1
 72
     4
 73
     2
 74
     0
 42
0.000000001
 43
0.0000000001
 40
0.0
 40
0.0
 40
1.0
 40
1.0
 10
24.49731504631245
 20
69.18412927941793
 30
0.0
 10
24.49731504631245
 20
69.1641292789336
 30
0.0
  0
SPLINE
  5
247
330
1F
100
AcDbEntity
  8
Trimetric
  6
Continuous
 62
    74
370
    18
100
AcDbSpline
210
0.0
220
0.0
230
1.0
 70
    24
 71
     1
 72
     6
 73
     4
 74
     0
 42
0.000000001
 43
0.0000000001
 40
0.0
 40
0.0
 40
0.313762084282035
 40
0.8120077638012766
 40
1.0
 40
1.0
 10
24.49731504631245
 20
65.92797034640536
 30
0.0
 10
24.49731504631245
 20
65.81851721875499
 30
0.0
 10
24.49731504631245
 20
65.64470862079632
 30
0.0
 10
24.49731504631245
 20
65.57912919212504
 30
0.0
  0
SPLINE
  5
248
330
1F
100
AcDbEntity
  8
Trimetric
  6
Continuous
 62
    74
370
    18
100
AcDbSpline
210
0.0
220
0.0
230
1.0
 70
    24
 71
     1
 72
     4
 73
     2
 74
     0
 42
0.000000001
 43
0.0000000001
 40
0.0
 40
0.0
 40
1.0
 40
1.0
 10
24.49731504631245
 20
65.33012527984556
 30
0.0
 10
24.49731504631245
 20
65.34512528020876
 30
0.0
  0
SPLINE
  5
249
330
1F
100
AcDbEntity
  8
Trimetric
  6
Continuous
 62
    74
370
    18
100
AcDbSpline
210
0.0
220
0.0
230
1.0
 70
    24
 71
     1
 72
     5
 73
     3
 74
     0
 42
0.000000001
 43
0.0000000001
 40
0.0
 40
0.0
 40
0.5
 40
1.0
 40
1.0
 10
24.49731504631245
 20
69.6636996035304
 30
0.0
 10
24.49731504631245
 20
69.601199602017
 30
0.0
 10
24.49731504631245
 20
69.53869960050359
 30
0.0
  0
SPLINE
  5
24A
330
1F
100
AcDbEntity
  8
Trimetric
  6
Continuous
 62
    74
370
    18
100
AcDbSpline
210
0.0
220
0.0
230
1.0
 70
    24
 71
     1
 72
     4
 73
     2
 74
     0
 42
0.000000001
 43
0.0000000001
 40
0.0
 40
0.0
 40
1.0
 40
1.0
 10
24.49731504631245
 20
69.1641292789336
 30
0.0
 10
24.49731504631245
 20
69.09459151683312
 30
0.0
  0
SPLINE
  5
24B
330
1F
100
AcDbEntity
  8
Trimetric
  6
Continuous
 62
    74
370
    18
100
AcDbSpline
210
0.0
220
0.0
230
1.0
 70
    24
 71
     1
 72
     4
 73
     2
 74
     0
 42
0.000000001
 43
0.0000000001
 40
0.0
 40
0.0
 40
1.0
 40
1.0
 10
24.49731504631245
 20
65.35512528045092
 30
0.0
 10
24.49731504631245
 20
65.34512528020876
 30
0.0
  0
SPLINE
  5
24C
330
1F
100
AcDbEntity
  8
Trimetric
  6
Continuous
 62
     2
370
    18
100
AcDbSpline
210
0.0
220
0.0
230
1.0
 70
    24
 71
     1
 72
     5
 73
     3
 74
     0
 42
0.000000001
 43
0.0000000001
 40
0.0
 40
0.0
 40
0.1466540850829598
 40
1.0
 40
1.0
 10
102.2676261742645
 20
90.26876520663609
 30
0.0
 10
102.2676261742645
 20
90.29304906139076
 30
0.0
 10
102.2676261742645
 20
90.43435114814563
 30
0.0
  0
SPLINE
  5
24D
330
1F
100
AcDbEntity
  8
Trimetric
  6
Continuous
 62
     2
370
    18
100
AcDbSpline
210
0.0
220
0.0
230
1.0
 70
    24
 71
     1
 72
     5
 73
     3
 74
     0
 42
0.000000001
 43
0.0000000001
 40
0.0
 40
0.0
 40
0.1466540850829598
 40
1.0
 40
1.0
 10
23.52746313480725
 20
90.26876520663609
 30
0.0
 10
23.52746313480725
 20
90.29304906139076
 30
0.0
 10
23.52746313480725
 20
90.43435114814563
 30
0.0
  0
SPLINE
  5
24E
330
1F
100
AcDbEntity
  8
Trimetric
  6
Continuous
 62
     2
370
    18
100
AcDbSpline
210
0.0
220
0.0
230
1.0
 70
    24
 71
     1
 72
     5
 73
     3
 74
     0
 42
0.000000001
 43
0.0000000001
 40
0.0
 40
0.0
 40
0.8533459149170401
 40
1.0
 40
1.0
 10
102.2676261742645
 20
94.96342677864777
 30
0.0
 10
102.2676261742645
 20
95.10472886540263
 30
0.0
 10
102.2676261742645
 20
95.12901272015731
 30
0.0
  0
SPLINE
  5
24F
330
1F
100
AcDbEntity
  8
Trimetric
  6
Continuous
 62
     2
370
    18
100
AcDbSpline
210
0.0
220
0.0
230
1.0
 70
    24
 71
     1
 72
     5
 73
     3
 74
     0
 42
0.000000001
 43
0.0000000001
 40
0.0
 40
0.0
 40
0.8533459149170401
 40
1.0
 40
1.0
 10
23.52746313480725
 20
94.96342677864777
 30
0.0
 10
23.52746313480725
 20
95.10472886540263
 30
0.0
 10
23.52746313480725
 20
95.12901272015731
 30
0.0
  0
SPLINE
  5
250
330
1F
100
AcDbEntity
  8
Trimetric
  6
Continuous
 62
     2
370
    18
100
AcDbSpline
210
0.0
220
0.0
230
1.0
 70
    24
 71
     1
 72
     5
 73
     3
 74
     0
 42
0.000000001
 43
0.0000000001
 40
0.0
 40
0.0
 40
0.5221048156919901
 40
1.0
 40
1.0
 10
102.2676261742645
 20
90.43435114814563
 30
0.0
 10
102.2676261742645
 20
90.54629776543972
 30
0.0
 10
102.2676261742645
 20
90.64876521583755
 30
0.0
  0
SPLINE
  5
251
330
1F
100
AcDbEntity
  8
Trimetric
  6
Continuous
 62
     2
370
    18
100
AcDbSpline
210
0.0
220
0.0
230
1.0
 70
    24
 71
     1
 72
     5
 73
     3
 74
     0
 42
0.000000001
 43
0.0000000001
 40
0.0
 40
0.0
 40
0.5221048156919901
 40
1.0
 40
1.0
 10
23.52746313480725
 20
90.43435114814563
 30
0.0
 10
23.52746313480725
 20
90.54629776543972
 30
0.0
 10
23.52746313480725
 20
90.64876521583755
 30
0.0
  0
SPLINE
  5
252
330
1F
100
AcDbEntity
  8
Trimetric
  6
Continuous
 62
     2
370
    18
100
AcDbSpline
210
0.0
220
0.0
230
1.0
 70
    24
 71
     1
 72
     5
 73
     3
 74
     0
 42
0.000000001
 43
0.0000000001
 40
0.0
 40
0.0
 40
0.124703953361268
 40
1.0
 40
1.0
 10
102.2676261742645
 20
94.74901271095587
 30
0.0
 10
102.2676261742645
 20
94.77575099285331
 30
0.0
 10
102.2676261742645
 20
94.96342677864777
 30
0.0
  0
SPLINE
  5
253
330
1F
100
AcDbEntity
  8
Trimetric
  6
Continuous
 62
     2
370
    18
100
AcDbSpline
210
0.0
220
0.0
230
1.0
 70
    24
 71
     1
 72
     5
 73
     3
 74
     0
 42
0.000000001
 43
0.0000000001
 40
0.0
 40
0.0
 40
0.124703953361268
 40
1.0
 40
1.0
 10
23.52746313480725
 20
94.74901271095587
 30
0.0
 10
23.52746313480725
 20
94.77575099285331
 30
0.0
 10
23.52746313480725
 20
94.96342677864777
 30
0.0
  0
SPLINE
  5
254
330
1F
100
AcDbEntity
  8
Trimetric
  6
Continuous
 62
     2
370
    18
100
AcDbSpline
210
0.0
220
0.0
230
1.0
 70
    24
 71
     1
 72
     4
 73
     2
 74
     0
 42
0.000000001
 43
0.0000000001
 40
0.0
 40
0.0
 40
1.0
 40
1.0
 10
102.2676261742645
 20
90.17376520433572
 30
0.0
 10
102.2676261742645
 20
90.23876520590963
 30
0.0
  0
SPLINE
  5
255
330
1F
100
AcDbEntity
  8
Trimetric
  6
Continuous
 62
     2
370
    18
100
AcDbSpline
210
0.0
220
0.0
230
1.0
 70
    24
 71
     1
 72
     4
 73
     2
 74
     0
 42
0.000000001
 43
0.0000000001
 40
0.0
 40
0.0
 40
1.0
 40
1.0
 10
23.52746313480725
 20
90.17376520433572
 30
0.0
 10
23.52746313480725
 20
90.23876520590963
 30
0.0
  0
SPLINE
  5
256
330
1F
100
AcDbEntity
  8
Trimetric
  6
Continuous
 62
     2
370
    18
100
AcDbSpline
210
0.0
220
0.0
230
1.0
 70
    24
 71
     1
 72
     4
 73
     2
 74
     0
 42
0.000000001
 43
0.0000000001
 40
0.0
 40
0.0
 40
1.0
 40
1.0
 10
102.2676261742645
 20
95.15901272088376
 30
0.0
 10
102.2676261742645
 20
95.22401272245771
 30
0.0
  0
SPLINE
  5
257
330
1F
100
AcDbEntity
  8
Trimetric
  6
Continuous
 62
     2
370
    18
100
AcDbSpline
210
0.0
220
0.0
230
1.0
 70
    24
 71
     1
 72
     4
 73
     2
 74
     0
 42
0.000000001
 43
0.0000000001
 40
0.0
 40
0.0
 40
1.0
 40
1.0
 10
23.52746313480725
 20
95.15901272088376
 30
0.0
 10
23.52746313480725
 20
95.22401272245771
 30
0.0
  0
SPLINE
  5
258
330
1F
100
AcDbEntity
  8
Trimetric
  6
Continuous
 62
     2
370
    18
100
AcDbSpline
210
0.0
220
0.0
230
1.0
 70
    24
 71
     1
 72
     4
 73
     2
 74
     0
 42
0.000000001
 43
0.0000000001
 40
0.0
 40
0.0
 40
1.0
 40
1.0
 10
102.2676261742645
 20
94.62833562470041
 30
0.0
 10
102.2676261742645
 20
94.7512457839266
 30
0.0
  0
SPLINE
  5
259
330
1F
100
AcDbEntity
  8
Trimetric
  6
Continuous
 62
     2
370
    18
100
AcDbSpline
210
0.0
220
0.0
230
1.0
 70
    24
 71
     1
 72
     4
 73
     2
 74
     0
 42
0.000000001
 43
0.0000000001
 40
0.0
 40
0.0
 40
1.0
 40
1.0
 10
23.52746313480725
 20
94.62833562470041
 30
0.0
 10
23.52746313480725
 20
94.7512457839266
 30
0.0
  0
SPLINE
  5
25A
330
1F
100
AcDbEntity
  8
Trimetric
  6
Continuous
 62
     2
370
    18
100
AcDbSpline
210
0.0
220
0.0
230
1.0
 70
    24
 71
     1
 72
     4
 73
     2
 74
     0
 42
0.000000001
 43
0.0000000001
 40
0.0
 40
0.0
 40
1.0
 40
1.0
 10
102.2676261742645
 20
90.6465321428668
 30
0.0
 10
102.2676261742645
 20
90.76944230209299
 30
0.0
  0
SPLINE
  5
25B
330
1F
100
AcDbEntity
  8
Trimetric
  6
Continuous
 62
     2
370
    18
100
AcDbSpline
210
0.0
220
0.0
230
1.0
 70
    24
 71
     1
 72
     4
 73
     2
 74
     0
 42
0.000000001
 43
0.0000000001
 40
0.0
 40
0.0
 40
1.0
 40
1.0
 10
23.52746313480725
 20
90.6465321428668
 30
0.0
 10
23.52746313480725
 20
90.76944230209299
 30
0.0
  0
SPLINE
  5
25C
330
1F
100
AcDbEntity
  8
Trimetric
  6
Continuous
 62
    74
370
    18
100
AcDbSpline
210
0.0
220
0.0
230
1.0
 70
    24
 71
     1
 72
     4
 73
     2
 74
     0
 42
0.000000001
 43
0.0000000001
 40
0.0
 40
0.0
 40
1.0
 40
1.0
 10
23.52746313480725
 20
95.15901272088376
 30
0.0
 10
23.52746313480725
 20
95.2238499620371
 30
0.0
  0
SPLINE
  5
25D
330
1F
100
AcDbEntity
  8
Trimetric
  6
Continuous
 62
    74
370
    18
100
AcDbSpline
210
0.0
220
0.0
230
1.0
 70
    24
 71
     1
 72
     5
 73
     3
 74
     0
 42
0.000000001
 43
0.0000000001
 40
0.0
 40
0.0
 40
0.124703953361268
 40
1.0
 40
1.0
 10
23.52746313480725
 20
90.64876521583755
 30
0.0
 10
23.52746313480725
 20
90.62202693394011
 30
0.0
 10
23.52746313480725
 20
90.43435114814563
 30
0.0
  0
SPLINE
  5
25E
330
1F
100
AcDbEntity
  8
Trimetric
  6
Continuous
 62
    74
370
    18
100
AcDbSpline
210
0.0
220
0.0
230
1.0
 70
    24
 71
     1
 72
     4
 73
     2
 74
     0
 42
0.000000001
 43
0.0000000001
 40
0.0
 40
0.0
 40
1.0
 40
1.0
 10
23.52746313480725
 20
94.74901271095587
 30
0.0
 10
23.52746313480725
 20
94.62833562470041
 30
0.0
  0
SPLINE
  5
25F
330
1F
100
AcDbEntity
  8
Trimetric
  6
Continuous
 62
    74
370
    18
100
AcDbSpline
210
0.0
220
0.0
230
1.0
 70
    24
 71
     1
 72
     4
 73
     2
 74
     0
 42
0.000000001
 43
0.0000000001
 40
0.0
 40
0.0
 40
1.0
 40
1.0
 10
23.52746313480725
 20
90.64876521583755
 30
0.0
 10
23.52746313480725
 20
90.76944230209299
 30
0.0
  0
SPLINE
  5
260
330
1F
100
AcDbEntity
  8
Trimetric
  6
Continuous
 62
    74
370
    18
100
AcDbSpline
210
0.0
220
0.0
230
1.0
 70
    24
 71
     1
 72
     5
 73
     3
 74
     0
 42
0.000000001
 43
0.0000000001
 40
0.0
 40
0.0
 40
0.124703953361268
 40
1.0
 40
1.0
 10
23.52746313480725
 20
94.74901271095587
 30
0.0
 10
23.52746313480725
 20
94.77575099285331
 30
0.0
 10
23.52746313480725
 20
94.96342677864777
 30
0.0
  0
SPLINE
  5
261
330
1F
100
AcDbEntity
  8
Trimetric
  6
Continuous
 62
    74
370
    18
100
AcDbSpline
210
0.0
220
0.0
230
1.0
 70
    24
 71
     1
 72
     5
 73
     3
 74
     0
 42
0.000000001
 43
0.0000000001
 40
0.0
 40
0.0
 40
0.8533459149170401
 40
1.0
 40
1.0
 10
23.52746313480725
 20
90.43435114814563
 30
0.0
 10
23.52746313480725
 20
90.29304906139076
 30
0.0
 10
23.52746313480725
 20
90.26876520663609
 30
0.0
  0
SPLINE
  5
262
330
1F
100
AcDbEntity
  8
Trimetric
  6
Continuous
 62
    74
370
    18
100
AcDbSpline
210
0.0
220
0.0
230
1.0
 70
    24
 71
     1
 72
     5
 73
     3
 74
     0
 42
0.000000001
 43
0.0000000001
 40
0.0
 40
0.0
 40
0.8533459149170401
 40
1.0
 40
1.0
 10
23.52746313480725
 20
94.96342677864777
 30
0.0
 10
23.52746313480725
 20
95.10472886540263
 30
0.0
 10
23.52746313480725
 20
95.12901272015731
 30
0.0
  0
SPLINE
  5
263
330
1F
100
AcDbEntity
  8
Trimetric
  6
Continuous
 62
    74
370
    18
100
AcDbSpline
210
0.0
220
0.0
230
1.0
 70
    24
 71
     1
 72
     4
 73
     2
 74
     0
 42
0.000000001
 43
0.0000000001
 40
0.0
 40
0.0
 40
1.0
 40
1.0
 10
23.52746313480725
 20
90.23876520590963
 30
0.0
 10
23.52746313480725
 20
90.17392796475631
 30
0.0
  0
SPLINE
  5
264
330
1F
100
AcDbEntity
  8
Trimetric
  6
Continuous
 62
     2
370
    18
100
AcDbSpline
210
0.0
220
0.0
230
1.0
 70
    24
 71
     1
 72
     4
 73
     2
 74
     0
 42
0.000000001
 43
0.0000000001
 40
0.0
 40
0.0
 40
1.0
 40
1.0
 10
102.2676261742645
 20
45.04865994499232
 30
0.0
 10
102.2676261742645
 20
45.12365994680839
 30
0.0
  0
SPLINE
  5
265
330
1F
100
AcDbEntity
  8
Trimetric
  6
Continuous
 62
     2
370
    18
100
AcDbSpline
210
0.0
220
0.0
230
1.0
 70
    24
 71
     1
 72
     4
 73
     2
 74
     0
 42
0.000000001
 43
0.0000000001
 40
0.0
 40
0.0
 40
1.0
 40
1.0
 10
23.52746313480725
 20
45.04865994499232
 30
0.0
 10
23.52746313480725
 20
45.12365994680839
 30
0.0
  0
SPLINE
  5
266
330
1F
100
AcDbEntity
  8
Trimetric
  6
Continuous
 62
     2
370
    18
100
AcDbSpline
210
0.0
220
0.0
230
1.0
 70
    24
 71
     1
 72
     4
 73
     2
 74
     0
 42
0.000000001
 43
0.0000000001
 40
0.0
 40
0.0
 40
1.0
 40
1.0
 10
102.2676261742645
 20
46.25865997429172
 30
0.0
 10
102.2676261742645
 20
46.27365997465496
 30
0.0
  0
SPLINE
  5
267
330
1F
100
AcDbEntity
  8
Trimetric
  6
Continuous
 62
     2
370
    18
100
AcDbSpline
210
0.0
220
0.0
230
1.0
 70
    24
 71
     1
 72
     4
 73
     2
 74
     0
 42
0.000000001
 43
0.0000000001
 40
0.0
 40
0.0
 40
1.0
 40
1.0
 10
23.52746313480725
 20
46.25865997429172
 30
0.0
 10
23.52746313480725
 20
46.27365997465496
 30
0.0
  0
SPLINE
  5
268
330
1F
100
AcDbEntity
  8
Trimetric
  6
Continuous
 62
     2
370
    18
100
AcDbSpline
210
0.0
220
0.0
230
1.0
 70
    24
 71
     1
 72
     4
 73
     2
 74
     0
 42
0.000000001
 43
0.0000000001
 40
0.0
 40
0.0
 40
1.0
 40
1.0
 10
102.2676261742645
 20
43.01395611968156
 30
0.0
 10
102.2676261742645
 20
43.02895612004475
 30
0.0
  0
SPLINE
  5
269
330
1F
100
AcDbEntity
  8
Trimetric
  6
Continuous
 62
     2
370
    18
100
AcDbSpline
210
0.0
220
0.0
230
1.0
 70
    24
 71
     1
 72
     4
 73
     2
 74
     0
 42
0.000000001
 43
0.0000000001
 40
0.0
 40
0.0
 40
1.0
 40
1.0
 10
23.52746313480725
 20
43.01395611968156
 30
0.0
 10
23.52746313480725
 20
43.02895612004475
 30
0.0
  0
SPLINE
  5
26A
330
1F
100
AcDbEntity
  8
Trimetric
  6
Continuous
 62
     2
370
    18
100
AcDbSpline
210
0.0
220
0.0
230
1.0
 70
    24
 71
     1
 72
     4
 73
     2
 74
     0
 42
0.000000001
 43
0.0000000001
 40
0.0
 40
0.0
 40
1.0
 40
1.0
 10
102.2676261742645
 20
45.38365995310415
 30
0.0
 10
102.2676261742645
 20
45.39865995346736
 30
0.0
  0
SPLINE
  5
26B
330
1F
100
AcDbEntity
  8
Trimetric
  6
Continuous
 62
     2
370
    18
100
AcDbSpline
210
0.0
220
0.0
230
1.0
 70
    24
 71
     1
 72
     4
 73
     2
 74
     0
 42
0.000000001
 43
0.0000000001
 40
0.0
 40
0.0
 40
1.0
 40
1.0
 10
23.52746313480725
 20
45.38365995310415
 30
0.0
 10
23.52746313480725
 20
45.39865995346736
 30
0.0
  0
SPLINE
  5
26C
330
1F
100
AcDbEntity
  8
Trimetric
  6
Continuous
 62
     2
370
    18
100
AcDbSpline
210
0.0
220
0.0
230
1.0
 70
    24
 71
     1
 72
     4
 73
     2
 74
     0
 42
0.000000001
 43
0.0000000001
 40
0.0
 40
0.0
 40
1.0
 40
1.0
 10
102.2676261742645
 20
43.28895612634052
 30
0.0
 10
102.2676261742645
 20
43.36395612815659
 30
0.0
  0
SPLINE
  5
26D
330
1F
100
AcDbEntity
  8
Trimetric
  6
Continuous
 62
     2
370
    18
100
AcDbSpline
210
0.0
220
0.0
230
1.0
 70
    24
 71
     1
 72
     4
 73
     2
 74
     0
 42
0.000000001
 43
0.0000000001
 40
0.0
 40
0.0
 40
1.0
 40
1.0
 10
23.52746313480725
 20
43.28895612634052
 30
0.0
 10
23.52746313480725
 20
43.36395612815659
 30
0.0
  0
SPLINE
  5
26E
330
1F
100
AcDbEntity
  8
Trimetric
  6
Continuous
 62
     2
370
    18
100
AcDbSpline
210
0.0
220
0.0
230
1.0
 70
    24
 71
     1
 72
     4
 73
     2
 74
     0
 42
0.000000001
 43
0.0000000001
 40
0.0
 40
0.0
 40
1.0
 40
1.0
 10
102.2676261742645
 20
42.69895611205404
 30
0.0
 10
102.2676261742645
 20
42.71395611241724
 30
0.0
  0
SPLINE
  5
26F
330
1F
100
AcDbEntity
  8
Trimetric
  6
Continuous
 62
     2
370
    18
100
AcDbSpline
210
0.0
220
0.0
230
1.0
 70
    24
 71
     1
 72
     4
 73
     2
 74
     0
 42
0.000000001
 43
0.0000000001
 40
0.0
 40
0.0
 40
1.0
 40
1.0
 10
23.52746313480725
 20
42.69895611205404
 30
0.0
 10
23.52746313480725
 20
42.71395611241724
 30
0.0
  0
SPLINE
  5
270
330
1F
100
AcDbEntity
  8
Trimetric
  6
Continuous
 62
     2
370
    18
100
AcDbSpline
210
0.0
220
0.0
230
1.0
 70
    24
 71
     1
 72
     4
 73
     2
 74
     0
 42
0.000000001
 43
0.0000000001
 40
0.0
 40
0.0
 40
1.0
 40
1.0
 10
102.2676261742645
 20
42.13895609849396
 30
0.0
 10
102.2676261742645
 20
42.15395609885716
 30
0.0
  0
SPLINE
  5
271
330
1F
100
AcDbEntity
  8
Trimetric
  6
Continuous
 62
     2
370
    18
100
AcDbSpline
210
0.0
220
0.0
230
1.0
 70
    24
 71
     1
 72
     4
 73
     2
 74
     0
 42
0.000000001
 43
0.0000000001
 40
0.0
 40
0.0
 40
1.0
 40
1.0
 10
23.52746313480725
 20
42.13895609849396
 30
0.0
 10
23.52746313480725
 20
42.15395609885716
 30
0.0
  0
SPLINE
  5
272
330
1F
100
AcDbEntity
  8
Trimetric
  6
Continuous
 62
     2
370
    18
100
AcDbSpline
210
0.0
220
0.0
230
1.0
 70
    24
 71
     1
 72
     4
 73
     2
 74
     0
 42
0.000000001
 43
0.0000000001
 40
0.0
 40
0.0
 40
1.0
 40
1.0
 10
102.2676261742645
 20
45.69865996073168
 30
0.0
 10
102.2676261742645
 20
45.71365996109488
 30
0.0
  0
SPLINE
  5
273
330
1F
100
AcDbEntity
  8
Trimetric
  6
Continuous
 62
     2
370
    18
100
AcDbSpline
210
0.0
220
0.0
230
1.0
 70
    24
 71
     1
 72
     4
 73
     2
 74
     0
 42
0.000000001
 43
0.0000000001
 40
0.0
 40
0.0
 40
1.0
 40
1.0
 10
23.52746313480725
 20
45.69865996073168
 30
0.0
 10
23.52746313480725
 20
45.71365996109488
 30
0.0
  0
SPLINE
  5
274
330
1F
100
AcDbEntity
  8
Trimetric
  6
Continuous
 62
     2
370
    18
100
AcDbSpline
210
0.0
220
0.0
230
1.0
 70
    24
 71
     1
 72
     4
 73
     2
 74
     0
 42
0.000000001
 43
0.0000000001
 40
0.0
 40
0.0
 40
1.0
 40
1.0
 10
102.2676261742645
 20
45.03365994462911
 30
0.0
 10
102.2676261742645
 20
45.04865994499232
 30
0.0
  0
SPLINE
  5
275
330
1F
100
AcDbEntity
  8
Trimetric
  6
Continuous
 62
     2
370
    18
100
AcDbSpline
210
0.0
220
0.0
230
1.0
 70
    24
 71
     1
 72
     4
 73
     2
 74
     0
 42
0.000000001
 43
0.0000000001
 40
0.0
 40
0.0
 40
1.0
 40
1.0
 10
23.52746313480725
 20
45.03365994462911
 30
0.0
 10
23.52746313480725
 20
45.04865994499232
 30
0.0
  0
SPLINE
  5
276
330
1F
100
AcDbEntity
  8
Trimetric
  6
Continuous
 62
     2
370
    18
100
AcDbSpline
210
0.0
220
0.0
230
1.0
 70
    24
 71
     1
 72
     4
 73
     2
 74
     0
 42
0.000000001
 43
0.0000000001
 40
0.0
 40
0.0
 40
1.0
 40
1.0
 10
102.2676261742645
 20
43.36395612815659
 30
0.0
 10
102.2676261742645
 20
43.37895612851979
 30
0.0
  0
SPLINE
  5
277
330
1F
100
AcDbEntity
  8
Trimetric
  6
Continuous
 62
     2
370
    18
100
AcDbSpline
210
0.0
220
0.0
230
1.0
 70
    24
 71
     1
 72
     4
 73
     2
 74
     0
 42
0.000000001
 43
0.0000000001
 40
0.0
 40
0.0
 40
1.0
 40
1.0
 10
23.52746313480725
 20
43.36395612815659
 30
0.0
 10
23.52746313480725
 20
43.37895612851979
 30
0.0
  0
SPLINE
  5
278
330
1F
100
AcDbEntity
  8
Trimetric
  6
Continuous
 62
     2
370
    18
100
AcDbSpline
210
0.0
220
0.0
230
1.0
 70
    24
 71
     1
 72
     5
 73
     3
 74
     0
 42
0.000000001
 43
0.0000000001
 40
0.0
 40
0.0
 40
0.8494893388281671
 40
1.0
 40
1.0
 10
102.2676261742645
 20
46.27366648507176
 30
0.0
 10
102.2676261742645
 20
46.4742947451382
 30
0.0
 10
102.2676261742645
 20
46.50984162099896
 30
0.0
  0
SPLINE
  5
279
330
1F
100
AcDbEntity
  8
Trimetric
  6
Continuous
 62
     2
370
    18
100
AcDbSpline
210
0.0
220
0.0
230
1.0
 70
    24
 71
     1
 72
     5
 73
     3
 74
     0
 42
0.000000001
 43
0.0000000001
 40
0.0
 40
0.0
 40
0.8494893388281671
 40
1.0
 40
1.0
 10
23.52746313480725
 20
46.27366648507176
 30
0.0
 10
23.52746313480725
 20
46.4742947451382
 30
0.0
 10
23.52746313480725
 20
46.50984162099896
 30
0.0
  0
SPLINE
  5
27A
330
1F
100
AcDbEntity
  8
Trimetric
  6
Continuous
 62
     2
370
    18
100
AcDbSpline
210
0.0
220
0.0
230
1.0
 70
    24
 71
     1
 72
     5
 73
     3
 74
     0
 42
0.000000001
 43
0.0000000001
 40
0.0
 40
0.0
 40
0.1504968781442532
 40
1.0
 40
1.0
 10
102.2676261742645
 20
41.90277770735839
 30
0.0
 10
102.2676261742645
 20
41.93832132801071
 30
0.0
 10
102.2676261742645
 20
42.13895284328556
 30
0.0
  0
SPLINE
  5
27B
330
1F
100
AcDbEntity
  8
Trimetric
  6
Continuous
 62
     2
370
    18
100
AcDbSpline
210
0.0
220
0.0
230
1.0
 70
    24
 71
     1
 72
     5
 73
     3
 74
     0
 42
0.000000001
 43
0.0000000001
 40
0.0
 40
0.0
 40
0.1504968781442532
 40
1.0
 40
1.0
 10
23.52746313480725
 20
41.90277770735839
 30
0.0
 10
23.52746313480725
 20
41.93832132801071
 30
0.0
 10
23.52746313480725
 20
42.13895284328556
 30
0.0
  0
SPLINE
  5
27C
330
1F
100
AcDbEntity
  8
Trimetric
  6
Continuous
 62
     2
370
    18
100
AcDbSpline
210
0.0
220
0.0
230
1.0
 70
    24
 71
     1
 72
     4
 73
     2
 74
     0
 42
0.000000001
 43
0.0000000001
 40
0.0
 40
0.0
 40
1.0
 40
1.0
 10
102.2676261742645
 20
46.73127066281904
 30
0.0
 10
102.2676261742645
 20
46.73143016803124
 30
0.0
  0
SPLINE
  5
27D
330
1F
100
AcDbEntity
  8
Trimetric
  6
Continuous
 62
     2
370
    18
100
AcDbSpline
210
0.0
220
0.0
230
1.0
 70
    24
 71
     1
 72
     4
 73
     2
 74
     0
 42
0.000000001
 43
0.0000000001
 40
0.0
 40
0.0
 40
1.0
 40
1.0
 10
23.52746313480725
 20
46.73127066281904
 30
0.0
 10
23.52746313480725
 20
46.73143016803124
 30
0.0
  0
SPLINE
  5
27E
330
1F
100
AcDbEntity
  8
Trimetric
  6
Continuous
 62
     2
370
    18
100
AcDbSpline
210
0.0
220
0.0
230
1.0
 70
    24
 71
     1
 72
     4
 73
     2
 74
     0
 42
0.000000001
 43
0.0000000001
 40
0.0
 40
0.0
 40
1.0
 40
1.0
 10
102.2676261742645
 20
41.68118916032607
 30
0.0
 10
102.2676261742645
 20
41.68134541032988
 30
0.0
  0
SPLINE
  5
27F
330
1F
100
AcDbEntity
  8
Trimetric
  6
Continuous
 62
     2
370
    18
100
AcDbSpline
210
0.0
220
0.0
230
1.0
 70
    24
 71
     1
 72
     4
 73
     2
 74
     0
 42
0.000000001
 43
0.0000000001
 40
0.0
 40
0.0
 40
1.0
 40
1.0
 10
23.52746313480725
 20
41.68118916032607
 30
0.0
 10
23.52746313480725
 20
41.68134541032988
 30
0.0
  0
SPLINE
  5
280
330
1F
100
AcDbEntity
  8
Trimetric
  6
Continuous
 62
    74
370
    18
100
AcDbSpline
210
0.0
220
0.0
230
1.0
 70
    24
 71
     1
 72
     4
 73
     2
 74
     0
 42
0.000000001
 43
0.0000000001
 40
0.0
 40
0.0
 40
1.0
 40
1.0
 10
23.52746313480725
 20
43.02895612004475
 30
0.0
 10
23.52746313480725
 20
43.01395611968156
 30
0.0
  0
SPLINE
  5
281
330
1F
100
AcDbEntity
  8
Trimetric
  6
Continuous
 62
    74
370
    18
100
AcDbSpline
210
0.0
220
0.0
230
1.0
 70
    24
 71
     1
 72
     4
 73
     2
 74
     0
 42
0.000000001
 43
0.0000000001
 40
0.0
 40
0.0
 40
1.0
 40
1.0
 10
23.52746313480725
 20
46.25865997429172
 30
0.0
 10
23.52746313480725
 20
46.27365997465496
 30
0.0
  0
SPLINE
  5
282
330
1F
100
AcDbEntity
  8
Trimetric
  6
Continuous
 62
    74
370
    18
100
AcDbSpline
210
0.0
220
0.0
230
1.0
 70
    24
 71
     1
 72
     4
 73
     2
 74
     0
 42
0.000000001
 43
0.0000000001
 40
0.0
 40
0.0
 40
1.0
 40
1.0
 10
23.52746313480725
 20
45.12365994680839
 30
0.0
 10
23.52746313480725
 20
45.04865994499232
 30
0.0
  0
SPLINE
  5
283
330
1F
100
AcDbEntity
  8
Trimetric
  6
Continuous
 62
    74
370
    18
100
AcDbSpline
210
0.0
220
0.0
230
1.0
 70
    24
 71
     1
 72
     5
 73
     3
 74
     0
 42
0.000000001
 43
0.0000000001
 40
0.0
 40
0.0
 40
0.150510661171833
 40
1.0
 40
1.0
 10
23.52746313480725
 20
46.50984162099896
 30
0.0
 10
23.52746313480725
 20
46.4742947451382
 30
0.0
 10
23.52746313480725
 20
46.27366648507176
 30
0.0
  0
SPLINE
  5
284
330
1F
100
AcDbEntity
  8
Trimetric
  6
Continuous
 62
    74
370
    18
100
AcDbSpline
210
0.0
220
0.0
230
1.0
 70
    24
 71
     1
 72
     5
 73
     3
 74
     0
 42
0.000000001
 43
0.0000000001
 40
0.0
 40
0.0
 40
0.1504968781442532
 40
1.0
 40
1.0
 10
23.52746313480725
 20
41.90277770735839
 30
0.0
 10
23.52746313480725
 20
41.93832132801071
 30
0.0
 10
23.52746313480725
 20
42.13895284328556
 30
0.0
  0
SPLINE
  5
285
330
1F
100
AcDbEntity
  8
Trimetric
  6
Continuous
 62
    74
370
    18
100
AcDbSpline
210
0.0
220
0.0
230
1.0
 70
    24
 71
     1
 72
     4
 73
     2
 74
     0
 42
0.000000001
 43
0.0000000001
 40
0.0
 40
0.0
 40
1.0
 40
1.0
 10
23.52746313480725
 20
42.71395611241724
 30
0.0
 10
23.52746313480725
 20
42.69895611205404
 30
0.0
  0
SPLINE
  5
286
330
1F
100
AcDbEntity
  8
Trimetric
  6
Continuous
 62
    74
370
    18
100
AcDbSpline
210
0.0
220
0.0
230
1.0
 70
    24
 71
     1
 72
     4
 73
     2
 74
     0
 42
0.000000001
 43
0.0000000001
 40
0.0
 40
0.0
 40
1.0
 40
1.0
 10
23.52746313480725
 20
45.38365995310415
 30
0.0
 10
23.52746313480725
 20
45.39865995346736
 30
0.0
  0
SPLINE
  5
287
330
1F
100
AcDbEntity
  8
Trimetric
  6
Continuous
 62
    74
370
    18
100
AcDbSpline
210
0.0
220
0.0
230
1.0
 70
    24
 71
     1
 72
     4
 73
     2
 74
     0
 42
0.000000001
 43
0.0000000001
 40
0.0
 40
0.0
 40
1.0
 40
1.0
 10
23.52746313480725
 20
46.73143016803124
 30
0.0
 10
23.52746313480725
 20
46.73127066281904
 30
0.0
  0
SPLINE
  5
288
330
1F
100
AcDbEntity
  8
Trimetric
  6
Continuous
 62
    74
370
    18
100
AcDbSpline
210
0.0
220
0.0
230
1.0
 70
    24
 71
     1
 72
     4
 73
     2
 74
     0
 42
0.000000001
 43
0.0000000001
 40
0.0
 40
0.0
 40
1.0
 40
1.0
 10
23.52746313480725
 20
43.37895612851979
 30
0.0
 10
23.52746313480725
 20
43.36395612815659
 30
0.0
  0
SPLINE
  5
289
330
1F
100
AcDbEntity
  8
Trimetric
  6
Continuous
 62
    74
370
    18
100
AcDbSpline
210
0.0
220
0.0
230
1.0
 70
    24
 71
     1
 72
     4
 73
     2
 74
     0
 42
0.000000001
 43
0.0000000001
 40
0.0
 40
0.0
 40
1.0
 40
1.0
 10
23.52746313480725
 20
42.15395609885716
 30
0.0
 10
23.52746313480725
 20
42.13895609849396
 30
0.0
  0
SPLINE
  5
28A
330
1F
100
AcDbEntity
  8
Trimetric
  6
Continuous
 62
    74
370
    18
100
AcDbSpline
210
0.0
220
0.0
230
1.0
 70
    24
 71
     1
 72
     4
 73
     2
 74
     0
 42
0.000000001
 43
0.0000000001
 40
0.0
 40
0.0
 40
1.0
 40
1.0
 10
23.52746313480725
 20
45.69865996073168
 30
0.0
 10
23.52746313480725
 20
45.71365996109488
 30
0.0
  0
SPLINE
  5
28B
330
1F
100
AcDbEntity
  8
Trimetric
  6
Continuous
 62
    74
370
    18
100
AcDbSpline
210
0.0
220
0.0
230
1.0
 70
    24
 71
     1
 72
     4
 73
     2
 74
     0
 42
0.000000001
 43
0.0000000001
 40
0.0
 40
0.0
 40
1.0
 40
1.0
 10
23.52746313480725
 20
45.03365994462911
 30
0.0
 10
23.52746313480725
 20
45.04865994499232
 30
0.0
  0
SPLINE
  5
28C
330
1F
100
AcDbEntity
  8
Trimetric
  6
Continuous
 62
    74
370
    18
100
AcDbSpline
210
0.0
220
0.0
230
1.0
 70
    24
 71
     1
 72
     4
 73
     2
 74
     0
 42
0.000000001
 43
0.0000000001
 40
0.0
 40
0.0
 40
1.0
 40
1.0
 10
23.52746313480725
 20
43.28895612634052
 30
0.0
 10
23.52746313480725
 20
43.36395612815659
 30
0.0
  0
SPLINE
  5
28D
330
1F
100
AcDbEntity
  8
Trimetric
  6
Continuous
 62
     2
370
    18
100
AcDbSpline
210
0.0
220
0.0
230
1.0
 70
    24
 71
     1
 72
     4
 73
     2
 74
     0
 42
0.000000001
 43
0.0000000001
 40
0.0
 40
0.0
 40
1.0
 40
1.0
 10
132.8378157165862
 20
69.1641292789336
 30
0.0
 10
132.8378157165862
 20
69.09459151683312
 30
0.0
  0
SPLINE
  5
28E
330
1F
100
AcDbEntity
  8
Trimetric
  6
Continuous
 62
     2
370
    18
100
AcDbSpline
210
0.0
220
0.0
230
1.0
 70
    24
 71
     1
 72
     4
 73
     2
 74
     0
 42
0.000000001
 43
0.0000000001
 40
0.0
 40
0.0
 40
1.0
 40
1.0
 10
211.5779868940645
 20
69.1641292789336
 30
0.0
 10
211.5779868940645
 20
69.09459151683312
 30
0.0
  0
SPLINE
  5
28F
330
1F
100
AcDbEntity
  8
Trimetric
  6
Continuous
 62
     2
370
    18
100
AcDbSpline
210
0.0
220
0.0
230
1.0
 70
    24
 71
     1
 72
     5
 73
     3
 74
     0
 42
0.000000001
 43
0.0000000001
 40
0.0
 40
0.0
 40
0.1339583333333333
 40
1.0
 40
1.0
 10
132.8378157165862
 20
69.6636996035304
 30
0.0
 10
132.8378157165862
 20
69.64695481145828
 30
0.0
 10
132.8378157165862
 20
69.53869960050359
 30
0.0
  0
SPLINE
  5
290
330
1F
100
AcDbEntity
  8
Trimetric
  6
Continuous
 62
     2
370
    18
100
AcDbSpline
210
0.0
220
0.0
230
1.0
 70
    24
 71
     1
 72
     5
 73
     3
 74
     0
 42
0.000000001
 43
0.0000000001
 40
0.0
 40
0.0
 40
0.1339583333333333
 40
1.0
 40
1.0
 10
211.5779868940645
 20
69.6636996035304
 30
0.0
 10
211.5779868940645
 20
69.64695481145828
 30
0.0
 10
211.5779868940645
 20
69.53869960050359
 30
0.0
  0
SPLINE
  5
291
330
1F
100
AcDbEntity
  8
Trimetric
  6
Continuous
 62
     2
370
    18
100
AcDbSpline
210
0.0
220
0.0
230
1.0
 70
    24
 71
     1
 72
     4
 73
     2
 74
     0
 42
0.000000001
 43
0.0000000001
 40
0.0
 40
0.0
 40
1.0
 40
1.0
 10
132.8378157165862
 20
69.35662928359488
 30
0.0
 10
132.8378157165862
 20
69.29412928208148
 30
0.0
  0
SPLINE
  5
292
330
1F
100
AcDbEntity
  8
Trimetric
  6
Continuous
 62
     2
370
    18
100
AcDbSpline
210
0.0
220
0.0
230
1.0
 70
    24
 71
     1
 72
     4
 73
     2
 74
     0
 42
0.000000001
 43
0.0000000001
 40
0.0
 40
0.0
 40
1.0
 40
1.0
 10
211.5779868940645
 20
69.35662928359488
 30
0.0
 10
211.5779868940645
 20
69.29412928208148
 30
0.0
  0
SPLINE
  5
293
330
1F
100
AcDbEntity
  8
Trimetric
  6
Continuous
 62
     2
370
    18
100
AcDbSpline
210
0.0
220
0.0
230
1.0
 70
    24
 71
     1
 72
     6
 73
     4
 74
     0
 42
0.000000001
 43
0.0000000001
 40
0.0
 40
0.0
 40
0.313762084282035
 40
0.8120077638012766
 40
1.0
 40
1.0
 10
132.8378157165862
 20
65.92797034640536
 30
0.0
 10
132.8378157165862
 20
65.81851721875499
 30
0.0
 10
132.8378157165862
 20
65.64470862079632
 30
0.0
 10
132.8378157165862
 20
65.57912919212504
 30
0.0
  0
SPLINE
  5
294
330
1F
100
AcDbEntity
  8
Trimetric
  6
Continuous
 62
     2
370
    18
100
AcDbSpline
210
0.0
220
0.0
230
1.0
 70
    24
 71
     1
 72
     6
 73
     4
 74
     0
 42
0.000000001
 43
0.0000000001
 40
0.0
 40
0.0
 40
0.313762084282035
 40
0.8120077638012766
 40
1.0
 40
1.0
 10
211.5779868940645
 20
65.92797034640536
 30
0.0
 10
211.5779868940645
 20
65.81851721875499
 30
0.0
 10
211.5779868940645
 20
65.64470862079632
 30
0.0
 10
211.5779868940645
 20
65.57912919212504
 30
0.0
  0
SPLINE
  5
295
330
1F
100
AcDbEntity
  8
Trimetric
  6
Continuous
 62
     2
370
    18
100
AcDbSpline
210
0.0
220
0.0
230
1.0
 70
    24
 71
     1
 72
     4
 73
     2
 74
     0
 42
0.000000001
 43
0.0000000001
 40
0.0
 40
0.0
 40
1.0
 40
1.0
 10
132.8378157165862
 20
69.18412927941793
 30
0.0
 10
132.8378157165862
 20
69.1641292789336
 30
0.0
  0
SPLINE
  5
296
330
1F
100
AcDbEntity
  8
Trimetric
  6
Continuous
 62
     2
370
    18
100
AcDbSpline
210
0.0
220
0.0
230
1.0
 70
    24
 71
     1
 72
     4
 73
     2
 74
     0
 42
0.000000001
 43
0.0000000001
 40
0.0
 40
0.0
 40
1.0
 40
1.0
 10
211.5779868940645
 20
69.18412927941793
 30
0.0
 10
211.5779868940645
 20
69.1641292789336
 30
0.0
  0
SPLINE
  5
297
330
1F
100
AcDbEntity
  8
Trimetric
  6
Continuous
 62
     2
370
    18
100
AcDbSpline
210
0.0
220
0.0
230
1.0
 70
    24
 71
     1
 72
     4
 73
     2
 74
     0
 42
0.000000001
 43
0.0000000001
 40
0.0
 40
0.0
 40
1.0
 40
1.0
 10
132.8378157165862
 20
65.34512528020876
 30
0.0
 10
132.8378157165862
 20
65.33012527984556
 30
0.0
  0
SPLINE
  5
298
330
1F
100
AcDbEntity
  8
Trimetric
  6
Continuous
 62
     2
370
    18
100
AcDbSpline
210
0.0
220
0.0
230
1.0
 70
    24
 71
     1
 72
     4
 73
     2
 74
     0
 42
0.000000001
 43
0.0000000001
 40
0.0
 40
0.0
 40
1.0
 40
1.0
 10
211.5779868940645
 20
65.34512528020876
 30
0.0
 10
211.5779868940645
 20
65.33012527984556
 30
0.0
  0
SPLINE
  5
299
330
1F
100
AcDbEntity
  8
Trimetric
  6
Continuous
 62
     2
370
    18
100
AcDbSpline
210
0.0
220
0.0
230
1.0
 70
    24
 71
     1
 72
     4
 73
     2
 74
     0
 42
0.000000001
 43
0.0000000001
 40
0.0
 40
0.0
 40
1.0
 40
1.0
 10
132.8378157165862
 20
65.23512527754521
 30
0.0
 10
132.8378157165862
 20
65.22012527718196
 30
0.0
  0
SPLINE
  5
29A
330
1F
100
AcDbEntity
  8
Trimetric
  6
Continuous
 62
     2
370
    18
100
AcDbSpline
210
0.0
220
0.0
230
1.0
 70
    24
 71
     1
 72
     4
 73
     2
 74
     0
 42
0.000000001
 43
0.0000000001
 40
0.0
 40
0.0
 40
1.0
 40
1.0
 10
211.5779868940645
 20
65.23512527754521
 30
0.0
 10
211.5779868940645
 20
65.22012527718196
 30
0.0
  0
SPLINE
  5
29B
330
1F
100
AcDbEntity
  8
Trimetric
  6
Continuous
 62
     2
370
    18
100
AcDbSpline
210
0.0
220
0.0
230
1.0
 70
    24
 71
     1
 72
     4
 73
     2
 74
     0
 42
0.000000001
 43
0.0000000001
 40
0.0
 40
0.0
 40
1.0
 40
1.0
 10
132.8378157165862
 20
65.57912919212504
 30
0.0
 10
132.8378157165862
 20
65.56912919188289
 30
0.0
  0
SPLINE
  5
29C
330
1F
100
AcDbEntity
  8
Trimetric
  6
Continuous
 62
     2
370
    18
100
AcDbSpline
210
0.0
220
0.0
230
1.0
 70
    24
 71
     1
 72
     4
 73
     2
 74
     0
 42
0.000000001
 43
0.0000000001
 40
0.0
 40
0.0
 40
1.0
 40
1.0
 10
211.5779868940645
 20
65.57912919212504
 30
0.0
 10
211.5779868940645
 20
65.56912919188289
 30
0.0
  0
SPLINE
  5
29D
330
1F
100
AcDbEntity
  8
Trimetric
  6
Continuous
 62
     2
370
    18
100
AcDbSpline
210
0.0
220
0.0
230
1.0
 70
    24
 71
     1
 72
     4
 73
     2
 74
     0
 42
0.000000001
 43
0.0000000001
 40
0.0
 40
0.0
 40
1.0
 40
1.0
 10
132.8378157165862
 20
65.35512528045092
 30
0.0
 10
132.8378157165862
 20
65.34512528020876
 30
0.0
  0
SPLINE
  5
29E
330
1F
100
AcDbEntity
  8
Trimetric
  6
Continuous
 62
     2
370
    18
100
AcDbSpline
210
0.0
220
0.0
230
1.0
 70
    24
 71
     1
 72
     4
 73
     2
 74
     0
 42
0.000000001
 43
0.0000000001
 40
0.0
 40
0.0
 40
1.0
 40
1.0
 10
211.5779868940645
 20
65.35512528045092
 30
0.0
 10
211.5779868940645
 20
65.34512528020876
 30
0.0
  0
SPLINE
  5
29F
330
1F
100
AcDbEntity
  8
Trimetric
  6
Continuous
 62
    74
370
    18
100
AcDbSpline
210
0.0
220
0.0
230
1.0
 70
    24
 71
     1
 72
     4
 73
     2
 74
     0
 42
0.000000001
 43
0.0000000001
 40
0.0
 40
0.0
 40
1.0
 40
1.0
 10
211.5779868940645
 20
65.35512528045092
 30
0.0
 10
211.5779868940645
 20
65.34512528020876
 30
0.0
  0
SPLINE
  5
2A0
330
1F
100
AcDbEntity
  8
Trimetric
  6
Continuous
 62
    74
370
    18
100
AcDbSpline
210
0.0
220
0.0
230
1.0
 70
    24
 71
     1
 72
     4
 73
     2
 74
     0
 42
0.000000001
 43
0.0000000001
 40
0.0
 40
0.0
 40
1.0
 40
1.0
 10
211.5779868940645
 20
69.1641292789336
 30
0.0
 10
211.5779868940645
 20
69.09459151683312
 30
0.0
  0
SPLINE
  5
2A1
330
1F
100
AcDbEntity
  8
Trimetric
  6
Continuous
 62
    74
370
    18
100
AcDbSpline
210
0.0
220
0.0
230
1.0
 70
    24
 71
     1
 72
     4
 73
     2
 74
     0
 42
0.000000001
 43
0.0000000001
 40
0.0
 40
0.0
 40
1.0
 40
1.0
 10
211.5779868940645
 20
69.35662928359488
 30
0.0
 10
211.5779868940645
 20
69.29412928208148
 30
0.0
  0
SPLINE
  5
2A2
330
1F
100
AcDbEntity
  8
Trimetric
  6
Continuous
 62
    74
370
    18
100
AcDbSpline
210
0.0
220
0.0
230
1.0
 70
    24
 71
     1
 72
     4
 73
     2
 74
     0
 42
0.000000001
 43
0.0000000001
 40
0.0
 40
0.0
 40
1.0
 40
1.0
 10
211.5779868940645
 20
65.57912919212504
 30
0.0
 10
211.5779868940645
 20
65.56912919188289
 30
0.0
  0
SPLINE
  5
2A3
330
1F
100
AcDbEntity
  8
Trimetric
  6
Continuous
 62
    74
370
    18
100
AcDbSpline
210
0.0
220
0.0
230
1.0
 70
    24
 71
     1
 72
     6
 73
     4
 74
     0
 42
0.000000001
 43
0.0000000001
 40
0.0
 40
0.0
 40
0.313762084282035
 40
0.8120077638012766
 40
1.0
 40
1.0
 10
211.5779868940645
 20
65.92797034640536
 30
0.0
 10
211.5779868940645
 20
65.81851721875499
 30
0.0
 10
211.5779868940645
 20
65.64470862079632
 30
0.0
 10
211.5779868940645
 20
65.57912919212504
 30
0.0
  0
SPLINE
  5
2A4
330
1F
100
AcDbEntity
  8
Trimetric
  6
Continuous
 62
    74
370
    18
100
AcDbSpline
210
0.0
220
0.0
230
1.0
 70
    24
 71
     1
 72
     5
 73
     3
 74
     0
 42
0.000000001
 43
0.0000000001
 40
0.0
 40
0.0
 40
0.1339583333333333
 40
1.0
 40
1.0
 10
211.5779868940645
 20
69.6636996035304
 30
0.0
 10
211.5779868940645
 20
69.64695481145828
 30
0.0
 10
211.5779868940645
 20
69.53869960050359
 30
0.0
  0
SPLINE
  5
2A5
330
1F
100
AcDbEntity
  8
Trimetric
  6
Continuous
 62
    74
370
    18
100
AcDbSpline
210
0.0
220
0.0
230
1.0
 70
    24
 71
     1
 72
     4
 73
     2
 74
     0
 42
0.000000001
 43
0.0000000001
 40
0.0
 40
0.0
 40
1.0
 40
1.0
 10
211.5779868940645
 20
69.18412927941793
 30
0.0
 10
211.5779868940645
 20
69.1641292789336
 30
0.0
  0
SPLINE
  5
2A6
330
1F
100
AcDbEntity
  8
Trimetric
  6
Continuous
 62
    74
370
    18
100
AcDbSpline
210
0.0
220
0.0
230
1.0
 70
    24
 71
     1
 72
     4
 73
     2
 74
     0
 42
0.000000001
 43
0.0000000001
 40
0.0
 40
0.0
 40
1.0
 40
1.0
 10
211.5779868940645
 20
65.22012527718196
 30
0.0
 10
211.5779868940645
 20
65.23512527754521
 30
0.0
  0
SPLINE
  5
2A7
330
1F
100
AcDbEntity
  8
Trimetric
  6
Continuous
 62
    74
370
    18
100
AcDbSpline
210
0.0
220
0.0
230
1.0
 70
    24
 71
     1
 72
     4
 73
     2
 74
     0
 42
0.000000001
 43
0.0000000001
 40
0.0
 40
0.0
 40
1.0
 40
1.0
 10
211.5779868940645
 20
65.33012527984556
 30
0.0
 10
211.5779868940645
 20
65.34512528020876
 30
0.0
  0
ENDSEC
  0
SECTION
  2
OBJECTS
  0
DICTIONARY
  5
C
330
0
100
AcDbDictionary
281
     1
  3
ACAD_BACKGROUND
350
315
  3
ACAD_CIP_PREVIOUS_PRODUCT_INFO
350
30C
  3
ACAD_COLOR
350
305
  3
ACAD_DETAILVIEWSTYLE
350
308
  3
ACAD_GROUP
350
D
  3
ACAD_LAYOUT
350
1A
  3
ACAD_MATERIAL
350
43
  3
ACAD_MLEADERSTYLE
350
6B
  3
ACAD_MLINESTYLE
350
17
  3
ACAD_PLOTSETTINGS
350
19
  3
ACAD_PLOTSTYLENAME
350
E
  3
ACAD_RENDER_ACTIVE_RAPIDRT_SETTINGS
350
314
  3
ACAD_RENDER_ACTIVE_SETTINGS
350
37E
  3
ACAD_SCALELIST
350
47
  3
ACAD_SECTIONVIEWSTYLE
350
306
  3
ACAD_TABLESTYLE
350
69
  3
ACAD_VISUALSTYLE
350
2A
  3
ACDB_RECOMPOSE_DATA
350
341
  3
AcDbVariableDictionary
350
2BF
  3
DWGPROPS
350
342
  0
DICTIONARY
  5
333
330
10
100
AcDbDictionary
280
     1
281
     1
  3
ADSK_XREC_LAYER_RECONCILED
360
334
  0
DICTIONARY
  5
335
330
74
100
AcDbDictionary
280
     1
281
     1
  3
ADSK_XREC_LAYER_RECONCILED
360
336
  0
DICTIONARY
  5
337
330
76
100
AcDbDictionary
280
     1
281
     1
  3
ADSK_XREC_LAYER_RECONCILED
360
338
  0
DICTIONARY
  5
315
102
{ACAD_REACTORS
330
C
102
}
330
C
100
AcDbDictionary
281
     1
  0
XRECORD
  5
30C
102
{ACAD_REACTORS
330
C
102
}
330
C
100
AcDbXrecord
280
     1
300
ACD
300
2017
300
ACD_F_S
  0
DICTIONARY
  5
305
102
{ACAD_REACTORS
330
C
102
}
330
C
100
AcDbDictionary
281
     1
  0
DICTIONARY
  5
308
102
{ACAD_REACTORS
330
C
102
}
330
C
100
AcDbDictionary
281
     1
  3
Imperial24
350
309
  0
DICTIONARY
  5
D
102
{ACAD_REACTORS
330
C
102
}
330
C
100
AcDbDictionary
281
     1
  0
DICTIONARY
  5
1A
102
{ACAD_REACTORS
330
C
102
}
330
C
100
AcDbDictionary
281
     1
  3
Layout1
350
1E
  3
Layout2
350
26
  3
Model
350
22
  0
DICTIONARY
  5
43
102
{ACAD_REACTORS
330
C
102
}
330
C
100
AcDbDictionary
281
     1
  3
ByBlock
350
45
  3
ByLayer
350
44
  3
Global
350
46
  0
DICTIONARY
  5
6B
102
{ACAD_REACTORS
330
C
102
}
330
C
100
AcDbDictionary
281
     1
  3
Standard
350
6C
  0
DICTIONARY
  5
17
102
{ACAD_REACTORS
330
C
102
}
330
C
100
AcDbDictionary
281
     1
  3
Standard
350
18
  0
DICTIONARY
  5
19
102
{ACAD_REACTORS
330
C
102
}
330
C
100
AcDbDictionary
281
     1
  0
ACDBDICTIONARYWDFLT
  5
E
102
{ACAD_REACTORS
330
C
102
}
330
C
100
AcDbDictionary
281
     1
  3
Normal
350
F
100
AcDbDictionaryWithDefault
340
F
  0
RAPIDRTRENDERSETTINGS
  5
314
102
{ACAD_REACTORS
330
C
102
}
330
C
100
AcDbRenderSettings
 90
        2
  1
Medium
290
     1
290
     0
290
     1
290
     1
  1

  1
Applies 5 rendering levels
 90
        0
100
AcDbRapidRTRenderSettings
 90
        3
 70
     0
 90
        5
 90
        1
 70
     1
 70
     2
 40
3.0
 40
3.0
290
     1
  0
MENTALRAYRENDERSETTINGS
  5
37E
102
{ACAD_XDICTIONARY
360
37F
102
}
102
{ACAD_REACTORS
330
C
102
}
330
C
100
AcDbRenderSettings
 90
        2
  1
Medium
290
     1
290
     1
290
     1
290
     1
  1

  1

 90
        0
100
AcDbMentalRayRenderSettings
 90
        2
 90
        0
 90
        1
 70
     2
 40
3.0
 40
3.0
 40
0.0500000007450581
 40
0.0500000007450581
 40
0.0500000007450581
 40
0.0500000007450581
 70
     0
290
     0
290
     1
 90
        5
 90
        5
 90
        5
290
     0
 90
      500
290
     0
 40
1.0
 90
    10000
 90
        5
 90
        5
 90
        5
290
     0
 90
      200
290
     0
290
     0
290
     0
 40
1.0
 40
1.0
 40
1500.0
 70
     0
 70
     0
 40
10.0
 70
     0
 70
     0
290
     0
  1

 90
       32
 70
     0
 90
     1048
290
     0
 40
1.0
  0
DICTIONARY
  5
47
102
{ACAD_REACTORS
330
C
102
}
330
C
100
AcDbDictionary
281
     1
  3
A0
350
48
  3
A1
350
49
  3
A2
350
4A
  3
A3
350
4B
  3
A4
350
4C
  3
A5
350
4D
  3
A6
350
4E
  3
A7
350
4F
  3
A8
350
50
  3
A9
350
51
  3
B0
350
52
  3
B1
350
53
  3
B2
350
54
  3
B3
350
55
  3
B4
350
56
  3
B5
350
57
  3
B6
350
58
  3
B7
350
59
  3
B8
350
5A
  3
B9
350
5B
  3
C0
350
5C
  3
C1
350
5D
  3
C2
350
5E
  3
C3
350
5F
  3
C4
350
60
  3
C5
350
61
  3
C6
350
62
  3
C7
350
63
  3
C8
350
64
  3
C9
350
65
  3
D0
350
66
  3
D1
350
67
  3
D2
350
68
  0
DICTIONARY
  5
306
102
{ACAD_REACTORS
330
C
102
}
330
C
100
AcDbDictionary
281
     1
  3
Imperial24
350
307
  0
DICTIONARY
  5
69
102
{ACAD_REACTORS
330
C
102
}
330
C
100
AcDbDictionary
281
     1
  3
Standard
350
6A
  0
DICTIONARY
  5
2A
102
{ACAD_REACTORS
330
C
102
}
330
C
100
AcDbDictionary
281
     1
  3
2dWireframe
350
2F
  3
Basic
350
32
  3
Brighten
350
36
  3
ColorChange
350
3A
  3
Conceptual
350
34
  3
Dim
350
35
  3
EdgeColorOff
350
3D
  3
Facepattern
350
39
  3
Flat
350
2B
  3
FlatWithEdges
350
2C
  3
Gouraud
350
2D
  3
GouraudWithEdges
350
2E
  3
Hidden
350
31
  3
JitterOff
350
3B
  3
Linepattern
350
38
  3
OverhangOff
350
3C
  3
Realistic
350
33
  3
Shaded
350
42
  3
Shaded with edges
350
41
  3
Shades of Gray
350
3E
  3
Sketchy
350
3F
  3
Thicken
350
37
  3
Wireframe
350
30
  3
X-Ray
350
40
  0
XRECORD
  5
341
102
{ACAD_REACTORS
330
C
102
}
330
C
100
AcDbXrecord
280
     1
 90
        1
330
6A
  0
DICTIONARY
  5
2BF
102
{ACAD_REACTORS
330
C
102
}
330
C
100
AcDbDictionary
281
     1
  3
CANNOSCALE
350
2C8
  3
CMLEADERSTYLE
350
2C1
  3
CTABLESTYLE
350
2C0
  3
CVIEWDETAILSTYLE
350
339
  3
CVIEWSECTIONSTYLE
350
33A
  3
DIMASSOC
350
2C4
  3
HIDETEXT
350
2C5
  3
INDEXCTL
350
33C
  3
MSLTSCALE
350
2C9
  3
SORTENTS
350
33B
  3
XCLIPFRAME
350
33D
  0
XRECORD
  5
342
102
{ACAD_REACTORS
330
C
102
}
330
C
100
AcDbXrecord
280
     1
  1
DWGPROPS COOKIE
  2

  3

  4

  6

  7

  8
MEX-JAGC
  9

300
=
301
=
302
=
303
=
304
=
305
=
306
=
307
=
308
=
309
=
 40
0.000763900462963
 41
2459138.329039352
 42
2459138.398622685
  1

 90
        0
  0
XRECORD
  5
334
102
{ACAD_REACTORS
330
333
102
}
330
333
100
AcDbXrecord
280
     1
290
     1
  0
XRECORD
  5
336
102
{ACAD_REACTORS
330
335
102
}
330
335
100
AcDbXrecord
280
     1
290
     1
  0
XRECORD
  5
338
102
{ACAD_REACTORS
330
337
102
}
330
337
100
AcDbXrecord
280
     1
290
     1
  0
ACDBDETAILVIEWSTYLE
  5
309
102
{ACAD_XDICTIONARY
360
37C
102
}
102
{ACAD_REACTORS
330
308
102
}
330
308
100
AcDbModelDocViewStyle
 70
     0
  3
Imperial24
290
     0
100
AcDbDetailViewStyle
 70
     0
 71
     0
 90
        3
 71
     1
340
11
 40
0.24
340
0
 40
0.24
300

 40
0.36
280
     3
 71
     2
340
16
 90
       25
 71
     3
340
11
 40
0.24
 90
        1
 40
0.75
 90
        1
300
%<\AcVar ViewType \f "%tc1">% %<\AcVar ViewDetailId>%\PSCALE %<\AcVar ViewScale \f "%sn">%
 71
     4
340
16
 90
       25
340
16
 90
       25
280
     0
  0
LAYOUT
  5
1E
102
{ACAD_XDICTIONARY
360
343
102
}
102
{ACAD_REACTORS
330
1A
102
}
330
1A
100
AcDbPlotSettings
  1

  2
none_device
  4

  6

 40
0.0
 41
0.0
 42
0.0
 43
0.0
 44
0.0
 45
0.0
 46
0.0
 47
0.0
 48
0.0
 49
0.0
140
0.0
141
0.0
142
1.0
143
1.0
 70
   688
 72
     0
 73
     0
 74
     5
  7

 75
    16
147
1.0
148
0.0
149
0.0
100
AcDbLayout
  1
Layout1
 70
     1
 71
     1
 10
-0.5
 20
-0.5
 11
5.0
 21
5.0
 12
0.0
 22
0.0
 32
0.0
 14
-0.5
 24
-0.5
 34
-0.5
 15
5.0
 25
5.0
 35
5.0
146
0.0
 13
0.0
 23
0.0
 33
0.0
 16
1.0
 26
0.0
 36
0.0
 17
0.0
 27
1.0
 37
0.0
 76
     0
330
1B
  0
LAYOUT
  5
26
102
{ACAD_XDICTIONARY
360
347
102
}
102
{ACAD_REACTORS
330
1A
102
}
330
1A
100
AcDbPlotSettings
  1

  2
none_device
  4

  6

 40
0.0
 41
0.0
 42
0.0
 43
0.0
 44
0.0
 45
0.0
 46
0.0
 47
0.0
 48
0.0
 49
0.0
140
0.0
141
0.0
142
1.0
143
1.0
 70
   688
 72
     0
 73
     0
 74
     5
  7

 75
    16
147
1.0
148
0.0
149
0.0
100
AcDbLayout
  1
Layout2
 70
     1
 71
     2
 10
0.0
 20
0.0
 11
0.0
 21
0.0
 12
0.0
 22
0.0
 32
0.0
 14
0.0
 24
0.0
 34
0.0
 15
0.0
 25
0.0
 35
0.0
146
0.0
 13
0.0
 23
0.0
 33
0.0
 16
1.0
 26
0.0
 36
0.0
 17
0.0
 27
1.0
 37
0.0
 76
     0
330
23
  0
LAYOUT
  5
22
102
{ACAD_XDICTIONARY
360
345
102
}
102
{ACAD_REACTORS
330
1A
102
}
330
1A
100
AcDbPlotSettings
  1

  2
none_device
  4
Letter_(8.50_x_11.00_Inches)
  6

 40
6.349999999999999
 41
6.349999999999999
 42
6.350005
 43
6.350005
 44
215.9
 45
279.4
 46
0.0
 47
0.0
 48
0.0
 49
0.0
140
0.0
141
0.0
142
1.0
143
1.0
 70
  1712
 72
     0
 73
     0
 74
     0
  7

 75
     0
147
1.0
148
0.0
149
0.0
100
AcDbLayout
  1
Model
 70
     1
 71
     0
 10
-0.5
 20
-0.5
 11
5.0
 21
5.0
 12
0.0
 22
0.0
 32
0.0
 14
-0.5
 24
-0.5
 34
-0.5
 15
5.0
 25
5.0
 35
5.0
146
0.0
 13
0.0
 23
0.0
 33
0.0
 16
1.0
 26
0.0
 36
0.0
 17
0.0
 27
1.0
 37
0.0
 76
     0
330
1F
331
29
  0
MATERIAL
  5
45
102
{ACAD_XDICTIONARY
360
2FC
102
}
102
{ACAD_REACTORS
330
43
102
}
330
43
100
AcDbMaterial
  1
ByBlock
  0
MATERIAL
  5
44
102
{ACAD_XDICTIONARY
360
2FA
102
}
102
{ACAD_REACTORS
330
43
102
}
330
43
100
AcDbMaterial
  1
ByLayer
  0
MATERIAL
  5
46
102
{ACAD_XDICTIONARY
360
2FE
102
}
102
{ACAD_REACTORS
330
43
102
}
330
43
100
AcDbMaterial
  1
Global
  0
MLEADERSTYLE
  5
6C
102
{ACAD_REACTORS
330
6B
102
}
330
6B
100
AcDbMLeaderStyle
170
     2
171
     1
172
     0
 90
        2
 40
0.0
 41
0.0
173
     1
 91
-1056964608
340
14
 92
       -2
290
     1
 42
0.09
291
     1
 43
0.36
  3
Standard
 44
0.18
300

342
11
174
     1
178
     6
175
     1
176
     0
 93
-1056964608
 45
0.18
292
     0
297
     0
 46
0.18
 94
-1056964608
 47
1.0
 49
1.0
140
1.0
293
     1
141
0.0
294
     1
177
     0
142
1.0
295
     0
296
     0
143
0.125
1001
ACAD_MLEADERVER
1070
     2
  0
MLINESTYLE
  5
18
102
{ACAD_REACTORS
330
17
102
}
330
17
100
AcDbMlineStyle
  2
STANDARD
 70
     0
  3

 62
   256
 51
90.0
 52
90.0
 71
     2
 49
0.5
 62
   256
  6
BYLAYER
 49
-0.5
 62
   256
  6
BYLAYER
  0
ACDBPLACEHOLDER
  5
F
102
{ACAD_REACTORS
330
E
102
}
330
E
  0
DICTIONARY
  5
37F
330
37E
100
AcDbDictionary
280
     1
281
     1
  3
ADSK_XREC_MENTALRAYSETTINGSINFO
360
380
  0
SCALE
  5
48
102
{ACAD_REACTORS
330
47
102
}
330
47
100
AcDbScale
 70
     0
300
1:1
140
1.0
141
1.0
290
     1
  0
SCALE
  5
49
102
{ACAD_REACTORS
330
47
102
}
330
47
100
AcDbScale
 70
     0
300
1:2
140
1.0
141
2.0
290
     0
  0
SCALE
  5
4A
102
{ACAD_REACTORS
330
47
102
}
330
47
100
AcDbScale
 70
     0
300
1:4
140
1.0
141
4.0
290
     0
  0
SCALE
  5
4B
102
{ACAD_REACTORS
330
47
102
}
330
47
100
AcDbScale
 70
     0
300
1:5
140
1.0
141
5.0
290
     0
  0
SCALE
  5
4C
102
{ACAD_REACTORS
330
47
102
}
330
47
100
AcDbScale
 70
     0
300
1:8
140
1.0
141
8.0
290
     0
  0
SCALE
  5
4D
102
{ACAD_REACTORS
330
47
102
}
330
47
100
AcDbScale
 70
     0
300
1:10
140
1.0
141
10.0
290
     0
  0
SCALE
  5
4E
102
{ACAD_REACTORS
330
47
102
}
330
47
100
AcDbScale
 70
     0
300
1:16
140
1.0
141
16.0
290
     0
  0
SCALE
  5
4F
102
{ACAD_REACTORS
330
47
102
}
330
47
100
AcDbScale
 70
     0
300
1:20
140
1.0
141
20.0
290
     0
  0
SCALE
  5
50
102
{ACAD_REACTORS
330
47
102
}
330
47
100
AcDbScale
 70
     0
300
1:30
140
1.0
141
30.0
290
     0
  0
SCALE
  5
51
102
{ACAD_REACTORS
330
47
102
}
330
47
100
AcDbScale
 70
     0
300
1:40
140
1.0
141
40.0
290
     0
  0
SCALE
  5
52
102
{ACAD_REACTORS
330
47
102
}
330
47
100
AcDbScale
 70
     0
300
1:50
140
1.0
141
50.0
290
     0
  0
SCALE
  5
53
102
{ACAD_REACTORS
330
47
102
}
330
47
100
AcDbScale
 70
     0
300
1:100
140
1.0
141
100.0
290
     0
  0
SCALE
  5
54
102
{ACAD_REACTORS
330
47
102
}
330
47
100
AcDbScale
 70
     0
300
2:1
140
2.0
141
1.0
290
     0
  0
SCALE
  5
55
102
{ACAD_REACTORS
330
47
102
}
330
47
100
AcDbScale
 70
     0
300
4:1
140
4.0
141
1.0
290
     0
  0
SCALE
  5
56
102
{ACAD_REACTORS
330
47
102
}
330
47
100
AcDbScale
 70
     0
300
8:1
140
8.0
141
1.0
290
     0
  0
SCALE
  5
57
102
{ACAD_REACTORS
330
47
102
}
330
47
100
AcDbScale
 70
     0
300
10:1
140
10.0
141
1.0
290
     0
  0
SCALE
  5
58
102
{ACAD_REACTORS
330
47
102
}
330
47
100
AcDbScale
 70
     0
300
100:1
140
100.0
141
1.0
290
     0
  0
SCALE
  5
59
102
{ACAD_REACTORS
330
47
102
}
330
47
100
AcDbScale
 70
     0
300
1/128" = 1'-0"
140
0.007812
141
12.0
290
     0
  0
SCALE
  5
5A
102
{ACAD_REACTORS
330
47
102
}
330
47
100
AcDbScale
 70
     0
300
1/64" = 1'-0"
140
0.015625
141
12.0
290
     0
  0
SCALE
  5
5B
102
{ACAD_REACTORS
330
47
102
}
330
47
100
AcDbScale
 70
     0
300
1/32" = 1'-0"
140
0.03125
141
12.0
290
     0
  0
SCALE
  5
5C
102
{ACAD_REACTORS
330
47
102
}
330
47
100
AcDbScale
 70
     0
300
1/16" = 1'-0"
140
0.0625
141
12.0
290
     0
  0
SCALE
  5
5D
102
{ACAD_REACTORS
330
47
102
}
330
47
100
AcDbScale
 70
     0
300
3/32" = 1'-0"
140
0.09375
141
12.0
290
     0
  0
SCALE
  5
5E
102
{ACAD_REACTORS
330
47
102
}
330
47
100
AcDbScale
 70
     0
300
1/8" = 1'-0"
140
0.125
141
12.0
290
     0
  0
SCALE
  5
5F
102
{ACAD_REACTORS
330
47
102
}
330
47
100
AcDbScale
 70
     0
300
3/16" = 1'-0"
140
0.1875
141
12.0
290
     0
  0
SCALE
  5
60
102
{ACAD_REACTORS
330
47
102
}
330
47
100
AcDbScale
 70
     0
300
1/4" = 1'-0"
140
0.25
141
12.0
290
     0
  0
SCALE
  5
61
102
{ACAD_REACTORS
330
47
102
}
330
47
100
AcDbScale
 70
     0
300
3/8" = 1'-0"
140
0.375
141
12.0
290
     0
  0
SCALE
  5
62
102
{ACAD_REACTORS
330
47
102
}
330
47
100
AcDbScale
 70
     0
300
1/2" = 1'-0"
140
0.5
141
12.0
290
     0
  0
SCALE
  5
63
102
{ACAD_REACTORS
330
47
102
}
330
47
100
AcDbScale
 70
     0
300
3/4" = 1'-0"
140
0.75
141
12.0
290
     0
  0
SCALE
  5
64
102
{ACAD_REACTORS
330
47
102
}
330
47
100
AcDbScale
 70
     0
300
1" = 1'-0"
140
1.0
141
12.0
290
     0
  0
SCALE
  5
65
102
{ACAD_REACTORS
330
47
102
}
330
47
100
AcDbScale
 70
     0
300
1-1/2" = 1'-0"
140
1.5
141
12.0
290
     0
  0
SCALE
  5
66
102
{ACAD_REACTORS
330
47
102
}
330
47
100
AcDbScale
 70
     0
300
3" = 1'-0"
140
3.0
141
12.0
290
     0
  0
SCALE
  5
67
102
{ACAD_REACTORS
330
47
102
}
330
47
100
AcDbScale
 70
     0
300
6" = 1'-0"
140
6.0
141
12.0
290
     0
  0
SCALE
  5
68
102
{ACAD_REACTORS
330
47
102
}
330
47
100
AcDbScale
 70
     0
300
1'-0" = 1'-0"
140
12.0
141
12.0
290
     0
  0
ACDBSECTIONVIEWSTYLE
  5
307
102
{ACAD_XDICTIONARY
360
37A
102
}
102
{ACAD_REACTORS
330
306
102
}
330
306
100
AcDbModelDocViewStyle
 70
     0
  3
Imperial24
290
     0
100
AcDbSectionViewStyle
 70
     0
 71
     0
 90
       78
 71
     1
340
11
 40
0.24
340
0
340
0
 40
0.24
300
I, O, Q, S, X, Z
 40
0.48
 90
        3
 40
0.18
 90
        1
 71
     2
340
16
 90
       25
340
16
 90
       50
 40
0.24
 40
0.0
 40
0.24
 71
     3
340
11
 40
0.24
 90
        1
 40
0.75
 90
        1
300
%<\AcVar ViewType \f "%tc1">% %<\AcVar ViewSectionStartId>%-%<\AcVar ViewSectionEndId>%\PSCALE %<\AcVar ViewScale \f "%sn">%
 71
     4
300
ANSI31
 40
1.0
 90
        0
290
     0
290
     0
 90
        6
 40
0.0
 40
1.570796326794896
 40
0.2617993877991494
 40
1.308996938995747
 40
-0.2617993877991494
 40
1.832595714594046
  0
TABLESTYLE
  5
6A
102
{ACAD_XDICTIONARY
360
33F
102
}
102
{ACAD_REACTORS
330
69
102
}
330
69
100
AcDbTableStyle
  3
Standard
 70
     0
 71
     0
 40
0.06
 41
0.06
280
     0
281
     0
  7
Standard
140
0.18
170
     2
 62
     0
 63
     7
283
     0
274
    -2
284
     1
 64
     0
275
    -2
285
     1
 65
     0
276
    -2
286
     1
 66
     0
277
    -2
287
     1
 67
     0
278
    -2
288
     1
 68
     0
279
    -2
289
     1
 69
     0
  7
Standard
140
0.25
170
     5
 62
     0
 63
     7
283
     0
274
    -2
284
     1
 64
     0
275
    -2
285
     1
 65
     0
276
    -2
286
     1
 66
     0
277
    -2
287
     1
 67
     0
278
    -2
288
     1
 68
     0
279
    -2
289
     1
 69
     0
  7
Standard
140
0.18
170
     5
 62
     0
 63
     7
283
     0
274
    -2
284
     1
 64
     0
275
    -2
285
     1
 65
     0
276
    -2
286
     1
 66
     0
277
    -2
287
     1
 67
     0
278
    -2
288
     1
 68
     0
279
    -2
289
     1
 69
     0
  0
VISUALSTYLE
  5
2F
102
{ACAD_XDICTIONARY
360
351
102
}
102
{ACAD_REACTORS
330
2A
102
}
330
2A
100
AcDbVisualStyle
  2

 70
     4
 71
     0
 72
     2
 73
     0
 90
        0
 40
-0.6
 41
-30.0
 62
     5
 63
     7
 74
     1
 91
        4
 64
     7
 65
   257
 75
     1
175
     1
 42
1.0
 92
        0
 66
   257
 43
1.0
 76
     1
 77
     6
 78
     2
 67
     7
 79
     5
170
     0
171
     0
290
     0
174
     0
 93
        1
 44
0.0
173
     0
291
     0
 45
0.0
1001
ACAD
1000
AcDbSavedByObjectVersion
1070
     0
  0
VISUALSTYLE
  5
32
102
{ACAD_XDICTIONARY
360
357
102
}
102
{ACAD_REACTORS
330
2A
102
}
330
2A
100
AcDbVisualStyle
  2

 70
     7
 71
     1
 72
     0
 73
     1
 90
        0
 40
-0.6
 41
-30.0
 62
     5
 63
     7
 74
     0
 91
        4
 64
     7
 65
   257
 75
     1
175
     1
 42
1.0
 92
        8
 66
     7
 43
1.0
 76
     1
 77
     6
 78
     2
 67
     7
 79
     5
170
     0
171
     0
290
     0
174
     0
 93
        1
 44
0.0
173
     0
291
     1
 45
0.0
1001
ACAD
1000
AcDbSavedByObjectVersion
1070
     0
  0
VISUALSTYLE
  5
36
102
{ACAD_XDICTIONARY
360
35F
102
}
102
{ACAD_REACTORS
330
2A
102
}
330
2A
100
AcDbVisualStyle
  2

 70
    12
 71
     2
 72
     2
 73
     0
 90
        0
 40
-0.6
 41
-30.0
 62
     5
 63
     7
 74
     1
 91
        4
 64
     7
 65
   257
 75
     1
175
     1
 42
1.0
 92
        8
 66
     7
 43
1.0
 76
     1
 77
     6
 78
     2
 67
     7
 79
     5
170
     0
171
     0
290
     0
174
     0
 93
        1
 44
50.0
173
     0
291
     1
 45
0.0
1001
ACAD
1000
AcDbSavedByObjectVersion
1070
     0
  0
VISUALSTYLE
  5
3A
102
{ACAD_XDICTIONARY
360
367
102
}
102
{ACAD_REACTORS
330
2A
102
}
330
2A
100
AcDbVisualStyle
  2

 70
    16
 71
     2
 72
     2
 73
     3
 90
        0
 40
-0.6
 41
-30.0
 62
     5
 63
     8
 74
     1
 91
        4
 64
     7
 65
   257
 75
     1
175
     1
 42
1.0
 92
        8
 66
     8
 43
1.0
 76
     1
 77
     6
 78
     2
 67
     7
 79
     5
170
     0
171
     0
290
     0
174
     0
 93
        1
 44
0.0
173
     0
291
     1
 45
0.0
1001
ACAD
1000
AcDbSavedByObjectVersion
1070
     0
  0
VISUALSTYLE
  5
34
102
{ACAD_XDICTIONARY
360
35B
102
}
102
{ACAD_REACTORS
330
2A
102
}
330
2A
100
AcDbVisualStyle
  2

 70
     9
 71
     3
 72
     2
 73
     0
 90
        0
 40
-0.6
 41
-30.0
 62
     5
 63
     7
 74
     2
 91
        2
 64
     7
 65
   257
 75
     1
175
     1
 42
179.0
 92
        8
 66
     7
 43
1.0
 76
     1
 77
     6
 78
     2
 67
     7
 79
     3
170
     0
171
     0
290
     0
174
     0
 93
        1
 44
0.0
173
     0
291
     0
 45
0.0
1001
ACAD
1000
AcDbSavedByObjectVersion
1070
     0
  0
VISUALSTYLE
  5
35
102
{ACAD_XDICTIONARY
360
35D
102
}
102
{ACAD_REACTORS
330
2A
102
}
330
2A
100
AcDbVisualStyle
  2

 70
    11
 71
     2
 72
     2
 73
     0
 90
        0
 40
-0.6
 41
-30.0
 62
     5
 63
     7
 74
     1
 91
        4
 64
     7
 65
   257
 75
     1
175
     1
 42
1.0
 92
        8
 66
     7
 43
1.0
 76
     1
 77
     6
 78
     2
 67
     7
 79
     5
170
     0
171
     0
290
     0
174
     0
 93
        1
 44
-50.0
173
     0
291
     1
 45
0.0
1001
ACAD
1000
AcDbSavedByObjectVersion
1070
     0
  0
VISUALSTYLE
  5
3D
102
{ACAD_XDICTIONARY
360
36D
102
}
102
{ACAD_REACTORS
330
2A
102
}
330
2A
100
AcDbVisualStyle
  2

 70
    22
 71
     2
 72
     2
 73
     0
 90
        0
 40
-0.6
 41
-30.0
 62
     5
 63
     7
 74
     1
 91
        4
 64
     7
 65
   257
 75
     1
175
     1
 42
1.0
 92
        8
 66
     7
 43
1.0
 76
     1
 77
     6
 78
     2
 67
     7
 79
     5
170
     0
171
     0
290
     0
174
     0
 93
        1
 44
0.0
173
     0
291
     1
 45
0.0
1001
ACAD
1000
AcDbSavedByObjectVersion
1070
     0
  0
VISUALSTYLE
  5
39
102
{ACAD_XDICTIONARY
360
365
102
}
102
{ACAD_REACTORS
330
2A
102
}
330
2A
100
AcDbVisualStyle
  2

 70
    15
 71
     2
 72
     2
 73
     0
 90
        0
 40
-0.6
 41
-30.0
 62
     5
 63
     7
 74
     1
 91
        4
 64
     7
 65
   257
 75
     1
175
     1
 42
1.0
 92
        8
 66
     7
 43
1.0
 76
     1
 77
     6
 78
     2
 67
     7
 79
     5
170
     0
171
     0
290
     0
174
     0
 93
        1
 44
0.0
173
     0
291
     1
 45
0.0
1001
ACAD
1000
AcDbSavedByObjectVersion
1070
     0
  0
VISUALSTYLE
  5
2B
102
{ACAD_XDICTIONARY
360
349
102
}
102
{ACAD_REACTORS
330
2A
102
}
330
2A
100
AcDbVisualStyle
  2

 70
     0
 71
     2
 72
     1
 73
     1
 90
        2
 40
-0.6
 41
30.0
 62
     5
 63
     7
 74
     0
 91
        0
 64
     7
 65
   257
 75
     1
175
     1
 42
1.0
 92
        8
 66
     7
 43
1.0
 76
     1
 77
     6
 78
     2
 67
     7
 79
     5
170
     0
171
     0
290
     0
174
     0
 93
       13
 44
0.0
173
     0
291
     1
 45
0.0
1001
ACAD
1000
AcDbSavedByObjectVersion
1070
     0
  0
VISUALSTYLE
  5
2C
102
{ACAD_XDICTIONARY
360
34B
102
}
102
{ACAD_REACTORS
330
2A
102
}
330
2A
100
AcDbVisualStyle
  2

 70
     1
 71
     2
 72
     1
 73
     1
 90
        2
 40
-0.6
 41
30.0
 62
     5
 63
     7
 74
     1
 91
        0
 64
     7
 65
   257
 75
     1
175
     1
 42
1.0
 92
        0
 66
   257
 43
1.0
 76
     1
 77
     6
 78
     2
 67
     7
 79
     5
170
     0
171
     0
290
     0
174
     0
 93
       13
 44
0.0
173
     0
291
     1
 45
0.0
1001
ACAD
1000
AcDbSavedByObjectVersion
1070
     0
  0
VISUALSTYLE
  5
2D
102
{ACAD_XDICTIONARY
360
34D
102
}
102
{ACAD_REACTORS
330
2A
102
}
330
2A
100
AcDbVisualStyle
  2

 70
     2
 71
     2
 72
     2
 73
     1
 90
        2
 40
-0.6
 41
30.0
 62
     5
 63
     7
 74
     0
 91
        0
 64
     7
 65
   257
 75
     1
175
     1
 42
1.0
 92
        0
 66
     7
 43
1.0
 76
     1
 77
     6
 78
     2
 67
     7
 79
     5
170
     0
171
     0
290
     0
174
     0
 93
       13
 44
0.0
173
     0
291
     1
 45
0.0
1001
ACAD
1000
AcDbSavedByObjectVersion
1070
     0
  0
VISUALSTYLE
  5
2E
102
{ACAD_XDICTIONARY
360
34F
102
}
102
{ACAD_REACTORS
330
2A
102
}
330
2A
100
AcDbVisualStyle
  2

 70
     3
 71
     2
 72
     2
 73
     1
 90
        2
 40
-0.6
 41
30.0
 62
     5
 63
     7
 74
     1
 91
        0
 64
     7
 65
   257
 75
     1
175
     1
 42
1.0
 92
        0
 66
   257
 43
1.0
 76
     1
 77
     6
 78
     2
 67
     7
 79
     5
170
     0
171
     0
290
     0
174
     0
 93
       13
 44
0.0
173
     0
291
     1
 45
0.0
1001
ACAD
1000
AcDbSavedByObjectVersion
1070
     0
  0
VISUALSTYLE
  5
31
102
{ACAD_XDICTIONARY
360
355
102
}
102
{ACAD_REACTORS
330
2A
102
}
330
2A
100
AcDbVisualStyle
  2

 70
     6
 71
     1
 72
     2
 73
     2
 90
        0
 40
-0.6
 41
-30.0
 62
     5
 63
     7
 74
     2
 91
        2
 64
     7
 65
   257
 75
     2
175
     1
 42
40.0
 92
        0
 66
   257
 43
1.0
 76
     1
 77
     6
 78
     2
 67
     7
 79
     3
170
     0
171
     0
290
     0
174
     0
 93
        1
 44
0.0
173
     0
291
     0
 45
0.0
1001
ACAD
1000
AcDbSavedByObjectVersion
1070
     0
  0
VISUALSTYLE
  5
3B
102
{ACAD_XDICTIONARY
360
369
102
}
102
{ACAD_REACTORS
330
2A
102
}
330
2A
100
AcDbVisualStyle
  2

 70
    20
 71
     2
 72
     2
 73
     0
 90
        0
 40
-0.6
 41
-30.0
 62
     5
 63
     7
 74
     1
 91
        4
 64
     7
 65
   257
 75
     1
175
     1
 42
1.0
 92
       10
 66
     7
 43
1.0
 76
     1
 77
     6
 78
     2
 67
     7
 79
     5
170
     0
171
     0
290
     0
174
     0
 93
        1
 44
0.0
173
     0
291
     1
 45
0.0
1001
ACAD
1000
AcDbSavedByObjectVersion
1070
     0
  0
VISUALSTYLE
  5
38
102
{ACAD_XDICTIONARY
360
363
102
}
102
{ACAD_REACTORS
330
2A
102
}
330
2A
100
AcDbVisualStyle
  2

 70
    14
 71
     2
 72
     2
 73
     0
 90
        0
 40
-0.6
 41
-30.0
 62
     5
 63
     7
 74
     1
 91
        4
 64
     7
 65
   257
 75
     7
175
     7
 42
1.0
 92
        8
 66
     7
 43
1.0
 76
     1
 77
     6
 78
     2
 67
     7
 79
     5
170
     0
171
     0
290
     0
174
     0
 93
        1
 44
0.0
173
     0
291
     1
 45
0.0
1001
ACAD
1000
AcDbSavedByObjectVersion
1070
     0
  0
VISUALSTYLE
  5
3C
102
{ACAD_XDICTIONARY
360
36B
102
}
102
{ACAD_REACTORS
330
2A
102
}
330
2A
100
AcDbVisualStyle
  2

 70
    21
 71
     2
 72
     2
 73
     0
 90
        0
 40
-0.6
 41
-30.0
 62
     5
 63
     7
 74
     1
 91
        4
 64
     7
 65
   257
 75
     1
175
     1
 42
1.0
 92
        9
 66
     7
 43
1.0
 76
     1
 77
     6
 78
     2
 67
     7
 79
     5
170
     0
171
     0
290
     0
174
     0
 93
        1
 44
0.0
173
     0
291
     1
 45
0.0
1001
ACAD
1000
AcDbSavedByObjectVersion
1070
     0
  0
VISUALSTYLE
  5
33
102
{ACAD_XDICTIONARY
360
359
102
}
102
{ACAD_REACTORS
330
2A
102
}
330
2A
100
AcDbVisualStyle
  2

 70
     8
 71
     2
 72
     3
 73
     0
 90
        2
 40
-0.6
 41
30.0
 62
     5
 63
     7
 74
     0
 91
        0
 64
     7
 65
   257
 75
     1
175
     1
 42
1.0
 92
        8
 66
   257
 43
1.0
 76
     1
 77
     6
 78
     2
 67
     7
 79
     3
170
     0
171
     0
290
     0
174
     0
 93
       13
 44
0.0
173
     0
291
     0
 45
0.0
1001
ACAD
1000
AcDbSavedByObjectVersion
1070
     0
  0
VISUALSTYLE
  5
42
102
{ACAD_XDICTIONARY
360
377
102
}
102
{ACAD_REACTORS
330
2A
102
}
330
2A
100
AcDbVisualStyle
  2

 70
    27
 71
     2
 72
     2
 73
     1
 90
        2
 40
-0.6
 41
30.0
 62
     5
 63
     7
 74
     0
 91
        4
 64
     7
 65
   257
 75
     1
175
     1
 42
1.0
 92
        8
 66
   257
 43
1.0
 76
     1
 77
     6
 78
     2
 67
     8
 79
     3
170
     0
171
     0
290
     0
174
     0
 93
        5
 44
0.0
173
     0
291
     0
 45
0.0
1001
ACAD
1000
AcDbSavedByObjectVersion
1070
     0
  0
VISUALSTYLE
  5
41
102
{ACAD_XDICTIONARY
360
375
102
}
102
{ACAD_REACTORS
330
2A
102
}
330
2A
100
AcDbVisualStyle
  2

 70
    26
 71
     2
 72
     2
 73
     1
 90
        2
 40
-0.6
 41
30.0
 62
     5
 63
     7
 74
     1
 91
       10
 64
     7
 65
   257
 75
     2
175
     1
 42
1.0
 92
        8
 66
   257
 43
1.0
 76
     1
 77
     6
 78
     2
 67
     7
 79
     3
170
     0
171
     0
290
     0
174
     0
 93
        5
 44
0.0
173
     0
291
     0
 45
0.0
1001
ACAD
1000
AcDbSavedByObjectVersion
1070
     0
  0
VISUALSTYLE
  5
3E
102
{ACAD_XDICTIONARY
360
36F
102
}
102
{ACAD_REACTORS
330
2A
102
}
330
2A
100
AcDbVisualStyle
  2

 70
    23
 71
     2
 72
     2
 73
     3
 90
        0
 40
-0.6
 41
-30.0
 62
     5
 63
     7
 74
     2
 91
        2
 64
     7
 65
     7
 75
     1
175
     1
 42
40.0
 92
        8
 66
     7
 43
1.0
 76
     1
 77
     6
 78
     2
 67
     7
 79
     3
170
     0
171
     0
290
     0
174
     0
 93
        1
 44
0.0
173
     0
291
     0
 45
0.0
1001
ACAD
1000
AcDbSavedByObjectVersion
1070
     0
  0
VISUALSTYLE
  5
3F
102
{ACAD_XDICTIONARY
360
371
102
}
102
{ACAD_REACTORS
330
2A
102
}
330
2A
100
AcDbVisualStyle
  2

 70
    24
 71
     1
 72
     2
 73
     2
 90
        0
 40
-0.6
 41
-30.0
 62
     5
 63
     7
 74
     2
 91
        2
 64
     7
 65
     7
 75
     1
175
     1
 42
40.0
 92
       11
 66
     7
 43
1.0
 76
     1
 77
     6
 78
     2
 67
     7
 79
     6
170
     0
171
     0
290
     0
174
     0
 93
        1
 44
0.0
173
     0
291
     0
 45
0.0
1001
ACAD
1000
AcDbSavedByObjectVersion
1070
     0
  0
VISUALSTYLE
  5
37
102
{ACAD_XDICTIONARY
360
361
102
}
102
{ACAD_REACTORS
330
2A
102
}
330
2A
100
AcDbVisualStyle
  2

 70
    13
 71
     2
 72
     2
 73
     0
 90
        0
 40
-0.6
 41
-30.0
 62
     5
 63
     7
 74
     1
 91
        4
 64
     7
 65
   257
 75
     1
175
     1
 42
1.0
 92
       12
 66
     7
 43
1.0
 76
     1
 77
     6
 78
     2
 67
     7
 79
     5
170
     0
171
     0
290
     0
174
     0
 93
        1
 44
0.0
173
     0
291
     1
 45
0.0
1001
ACAD
1000
AcDbSavedByObjectVersion
1070
     0
  0
VISUALSTYLE
  5
30
102
{ACAD_XDICTIONARY
360
353
102
}
102
{ACAD_REACTORS
330
2A
102
}
330
2A
100
AcDbVisualStyle
  2

 70
     5
 71
     0
 72
     2
 73
     0
 90
        0
 40
-0.6
 41
-30.0
 62
     5
 63
     7
 74
     1
 91
        4
 64
     7
 65
   257
 75
     1
175
     1
 42
1.0
 92
        0
 66
   257
 43
1.0
 76
     1
 77
     6
 78
     2
 67
     7
 79
     3
170
     0
171
     0
290
     0
174
     0
 93
        1
 44
0.0
173
     0
291
     0
 45
0.0
1001
ACAD
1000
AcDbSavedByObjectVersion
1070
     0
  0
VISUALSTYLE
  5
40
102
{ACAD_XDICTIONARY
360
373
102
}
102
{ACAD_REACTORS
330
2A
102
}
330
2A
100
AcDbVisualStyle
  2

 70
    25
 71
     2
 72
     2
 73
     1
 90
        1
 40
0.5
 41
-30.0
 62
     5
 63
     7
 74
     1
 91
        0
 64
     7
 65
   257
 75
     1
175
     1
 42
1.0
 92
        8
 66
     7
 43
1.0
 76
     1
 77
     6
 78
     2
 67
     7
 79
     3
170
     0
171
     0
290
     0
174
     0
 93
       13
 44
0.0
173
     0
291
     0
 45
0.0
1001
ACAD
1000
AcDbSavedByObjectVersion
1070
     0
  0
DICTIONARYVAR
  5
2C8
102
{ACAD_REACTORS
330
2BF
102
}
330
2BF
100
DictionaryVariables
280
     0
  1
1:1
  0
DICTIONARYVAR
  5
2C1
102
{ACAD_REACTORS
330
2BF
102
}
330
2BF
100
DictionaryVariables
280
     0
  1
STANDARD
  0
DICTIONARYVAR
  5
2C0
102
{ACAD_REACTORS
330
2BF
102
}
330
2BF
100
DictionaryVariables
280
     0
  1
STANDARD
  0
DICTIONARYVAR
  5
339
102
{ACAD_REACTORS
330
2BF
102
}
330
2BF
100
DictionaryVariables
280
     0
  1
Imperial24
  0
DICTIONARYVAR
  5
33A
102
{ACAD_REACTORS
330
2BF
102
}
330
2BF
100
DictionaryVariables
280
     0
  1
Imperial24
  0
DICTIONARYVAR
  5
2C4
102
{ACAD_REACTORS
330
2BF
102
}
330
2BF
100
DictionaryVariables
280
     0
  1
2
  0
DICTIONARYVAR
  5
2C5
102
{ACAD_REACTORS
330
2BF
102
}
330
2BF
100
DictionaryVariables
280
     0
  1
1
  0
DICTIONARYVAR
  5
33C
102
{ACAD_REACTORS
330
2BF
102
}
330
2BF
100
DictionaryVariables
280
     0
  1
0
  0
DICTIONARYVAR
  5
2C9
102
{ACAD_REACTORS
330
2BF
102
}
330
2BF
100
DictionaryVariables
280
     0
  1
1
  0
DICTIONARYVAR
  5
33B
102
{ACAD_REACTORS
330
2BF
102
}
330
2BF
100
DictionaryVariables
280
     0
  1
127
  0
DICTIONARYVAR
  5
33D
102
{ACAD_REACTORS
330
2BF
102
}
330
2BF
100
DictionaryVariables
280
     0
  1
2
  0
DICTIONARY
  5
37C
330
309
100
AcDbDictionary
280
     1
281
     1
  3
ACAD_XREC_ROUNDTRIP
360
37D
  0
DICTIONARY
  5
343
330
1E
100
AcDbDictionary
280
     1
281
     1
  3
ACAD_XREC_ROUNDTRIP
360
344
  0
DICTIONARY
  5
347
330
26
100
AcDbDictionary
280
     1
281
     1
  3
ACAD_XREC_ROUNDTRIP
360
348
  0
DICTIONARY
  5
345
330
22
100
AcDbDictionary
280
     1
281
     1
  3
ACAD_XREC_ROUNDTRIP
360
346
  0
DICTIONARY
  5
2FC
330
45
100
AcDbDictionary
280
     1
281
     1
  3
ACAD_XREC_ROUNDTRIP
360
2FD
  0
DICTIONARY
  5
2FA
330
44
100
AcDbDictionary
280
     1
281
     1
  3
ACAD_XREC_ROUNDTRIP
360
2FB
  0
DICTIONARY
  5
2FE
330
46
100
AcDbDictionary
280
     1
281
     1
  3
ACAD_XREC_ROUNDTRIP
360
2FF
  0
XRECORD
  5
380
102
{ACAD_REACTORS
330
37F
102
}
330
37F
100
AcDbXrecord
280
     1
 70
     2
 71
     3
 72
     0
  0
DICTIONARY
  5
37A
330
307
100
AcDbDictionary
280
     1
281
     1
  3
ACAD_XREC_ROUNDTRIP
360
37B
  0
DICTIONARY
  5
33F
330
6A
100
AcDbDictionary
280
     1
281
     1
  3
ACAD_ROUNDTRIP_2008_TABLESTYLE_CELLSTYLEMAP
360
340
  3
ACAD_XREC_ROUNDTRIP
360
379
  0
DICTIONARY
  5
351
330
2F
100
AcDbDictionary
280
     1
281
     1
  3
ACAD_XREC_ROUNDTRIP
360
352
  0
DICTIONARY
  5
357
330
32
100
AcDbDictionary
280
     1
281
     1
  3
ACAD_XREC_ROUNDTRIP
360
358
  0
DICTIONARY
  5
35F
330
36
100
AcDbDictionary
280
     1
281
     1
  3
ACAD_XREC_ROUNDTRIP
360
360
  0
DICTIONARY
  5
367
330
3A
100
AcDbDictionary
280
     1
281
     1
  3
ACAD_XREC_ROUNDTRIP
360
368
  0
DICTIONARY
  5
35B
330
34
100
AcDbDictionary
280
     1
281
     1
  3
ACAD_XREC_ROUNDTRIP
360
35C
  0
DICTIONARY
  5
35D
330
35
100
AcDbDictionary
280
     1
281
     1
  3
ACAD_XREC_ROUNDTRIP
360
35E
  0
DICTIONARY
  5
36D
330
3D
100
AcDbDictionary
280
     1
281
     1
  3
ACAD_XREC_ROUNDTRIP
360
36E
  0
DICTIONARY
  5
365
330
39
100
AcDbDictionary
280
     1
281
     1
  3
ACAD_XREC_ROUNDTRIP
360
366
  0
DICTIONARY
  5
349
330
2B
100
AcDbDictionary
280
     1
281
     1
  3
ACAD_XREC_ROUNDTRIP
360
34A
  0
DICTIONARY
  5
34B
330
2C
100
AcDbDictionary
280
     1
281
     1
  3
ACAD_XREC_ROUNDTRIP
360
34C
  0
DICTIONARY
  5
34D
330
2D
100
AcDbDictionary
280
     1
281
     1
  3
ACAD_XREC_ROUNDTRIP
360
34E
  0
DICTIONARY
  5
34F
330
2E
100
AcDbDictionary
280
     1
281
     1
  3
ACAD_XREC_ROUNDTRIP
360
350
  0
DICTIONARY
  5
355
330
31
100
AcDbDictionary
280
     1
281
     1
  3
ACAD_XREC_ROUNDTRIP
360
356
  0
DICTIONARY
  5
369
330
3B
100
AcDbDictionary
280
     1
281
     1
  3
ACAD_XREC_ROUNDTRIP
360
36A
  0
DICTIONARY
  5
363
330
38
100
AcDbDictionary
280
     1
281
     1
  3
ACAD_XREC_ROUNDTRIP
360
364
  0
DICTIONARY
  5
36B
330
3C
100
AcDbDictionary
280
     1
281
     1
  3
ACAD_XREC_ROUNDTRIP
360
36C
  0
DICTIONARY
  5
359
330
33
100
AcDbDictionary
280
     1
281
     1
  3
ACAD_XREC_ROUNDTRIP
360
35A
  0
DICTIONARY
  5
377
330
42
100
AcDbDictionary
280
     1
281
     1
  3
ACAD_XREC_ROUNDTRIP
360
378
  0
DICTIONARY
  5
375
330
41
100
AcDbDictionary
280
     1
281
     1
  3
ACAD_XREC_ROUNDTRIP
360
376
  0
DICTIONARY
  5
36F
330
3E
100
AcDbDictionary
280
     1
281
     1
  3
ACAD_XREC_ROUNDTRIP
360
370
  0
DICTIONARY
  5
371
330
3F
100
AcDbDictionary
280
     1
281
     1
  3
ACAD_XREC_ROUNDTRIP
360
372
  0
DICTIONARY
  5
361
330
37
100
AcDbDictionary
280
     1
281
     1
  3
ACAD_XREC_ROUNDTRIP
360
362
  0
DICTIONARY
  5
353
330
30
100
AcDbDictionary
280
     1
281
     1
  3
ACAD_XREC_ROUNDTRIP
360
354
  0
DICTIONARY
  5
373
330
40
100
AcDbDictionary
280
     1
281
     1
  3
ACAD_XREC_ROUNDTRIP
360
374
  0
XRECORD
  5
37D
102
{ACAD_REACTORS
330
37C
102
}
330
37C
100
AcDbXrecord
280
     1
102
DISPLAYNAME
  1
Imperial24
102
FLAGS
 90
        0
  0
XRECORD
  5
344
102
{ACAD_REACTORS
330
343
102
}
330
343
100
AcDbXrecord
280
     1
102
SHADEPLOT
 70
     0
102
SHADEPLOTRESLEVEL
 70
     2
102
SHADEPLOTCUSTOMDPI
 70
   300
  0
XRECORD
  5
348
102
{ACAD_REACTORS
330
347
102
}
330
347
100
AcDbXrecord
280
     1
102
SHADEPLOT
 70
     0
102
SHADEPLOTRESLEVEL
 70
     2
102
SHADEPLOTCUSTOMDPI
 70
   300
  0
XRECORD
  5
346
102
{ACAD_REACTORS
330
345
102
}
330
345
100
AcDbXrecord
280
     1
102
SHADEPLOT
 70
     0
102
SHADEPLOTRESLEVEL
 70
     2
102
SHADEPLOTCUSTOMDPI
 70
   300
  0
XRECORD
  5
2FD
102
{ACAD_REACTORS
330
2FC
102
}
330
2FC
100
AcDbXrecord
280
     1
102
MATERIAL
148
0.0
149
0.0
149
0.0
 93
        0
 94
      127
282
     0
 72
     1
 77
     1
171
     1
175
     1
179
     1
273
     0
  0
XRECORD
  5
2FB
102
{ACAD_REACTORS
330
2FA
102
}
330
2FA
100
AcDbXrecord
280
     1
102
MATERIAL
148
0.0
149
0.0
149
0.0
 93
        0
 94
      127
282
     0
 72
     1
 77
     1
171
     1
175
     1
179
     1
273
     0
  0
XRECORD
  5
2FF
102
{ACAD_REACTORS
330
2FE
102
}
330
2FE
100
AcDbXrecord
280
     1
102
MATERIAL
148
0.0
149
0.0
149
0.0
 93
        0
 94
      127
282
     0
 72
     1
 77
     1
171
     1
175
     1
179
     1
273
     0
  0
XRECORD
  5
37B
102
{ACAD_REACTORS
330
37A
102
}
330
37A
100
AcDbXrecord
280
     1
102
DISPLAYNAME
  1
Imperial24
102
FLAGS
 90
        0
  0
CELLSTYLEMAP
  5
340
102
{ACAD_REACTORS
330
33F
102
}
330
33F
100
AcDbCellStyleMap
 90
        3
300
CELLSTYLE
  1
TABLEFORMAT_BEGIN
 90
        5
170
     1
 91
        0
 92
    32768
 62
   257
 93
        1
300
CONTENTFORMAT
  1
CONTENTFORMAT_BEGIN
 90
        0
 91
        0
 92
        4
 93
        0
300

 40
0.0
140
1.0
 94
        5
 62
     0
340
11
144
0.25
309
CONTENTFORMAT_END
171
     0
 94
        6
 95
        1
302
GRIDFORMAT
  1
GRIDFORMAT_BEGIN
 90
        0
 91
        1
 62
     0
 92
       -2
340
0
 93
        0
 40
0.045
309
GRIDFORMAT_END
 95
        2
302
GRIDFORMAT
  1
GRIDFORMAT_BEGIN
 90
        0
 91
        1
 62
     0
 92
       -2
340
0
 93
        0
 40
0.045
309
GRIDFORMAT_END
 95
        4
302
GRIDFORMAT
  1
GRIDFORMAT_BEGIN
 90
        0
 91
        1
 62
     0
 92
       -2
340
0
 93
        0
 40
0.045
309
GRIDFORMAT_END
 95
        8
302
GRIDFORMAT
  1
GRIDFORMAT_BEGIN
 90
        0
 91
        1
 62
     0
 92
       -2
340
0
 93
        0
 40
0.045
309
GRIDFORMAT_END
 95
       16
302
GRIDFORMAT
  1
GRIDFORMAT_BEGIN
 90
        0
 91
        1
 62
     0
 92
       -2
340
0
 93
        0
 40
0.045
309
GRIDFORMAT_END
 95
       32
302
GRIDFORMAT
  1
GRIDFORMAT_BEGIN
 90
        0
 91
        1
 62
     0
 92
       -2
340
0
 93
        0
 40
0.045
309
GRIDFORMAT_END
309
TABLEFORMAT_END
  1
CELLSTYLE_BEGIN
 90
        1
 91
        1
300
_TITLE
309
CELLSTYLE_END
300
CELLSTYLE
  1
TABLEFORMAT_BEGIN
 90
        5
170
     1
 91
        0
 92
        0
 62
   257
 93
        1
300
CONTENTFORMAT
  1
CONTENTFORMAT_BEGIN
 90
        0
 91
        0
 92
        4
 93
        0
300

 40
0.0
140
1.0
 94
        5
 62
     0
340
11
144
0.18
309
CONTENTFORMAT_END
171
     0
 94
        6
 95
        1
302
GRIDFORMAT
  1
GRIDFORMAT_BEGIN
 90
        0
 91
        1
 62
     0
 92
       -2
340
0
 93
        0
 40
0.045
309
GRIDFORMAT_END
 95
        2
302
GRIDFORMAT
  1
GRIDFORMAT_BEGIN
 90
        0
 91
        1
 62
     0
 92
       -2
340
0
 93
        0
 40
0.045
309
GRIDFORMAT_END
 95
        4
302
GRIDFORMAT
  1
GRIDFORMAT_BEGIN
 90
        0
 91
        1
 62
     0
 92
       -2
340
0
 93
        0
 40
0.045
309
GRIDFORMAT_END
 95
        8
302
GRIDFORMAT
  1
GRIDFORMAT_BEGIN
 90
        0
 91
        1
 62
     0
 92
       -2
340
0
 93
        0
 40
0.045
309
GRIDFORMAT_END
 95
       16
302
GRIDFORMAT
  1
GRIDFORMAT_BEGIN
 90
        0
 91
        1
 62
     0
 92
       -2
340
0
 93
        0
 40
0.045
309
GRIDFORMAT_END
 95
       32
302
GRIDFORMAT
  1
GRIDFORMAT_BEGIN
 90
        0
 91
        1
 62
     0
 92
       -2
340
0
 93
        0
 40
0.045
309
GRIDFORMAT_END
309
TABLEFORMAT_END
  1
CELLSTYLE_BEGIN
 90
        2
 91
        1
300
_HEADER
309
CELLSTYLE_END
300
CELLSTYLE
  1
TABLEFORMAT_BEGIN
 90
        5
170
     1
 91
        0
 92
        0
 62
   257
 93
        1
300
CONTENTFORMAT
  1
CONTENTFORMAT_BEGIN
 90
        0
 91
        0
 92
        4
 93
        0
300

 40
0.0
140
1.0
 94
        2
 62
     0
340
11
144
0.18
309
CONTENTFORMAT_END
171
     0
 94
        6
 95
        1
302
GRIDFORMAT
  1
GRIDFORMAT_BEGIN
 90
        0
 91
        1
 62
     0
 92
       -2
340
0
 93
        0
 40
0.045
309
GRIDFORMAT_END
 95
        2
302
GRIDFORMAT
  1
GRIDFORMAT_BEGIN
 90
        0
 91
        1
 62
     0
 92
       -2
340
0
 93
        0
 40
0.045
309
GRIDFORMAT_END
 95
        4
302
GRIDFORMAT
  1
GRIDFORMAT_BEGIN
 90
        0
 91
        1
 62
     0
 92
       -2
340
0
 93
        0
 40
0.045
309
GRIDFORMAT_END
 95
        8
302
GRIDFORMAT
  1
GRIDFORMAT_BEGIN
 90
        0
 91
        1
 62
     0
 92
       -2
340
0
 93
        0
 40
0.045
309
GRIDFORMAT_END
 95
       16
302
GRIDFORMAT
  1
GRIDFORMAT_BEGIN
 90
        0
 91
        1
 62
     0
 92
       -2
340
0
 93
        0
 40
0.045
309
GRIDFORMAT_END
 95
       32
302
GRIDFORMAT
  1
GRIDFORMAT_BEGIN
 90
        0
 91
        1
 62
     0
 92
       -2
340
0
 93
        0
 40
0.045
309
GRIDFORMAT_END
309
TABLEFORMAT_END
  1
CELLSTYLE_BEGIN
 90
        3
 91
        2
300
_DATA
309
CELLSTYLE_END
  0
XRECORD
  5
379
102
{ACAD_REACTORS
330
33F
102
}
330
33F
100
AcDbXrecord
280
     1
102
ACAD_ROUNDTRIP_PRE2007_TABLESTYLE
 90
        4
 91
        0
  1

 92
        4
 93
        0
  2

 94
        4
 95
        0
  3

  0
XRECORD
  5
352
102
{ACAD_REACTORS
330
351
102
}
330
351
100
AcDbXrecord
280
     1
102
RTVSPost2010Prop28
280
     1
102
RTVSPost2010PropOp28
 70
     1
102
RTVSPost2010Prop29
280
     1
102
RTVSPost2010PropOp29
 70
     1
102
RTVSPost2010Prop30
280
     0
102
RTVSPost2010PropOp30
 70
     1
102
RTVSPost2010Prop31
280
     0
102
RTVSPost2010PropOp31
 70
     1
102
RTVSPost2010Prop32
280
     0
102
RTVSPost2010PropOp32
 70
     1
102
RTVSPost2010Prop33
280
     0
102
RTVSPost2010PropOp33
 70
     1
102
RTVSPost2010Prop34
280
     0
102
RTVSPost2010PropOp34
 70
     1
102
RTVSPost2010Prop35
280
     0
102
RTVSPost2010PropOp35
 70
     1
102
RTVSPost2010Prop36
280
     0
102
RTVSPost2010PropOp36
 70
     1
102
RTVSPost2010Prop37
 90
       50
102
RTVSPost2010PropOp37
 70
     1
102
RTVSPost2010Prop38
140
0.0
102
RTVSPost2010PropOp38
 70
     1
102
RTVSPost2010Prop39
140
1.0
102
RTVSPost2010PropOp39
 70
     1
102
RTVSPost2010Prop40
 90
        0
102
RTVSPost2010PropOp40
 70
     1
102
RTVSPost2010Prop41ColorIndex
 90
       18
102
RTVSPost2010Prop41ColorRGB
 90
        0
102
RTVSPost2010PropOp41
 70
     1
102
RTVSPost2010Prop42
 90
       50
102
RTVSPost2010PropOp42
 70
     1
102
RTVSPost2010Prop43
 90
        3
102
RTVSPost2010PropOp43
 70
     1
102
RTVSPost2010Prop44ColorIndex
 90
        5
102
RTVSPost2010Prop44ColorRGB
 90
      255
102
RTVSPost2010PropOp44
 70
     1
102
RTVSPost2010Prop45
280
     0
102
RTVSPost2010PropOp45
 70
     1
102
RTVSPost2010Prop46
 90
       50
102
RTVSPost2010PropOp46
 70
     1
102
RTVSPost2010Prop47
 90
       50
102
RTVSPost2010PropOp47
 70
     1
102
RTVSPost2010Prop48
 90
       50
102
RTVSPost2010PropOp48
 70
     1
102
RTVSPost2010Prop49
280
     0
102
RTVSPost2010PropOp49
 70
     1
102
RTVSPost2010Prop50
 90
       50
102
RTVSPost2010PropOp50
 70
     1
102
RTVSPost2010Prop51ColorIndex
 90
      256
102
RTVSPost2010Prop51ColorRGB
 90
-16777216
102
RTVSPost2010PropOp51
 70
     0
102
RTVSPost2010Prop52
140
1.0
102
RTVSPost2010PropOp52
 70
     0
102
RTVSPost2010Prop53
 90
        2
102
RTVSPost2010PropOp53
 70
     1
102
RTVSPost2010Prop54
  1
strokes_ogs.tif
102
RTVSPost2010PropOp54
 70
     1
102
RTVSPost2010Prop55
280
     0
102
RTVSPost2010PropOp55
 70
     1
102
RTVSPost2010Prop56
140
1.0
102
RTVSPost2010PropOp56
 70
     1
102
RTVSPost2010Prop57
140
1.0
102
RTVSPost2010PropOp57
 70
     1
102
RTVSPropertyOp0
 70
     1
102
RTVSPropertyOp1
 70
     1
102
RTVSPropertyOp2
 70
     1
102
RTVSPropertyOp3
 70
     1
102
RTVSPropertyOp4
 70
     1
102
RTVSPropertyOp5
 70
     1
102
RTVSPropertyOp6
 70
     1
102
RTVSPropertyOp7
 70
     1
102
RTVSPropertyOp8
 70
     1
102
RTVSPropertyOp9
 70
     1
102
RTVSPropertyOp10
 70
     1
102
RTVSPropertyOp11
 70
     1
102
RTVSPropertyOp12
 70
     1
102
RTVSPropertyOp13
 70
     1
102
RTVSPropertyOp14
 70
     1
102
RTVSPropertyOp15
 70
     1
102
RTVSPropertyOp16
 70
     1
102
RTVSPropertyOp17
 70
     1
102
RTVSPropertyOp18
 70
     1
102
RTVSPropertyOp19
 70
     1
102
RTVSPropertyOp20
 70
     1
102
RTVSPropertyOp21
 70
     1
102
RTVSPropertyOp22
 70
     1
102
RTVSPropertyOp23
 70
     1
102
RTVSPropertyOp24
 70
     1
102
RTVSPropertyOp25
 70
     1
102
RTVSPropertyOp26
 70
     1
102
RTVSPropertyOp27
 70
     1
102
RTVSPropertyOp28
 70
     1
102
RTVSPropertyOp29
 70
     1
102
RTVSPropertyOp30
 70
     1
102
RTVSPropertyOp31
 70
     1
102
RTVSPropertyOp32
 70
     1
102
RTVSPropertyOp33
 70
     1
102
RTVSPropertyOp34
 70
     1
102
RTVSPropertyOp35
 70
     1
102
RTVSPropertyOp36
 70
     1
102
RTVSPropertyOp37
 70
     1
102
RTVSPropertyOp38
 70
     1
102
RTVSPropertyOp39
 70
     1
102
RTVSPropertyOp40
 70
     1
102
RTVSPropertyOp41
 70
     1
102
RTVSPropertyOp42
 70
     1
102
RTVSPropertyOp43
 70
     1
102
RTVSPropertyOp44
 70
     1
102
RTVSPropertyOp45
 70
     1
102
RTVSPropertyOp46
 70
     1
102
RTVSPropertyOp47
 70
     1
102
RTVSPropertyOp48
 70
     1
102
RTVSPropertyOp49
 70
     1
102
RTVSPropertyOp50
 70
     1
102
RTVSPropertyOp51
 70
     0
102
RTVSPropertyOp52
 70
     0
102
RTVSPropertyOp53
 70
     1
102
RTVSPropertyOp54
 70
     1
102
RTVSPropertyOp55
 70
     1
102
RTVSPropertyOp56
 70
     1
102
RTVSPropertyOp57
 70
     1
102
RTVSPropertyOp58
 70
     1
102
RTVSPropertyOp59
 70
     1
102
RTVSPropertyOp60
 70
     1
102
RTVSPropertyOp61
 70
     1
102
RTVSPropertyOp62
 70
     1
  0
XRECORD
  5
358
102
{ACAD_REACTORS
330
357
102
}
330
357
100
AcDbXrecord
280
     1
102
RTVSPost2010Prop28
280
     0
102
RTVSPost2010PropOp28
 70
     1
102
RTVSPost2010Prop29
280
     1
102
RTVSPost2010PropOp29
 70
     1
102
RTVSPost2010Prop30
280
     1
102
RTVSPost2010PropOp30
 70
     1
102
RTVSPost2010Prop31
280
     0
102
RTVSPost2010PropOp31
 70
     1
102
RTVSPost2010Prop32
280
     0
102
RTVSPost2010PropOp32
 70
     1
102
RTVSPost2010Prop33
280
     0
102
RTVSPost2010PropOp33
 70
     1
102
RTVSPost2010Prop34
280
     0
102
RTVSPost2010PropOp34
 70
     1
102
RTVSPost2010Prop35
280
     0
102
RTVSPost2010PropOp35
 70
     1
102
RTVSPost2010Prop36
280
     0
102
RTVSPost2010PropOp36
 70
     1
102
RTVSPost2010Prop37
 90
       50
102
RTVSPost2010PropOp37
 70
     1
102
RTVSPost2010Prop38
140
0.0
102
RTVSPost2010PropOp38
 70
     1
102
RTVSPost2010Prop39
140
1.0
102
RTVSPost2010PropOp39
 70
     1
102
RTVSPost2010Prop40
 90
        0
102
RTVSPost2010PropOp40
 70
     1
102
RTVSPost2010Prop41ColorIndex
 90
       18
102
RTVSPost2010Prop41ColorRGB
 90
        0
102
RTVSPost2010PropOp41
 70
     1
102
RTVSPost2010Prop42
 90
       50
102
RTVSPost2010PropOp42
 70
     1
102
RTVSPost2010Prop43
 90
        3
102
RTVSPost2010PropOp43
 70
     1
102
RTVSPost2010Prop44ColorIndex
 90
        5
102
RTVSPost2010Prop44ColorRGB
 90
      255
102
RTVSPost2010PropOp44
 70
     1
102
RTVSPost2010Prop45
280
     0
102
RTVSPost2010PropOp45
 70
     1
102
RTVSPost2010Prop46
 90
       50
102
RTVSPost2010PropOp46
 70
     1
102
RTVSPost2010Prop47
 90
       50
102
RTVSPost2010PropOp47
 70
     1
102
RTVSPost2010Prop48
 90
       50
102
RTVSPost2010PropOp48
 70
     1
102
RTVSPost2010Prop49
280
     0
102
RTVSPost2010PropOp49
 70
     1
102
RTVSPost2010Prop50
 90
       50
102
RTVSPost2010PropOp50
 70
     1
102
RTVSPost2010Prop51ColorIndex
 90
      256
102
RTVSPost2010Prop51ColorRGB
 90
-16777216
102
RTVSPost2010PropOp51
 70
     0
102
RTVSPost2010Prop52
140
1.0
102
RTVSPost2010PropOp52
 70
     0
102
RTVSPost2010Prop53
 90
        2
102
RTVSPost2010PropOp53
 70
     1
102
RTVSPost2010Prop54
  1
strokes_ogs.tif
102
RTVSPost2010PropOp54
 70
     1
102
RTVSPost2010Prop55
280
     0
102
RTVSPost2010PropOp55
 70
     1
102
RTVSPost2010Prop56
140
1.0
102
RTVSPost2010PropOp56
 70
     1
102
RTVSPost2010Prop57
140
1.0
102
RTVSPost2010PropOp57
 70
     1
102
RTVSPropertyOp0
 70
     1
102
RTVSPropertyOp1
 70
     1
102
RTVSPropertyOp2
 70
     1
102
RTVSPropertyOp3
 70
     1
102
RTVSPropertyOp4
 70
     1
102
RTVSPropertyOp5
 70
     1
102
RTVSPropertyOp6
 70
     1
102
RTVSPropertyOp7
 70
     1
102
RTVSPropertyOp8
 70
     1
102
RTVSPropertyOp9
 70
     1
102
RTVSPropertyOp10
 70
     1
102
RTVSPropertyOp11
 70
     1
102
RTVSPropertyOp12
 70
     1
102
RTVSPropertyOp13
 70
     1
102
RTVSPropertyOp14
 70
     1
102
RTVSPropertyOp15
 70
     1
102
RTVSPropertyOp16
 70
     1
102
RTVSPropertyOp17
 70
     1
102
RTVSPropertyOp18
 70
     1
102
RTVSPropertyOp19
 70
     1
102
RTVSPropertyOp20
 70
     1
102
RTVSPropertyOp21
 70
     1
102
RTVSPropertyOp22
 70
     1
102
RTVSPropertyOp23
 70
     1
102
RTVSPropertyOp24
 70
     1
102
RTVSPropertyOp25
 70
     1
102
RTVSPropertyOp26
 70
     1
102
RTVSPropertyOp27
 70
     1
102
RTVSPropertyOp28
 70
     1
102
RTVSPropertyOp29
 70
     1
102
RTVSPropertyOp30
 70
     1
102
RTVSPropertyOp31
 70
     1
102
RTVSPropertyOp32
 70
     1
102
RTVSPropertyOp33
 70
     1
102
RTVSPropertyOp34
 70
     1
102
RTVSPropertyOp35
 70
     1
102
RTVSPropertyOp36
 70
     1
102
RTVSPropertyOp37
 70
     1
102
RTVSPropertyOp38
 70
     1
102
RTVSPropertyOp39
 70
     1
102
RTVSPropertyOp40
 70
     1
102
RTVSPropertyOp41
 70
     1
102
RTVSPropertyOp42
 70
     1
102
RTVSPropertyOp43
 70
     1
102
RTVSPropertyOp44
 70
     1
102
RTVSPropertyOp45
 70
     1
102
RTVSPropertyOp46
 70
     1
102
RTVSPropertyOp47
 70
     1
102
RTVSPropertyOp48
 70
     1
102
RTVSPropertyOp49
 70
     1
102
RTVSPropertyOp50
 70
     1
102
RTVSPropertyOp51
 70
     0
102
RTVSPropertyOp52
 70
     0
102
RTVSPropertyOp53
 70
     1
102
RTVSPropertyOp54
 70
     1
102
RTVSPropertyOp55
 70
     1
102
RTVSPropertyOp56
 70
     1
102
RTVSPropertyOp57
 70
     1
102
RTVSPropertyOp58
 70
     1
102
RTVSPropertyOp59
 70
     1
102
RTVSPropertyOp60
 70
     1
102
RTVSPropertyOp61
 70
     1
102
RTVSPropertyOp62
 70
     1
  0
XRECORD
  5
360
102
{ACAD_REACTORS
330
35F
102
}
330
35F
100
AcDbXrecord
280
     1
102
RTVSPost2010Prop28
280
     0
102
RTVSPost2010PropOp28
 70
     1
102
RTVSPost2010Prop29
280
     1
102
RTVSPost2010PropOp29
 70
     1
102
RTVSPost2010Prop30
280
     1
102
RTVSPost2010PropOp30
 70
     1
102
RTVSPost2010Prop31
280
     0
102
RTVSPost2010PropOp31
 70
     1
102
RTVSPost2010Prop32
280
     0
102
RTVSPost2010PropOp32
 70
     1
102
RTVSPost2010Prop33
280
     0
102
RTVSPost2010PropOp33
 70
     1
102
RTVSPost2010Prop34
280
     0
102
RTVSPost2010PropOp34
 70
     1
102
RTVSPost2010Prop35
280
     0
102
RTVSPost2010PropOp35
 70
     1
102
RTVSPost2010Prop36
280
     0
102
RTVSPost2010PropOp36
 70
     1
102
RTVSPost2010Prop37
 90
       50
102
RTVSPost2010PropOp37
 70
     1
102
RTVSPost2010Prop38
140
0.0
102
RTVSPost2010PropOp38
 70
     1
102
RTVSPost2010Prop39
140
1.0
102
RTVSPost2010PropOp39
 70
     1
102
RTVSPost2010Prop40
 90
        0
102
RTVSPost2010PropOp40
 70
     1
102
RTVSPost2010Prop41ColorIndex
 90
       18
102
RTVSPost2010Prop41ColorRGB
 90
        0
102
RTVSPost2010PropOp41
 70
     1
102
RTVSPost2010Prop42
 90
       50
102
RTVSPost2010PropOp42
 70
     1
102
RTVSPost2010Prop43
 90
        3
102
RTVSPost2010PropOp43
 70
     1
102
RTVSPost2010Prop44ColorIndex
 90
        5
102
RTVSPost2010Prop44ColorRGB
 90
      255
102
RTVSPost2010PropOp44
 70
     1
102
RTVSPost2010Prop45
280
     0
102
RTVSPost2010PropOp45
 70
     1
102
RTVSPost2010Prop46
 90
       50
102
RTVSPost2010PropOp46
 70
     1
102
RTVSPost2010Prop47
 90
       50
102
RTVSPost2010PropOp47
 70
     1
102
RTVSPost2010Prop48
 90
       50
102
RTVSPost2010PropOp48
 70
     1
102
RTVSPost2010Prop49
280
     0
102
RTVSPost2010PropOp49
 70
     1
102
RTVSPost2010Prop50
 90
       50
102
RTVSPost2010PropOp50
 70
     1
102
RTVSPost2010Prop51ColorIndex
 90
      256
102
RTVSPost2010Prop51ColorRGB
 90
-16777216
102
RTVSPost2010PropOp51
 70
     0
102
RTVSPost2010Prop52
140
1.0
102
RTVSPost2010PropOp52
 70
     0
102
RTVSPost2010Prop53
 90
        2
102
RTVSPost2010PropOp53
 70
     1
102
RTVSPost2010Prop54
  1
strokes_ogs.tif
102
RTVSPost2010PropOp54
 70
     1
102
RTVSPost2010Prop55
280
     0
102
RTVSPost2010PropOp55
 70
     1
102
RTVSPost2010Prop56
140
1.0
102
RTVSPost2010PropOp56
 70
     1
102
RTVSPost2010Prop57
140
1.0
102
RTVSPost2010PropOp57
 70
     1
102
RTVSPropertyOp0
 70
     1
102
RTVSPropertyOp1
 70
     1
102
RTVSPropertyOp2
 70
     1
102
RTVSPropertyOp3
 70
     1
102
RTVSPropertyOp4
 70
     1
102
RTVSPropertyOp5
 70
     1
102
RTVSPropertyOp6
 70
     1
102
RTVSPropertyOp7
 70
     1
102
RTVSPropertyOp8
 70
     1
102
RTVSPropertyOp9
 70
     1
102
RTVSPropertyOp10
 70
     1
102
RTVSPropertyOp11
 70
     1
102
RTVSPropertyOp12
 70
     1
102
RTVSPropertyOp13
 70
     1
102
RTVSPropertyOp14
 70
     1
102
RTVSPropertyOp15
 70
     1
102
RTVSPropertyOp16
 70
     1
102
RTVSPropertyOp17
 70
     1
102
RTVSPropertyOp18
 70
     1
102
RTVSPropertyOp19
 70
     1
102
RTVSPropertyOp20
 70
     1
102
RTVSPropertyOp21
 70
     1
102
RTVSPropertyOp22
 70
     1
102
RTVSPropertyOp23
 70
     1
102
RTVSPropertyOp24
 70
     1
102
RTVSPropertyOp25
 70
     1
102
RTVSPropertyOp26
 70
     1
102
RTVSPropertyOp27
 70
     1
102
RTVSPropertyOp28
 70
     1
102
RTVSPropertyOp29
 70
     1
102
RTVSPropertyOp30
 70
     1
102
RTVSPropertyOp31
 70
     1
102
RTVSPropertyOp32
 70
     1
102
RTVSPropertyOp33
 70
     1
102
RTVSPropertyOp34
 70
     1
102
RTVSPropertyOp35
 70
     1
102
RTVSPropertyOp36
 70
     1
102
RTVSPropertyOp37
 70
     1
102
RTVSPropertyOp38
 70
     1
102
RTVSPropertyOp39
 70
     1
102
RTVSPropertyOp40
 70
     1
102
RTVSPropertyOp41
 70
     1
102
RTVSPropertyOp42
 70
     1
102
RTVSPropertyOp43
 70
     1
102
RTVSPropertyOp44
 70
     1
102
RTVSPropertyOp45
 70
     1
102
RTVSPropertyOp46
 70
     1
102
RTVSPropertyOp47
 70
     1
102
RTVSPropertyOp48
 70
     1
102
RTVSPropertyOp49
 70
     1
102
RTVSPropertyOp50
 70
     1
102
RTVSPropertyOp51
 70
     0
102
RTVSPropertyOp52
 70
     0
102
RTVSPropertyOp53
 70
     1
102
RTVSPropertyOp54
 70
     1
102
RTVSPropertyOp55
 70
     1
102
RTVSPropertyOp56
 70
     1
102
RTVSPropertyOp57
 70
     1
102
RTVSPropertyOp58
 70
     1
102
RTVSPropertyOp59
 70
     1
102
RTVSPropertyOp60
 70
     1
102
RTVSPropertyOp61
 70
     1
102
RTVSPropertyOp62
 70
     1
  0
XRECORD
  5
368
102
{ACAD_REACTORS
330
367
102
}
330
367
100
AcDbXrecord
280
     1
102
RTVSPost2010Prop28
280
     0
102
RTVSPost2010PropOp28
 70
     1
102
RTVSPost2010Prop29
280
     1
102
RTVSPost2010PropOp29
 70
     1
102
RTVSPost2010Prop30
280
     1
102
RTVSPost2010PropOp30
 70
     1
102
RTVSPost2010Prop31
280
     0
102
RTVSPost2010PropOp31
 70
     1
102
RTVSPost2010Prop32
280
     0
102
RTVSPost2010PropOp32
 70
     1
102
RTVSPost2010Prop33
280
     0
102
RTVSPost2010PropOp33
 70
     1
102
RTVSPost2010Prop34
280
     0
102
RTVSPost2010PropOp34
 70
     1
102
RTVSPost2010Prop35
280
     0
102
RTVSPost2010PropOp35
 70
     1
102
RTVSPost2010Prop36
280
     0
102
RTVSPost2010PropOp36
 70
     1
102
RTVSPost2010Prop37
 90
       50
102
RTVSPost2010PropOp37
 70
     1
102
RTVSPost2010Prop38
140
0.0
102
RTVSPost2010PropOp38
 70
     1
102
RTVSPost2010Prop39
140
1.0
102
RTVSPost2010PropOp39
 70
     1
102
RTVSPost2010Prop40
 90
        0
102
RTVSPost2010PropOp40
 70
     1
102
RTVSPost2010Prop41ColorIndex
 90
       18
102
RTVSPost2010Prop41ColorRGB
 90
        0
102
RTVSPost2010PropOp41
 70
     1
102
RTVSPost2010Prop42
 90
       50
102
RTVSPost2010PropOp42
 70
     1
102
RTVSPost2010Prop43
 90
        3
102
RTVSPost2010PropOp43
 70
     1
102
RTVSPost2010Prop44ColorIndex
 90
        5
102
RTVSPost2010Prop44ColorRGB
 90
      255
102
RTVSPost2010PropOp44
 70
     1
102
RTVSPost2010Prop45
280
     0
102
RTVSPost2010PropOp45
 70
     1
102
RTVSPost2010Prop46
 90
       50
102
RTVSPost2010PropOp46
 70
     1
102
RTVSPost2010Prop47
 90
       50
102
RTVSPost2010PropOp47
 70
     1
102
RTVSPost2010Prop48
 90
       50
102
RTVSPost2010PropOp48
 70
     1
102
RTVSPost2010Prop49
280
     0
102
RTVSPost2010PropOp49
 70
     1
102
RTVSPost2010Prop50
 90
       50
102
RTVSPost2010PropOp50
 70
     1
102
RTVSPost2010Prop51ColorIndex
 90
      256
102
RTVSPost2010Prop51ColorRGB
 90
-16777216
102
RTVSPost2010PropOp51
 70
     0
102
RTVSPost2010Prop52
140
1.0
102
RTVSPost2010PropOp52
 70
     0
102
RTVSPost2010Prop53
 90
        2
102
RTVSPost2010PropOp53
 70
     1
102
RTVSPost2010Prop54
  1
strokes_ogs.tif
102
RTVSPost2010PropOp54
 70
     1
102
RTVSPost2010Prop55
280
     0
102
RTVSPost2010PropOp55
 70
     1
102
RTVSPost2010Prop56
140
1.0
102
RTVSPost2010PropOp56
 70
     1
102
RTVSPost2010Prop57
140
1.0
102
RTVSPost2010PropOp57
 70
     1
102
RTVSPropertyOp0
 70
     1
102
RTVSPropertyOp1
 70
     1
102
RTVSPropertyOp2
 70
     1
102
RTVSPropertyOp3
 70
     1
102
RTVSPropertyOp4
 70
     1
102
RTVSPropertyOp5
 70
     1
102
RTVSPropertyOp6
 70
     1
102
RTVSPropertyOp7
 70
     1
102
RTVSPropertyOp8
 70
     1
102
RTVSPropertyOp9
 70
     1
102
RTVSPropertyOp10
 70
     1
102
RTVSPropertyOp11
 70
     1
102
RTVSPropertyOp12
 70
     1
102
RTVSPropertyOp13
 70
     1
102
RTVSPropertyOp14
 70
     1
102
RTVSPropertyOp15
 70
     1
102
RTVSPropertyOp16
 70
     1
102
RTVSPropertyOp17
 70
     1
102
RTVSPropertyOp18
 70
     1
102
RTVSPropertyOp19
 70
     1
102
RTVSPropertyOp20
 70
     1
102
RTVSPropertyOp21
 70
     1
102
RTVSPropertyOp22
 70
     1
102
RTVSPropertyOp23
 70
     1
102
RTVSPropertyOp24
 70
     1
102
RTVSPropertyOp25
 70
     1
102
RTVSPropertyOp26
 70
     1
102
RTVSPropertyOp27
 70
     1
102
RTVSPropertyOp28
 70
     1
102
RTVSPropertyOp29
 70
     1
102
RTVSPropertyOp30
 70
     1
102
RTVSPropertyOp31
 70
     1
102
RTVSPropertyOp32
 70
     1
102
RTVSPropertyOp33
 70
     1
102
RTVSPropertyOp34
 70
     1
102
RTVSPropertyOp35
 70
     1
102
RTVSPropertyOp36
 70
     1
102
RTVSPropertyOp37
 70
     1
102
RTVSPropertyOp38
 70
     1
102
RTVSPropertyOp39
 70
     1
102
RTVSPropertyOp40
 70
     1
102
RTVSPropertyOp41
 70
     1
102
RTVSPropertyOp42
 70
     1
102
RTVSPropertyOp43
 70
     1
102
RTVSPropertyOp44
 70
     1
102
RTVSPropertyOp45
 70
     1
102
RTVSPropertyOp46
 70
     1
102
RTVSPropertyOp47
 70
     1
102
RTVSPropertyOp48
 70
     1
102
RTVSPropertyOp49
 70
     1
102
RTVSPropertyOp50
 70
     1
102
RTVSPropertyOp51
 70
     0
102
RTVSPropertyOp52
 70
     0
102
RTVSPropertyOp53
 70
     1
102
RTVSPropertyOp54
 70
     1
102
RTVSPropertyOp55
 70
     1
102
RTVSPropertyOp56
 70
     1
102
RTVSPropertyOp57
 70
     1
102
RTVSPropertyOp58
 70
     1
102
RTVSPropertyOp59
 70
     1
102
RTVSPropertyOp60
 70
     1
102
RTVSPropertyOp61
 70
     1
102
RTVSPropertyOp62
 70
     1
  0
XRECORD
  5
35C
102
{ACAD_REACTORS
330
35B
102
}
330
35B
100
AcDbXrecord
280
     1
102
RTVSPost2010Prop28
280
     0
102
RTVSPost2010PropOp28
 70
     1
102
RTVSPost2010Prop29
280
     1
102
RTVSPost2010PropOp29
 70
     1
102
RTVSPost2010Prop30
280
     1
102
RTVSPost2010PropOp30
 70
     1
102
RTVSPost2010Prop31
280
     0
102
RTVSPost2010PropOp31
 70
     1
102
RTVSPost2010Prop32
280
     0
102
RTVSPost2010PropOp32
 70
     1
102
RTVSPost2010Prop33
280
     0
102
RTVSPost2010PropOp33
 70
     1
102
RTVSPost2010Prop34
280
     0
102
RTVSPost2010PropOp34
 70
     1
102
RTVSPost2010Prop35
280
     0
102
RTVSPost2010PropOp35
 70
     1
102
RTVSPost2010Prop36
280
     0
102
RTVSPost2010PropOp36
 70
     1
102
RTVSPost2010Prop37
 90
       50
102
RTVSPost2010PropOp37
 70
     1
102
RTVSPost2010Prop38
140
0.0
102
RTVSPost2010PropOp38
 70
     1
102
RTVSPost2010Prop39
140
1.0
102
RTVSPost2010PropOp39
 70
     1
102
RTVSPost2010Prop40
 90
        0
102
RTVSPost2010PropOp40
 70
     1
102
RTVSPost2010Prop41ColorIndex
 90
       18
102
RTVSPost2010Prop41ColorRGB
 90
        0
102
RTVSPost2010PropOp41
 70
     1
102
RTVSPost2010Prop42
 90
       50
102
RTVSPost2010PropOp42
 70
     1
102
RTVSPost2010Prop43
 90
        3
102
RTVSPost2010PropOp43
 70
     1
102
RTVSPost2010Prop44ColorIndex
 90
        5
102
RTVSPost2010Prop44ColorRGB
 90
      255
102
RTVSPost2010PropOp44
 70
     1
102
RTVSPost2010Prop45
280
     0
102
RTVSPost2010PropOp45
 70
     1
102
RTVSPost2010Prop46
 90
       50
102
RTVSPost2010PropOp46
 70
     1
102
RTVSPost2010Prop47
 90
       50
102
RTVSPost2010PropOp47
 70
     1
102
RTVSPost2010Prop48
 90
       50
102
RTVSPost2010PropOp48
 70
     1
102
RTVSPost2010Prop49
280
     0
102
RTVSPost2010PropOp49
 70
     1
102
RTVSPost2010Prop50
 90
       50
102
RTVSPost2010PropOp50
 70
     1
102
RTVSPost2010Prop51ColorIndex
 90
      256
102
RTVSPost2010Prop51ColorRGB
 90
-16777216
102
RTVSPost2010PropOp51
 70
     0
102
RTVSPost2010Prop52
140
1.0
102
RTVSPost2010PropOp52
 70
     0
102
RTVSPost2010Prop53
 90
        2
102
RTVSPost2010PropOp53
 70
     1
102
RTVSPost2010Prop54
  1
strokes_ogs.tif
102
RTVSPost2010PropOp54
 70
     1
102
RTVSPost2010Prop55
280
     0
102
RTVSPost2010PropOp55
 70
     1
102
RTVSPost2010Prop56
140
1.0
102
RTVSPost2010PropOp56
 70
     1
102
RTVSPost2010Prop57
140
1.0
102
RTVSPost2010PropOp57
 70
     1
102
RTVSPropertyOp0
 70
     1
102
RTVSPropertyOp1
 70
     1
102
RTVSPropertyOp2
 70
     1
102
RTVSPropertyOp3
 70
     1
102
RTVSPropertyOp4
 70
     1
102
RTVSPropertyOp5
 70
     1
102
RTVSPropertyOp6
 70
     1
102
RTVSPropertyOp7
 70
     1
102
RTVSPropertyOp8
 70
     1
102
RTVSPropertyOp9
 70
     1
102
RTVSPropertyOp10
 70
     1
102
RTVSPropertyOp11
 70
     1
102
RTVSPropertyOp12
 70
     1
102
RTVSPropertyOp13
 70
     1
102
RTVSPropertyOp14
 70
     1
102
RTVSPropertyOp15
 70
     1
102
RTVSPropertyOp16
 70
     1
102
RTVSPropertyOp17
 70
     1
102
RTVSPropertyOp18
 70
     1
102
RTVSPropertyOp19
 70
     1
102
RTVSPropertyOp20
 70
     1
102
RTVSPropertyOp21
 70
     1
102
RTVSPropertyOp22
 70
     1
102
RTVSPropertyOp23
 70
     1
102
RTVSPropertyOp24
 70
     1
102
RTVSPropertyOp25
 70
     1
102
RTVSPropertyOp26
 70
     1
102
RTVSPropertyOp27
 70
     1
102
RTVSPropertyOp28
 70
     1
102
RTVSPropertyOp29
 70
     1
102
RTVSPropertyOp30
 70
     1
102
RTVSPropertyOp31
 70
     1
102
RTVSPropertyOp32
 70
     1
102
RTVSPropertyOp33
 70
     1
102
RTVSPropertyOp34
 70
     1
102
RTVSPropertyOp35
 70
     1
102
RTVSPropertyOp36
 70
     1
102
RTVSPropertyOp37
 70
     1
102
RTVSPropertyOp38
 70
     1
102
RTVSPropertyOp39
 70
     1
102
RTVSPropertyOp40
 70
     1
102
RTVSPropertyOp41
 70
     1
102
RTVSPropertyOp42
 70
     1
102
RTVSPropertyOp43
 70
     1
102
RTVSPropertyOp44
 70
     1
102
RTVSPropertyOp45
 70
     1
102
RTVSPropertyOp46
 70
     1
102
RTVSPropertyOp47
 70
     1
102
RTVSPropertyOp48
 70
     1
102
RTVSPropertyOp49
 70
     1
102
RTVSPropertyOp50
 70
     1
102
RTVSPropertyOp51
 70
     0
102
RTVSPropertyOp52
 70
     0
102
RTVSPropertyOp53
 70
     1
102
RTVSPropertyOp54
 70
     1
102
RTVSPropertyOp55
 70
     1
102
RTVSPropertyOp56
 70
     1
102
RTVSPropertyOp57
 70
     1
102
RTVSPropertyOp58
 70
     1
102
RTVSPropertyOp59
 70
     1
102
RTVSPropertyOp60
 70
     1
102
RTVSPropertyOp61
 70
     1
102
RTVSPropertyOp62
 70
     1
  0
XRECORD
  5
35E
102
{ACAD_REACTORS
330
35D
102
}
330
35D
100
AcDbXrecord
280
     1
102
RTVSPost2010Prop28
280
     0
102
RTVSPost2010PropOp28
 70
     1
102
RTVSPost2010Prop29
280
     1
102
RTVSPost2010PropOp29
 70
     1
102
RTVSPost2010Prop30
280
     1
102
RTVSPost2010PropOp30
 70
     1
102
RTVSPost2010Prop31
280
     0
102
RTVSPost2010PropOp31
 70
     1
102
RTVSPost2010Prop32
280
     0
102
RTVSPost2010PropOp32
 70
     1
102
RTVSPost2010Prop33
280
     0
102
RTVSPost2010PropOp33
 70
     1
102
RTVSPost2010Prop34
280
     0
102
RTVSPost2010PropOp34
 70
     1
102
RTVSPost2010Prop35
280
     0
102
RTVSPost2010PropOp35
 70
     1
102
RTVSPost2010Prop36
280
     0
102
RTVSPost2010PropOp36
 70
     1
102
RTVSPost2010Prop37
 90
       50
102
RTVSPost2010PropOp37
 70
     1
102
RTVSPost2010Prop38
140
0.0
102
RTVSPost2010PropOp38
 70
     1
102
RTVSPost2010Prop39
140
1.0
102
RTVSPost2010PropOp39
 70
     1
102
RTVSPost2010Prop40
 90
        0
102
RTVSPost2010PropOp40
 70
     1
102
RTVSPost2010Prop41ColorIndex
 90
       18
102
RTVSPost2010Prop41ColorRGB
 90
        0
102
RTVSPost2010PropOp41
 70
     1
102
RTVSPost2010Prop42
 90
       50
102
RTVSPost2010PropOp42
 70
     1
102
RTVSPost2010Prop43
 90
        3
102
RTVSPost2010PropOp43
 70
     1
102
RTVSPost2010Prop44ColorIndex
 90
        5
102
RTVSPost2010Prop44ColorRGB
 90
      255
102
RTVSPost2010PropOp44
 70
     1
102
RTVSPost2010Prop45
280
     0
102
RTVSPost2010PropOp45
 70
     1
102
RTVSPost2010Prop46
 90
       50
102
RTVSPost2010PropOp46
 70
     1
102
RTVSPost2010Prop47
 90
       50
102
RTVSPost2010PropOp47
 70
     1
102
RTVSPost2010Prop48
 90
       50
102
RTVSPost2010PropOp48
 70
     1
102
RTVSPost2010Prop49
280
     0
102
RTVSPost2010PropOp49
 70
     1
102
RTVSPost2010Prop50
 90
       50
102
RTVSPost2010PropOp50
 70
     1
102
RTVSPost2010Prop51ColorIndex
 90
      256
102
RTVSPost2010Prop51ColorRGB
 90
-16777216
102
RTVSPost2010PropOp51
 70
     0
102
RTVSPost2010Prop52
140
1.0
102
RTVSPost2010PropOp52
 70
     0
102
RTVSPost2010Prop53
 90
        2
102
RTVSPost2010PropOp53
 70
     1
102
RTVSPost2010Prop54
  1
strokes_ogs.tif
102
RTVSPost2010PropOp54
 70
     1
102
RTVSPost2010Prop55
280
     0
102
RTVSPost2010PropOp55
 70
     1
102
RTVSPost2010Prop56
140
1.0
102
RTVSPost2010PropOp56
 70
     1
102
RTVSPost2010Prop57
140
1.0
102
RTVSPost2010PropOp57
 70
     1
102
RTVSPropertyOp0
 70
     1
102
RTVSPropertyOp1
 70
     1
102
RTVSPropertyOp2
 70
     1
102
RTVSPropertyOp3
 70
     1
102
RTVSPropertyOp4
 70
     1
102
RTVSPropertyOp5
 70
     1
102
RTVSPropertyOp6
 70
     1
102
RTVSPropertyOp7
 70
     1
102
RTVSPropertyOp8
 70
     1
102
RTVSPropertyOp9
 70
     1
102
RTVSPropertyOp10
 70
     1
102
RTVSPropertyOp11
 70
     1
102
RTVSPropertyOp12
 70
     1
102
RTVSPropertyOp13
 70
     1
102
RTVSPropertyOp14
 70
     1
102
RTVSPropertyOp15
 70
     1
102
RTVSPropertyOp16
 70
     1
102
RTVSPropertyOp17
 70
     1
102
RTVSPropertyOp18
 70
     1
102
RTVSPropertyOp19
 70
     1
102
RTVSPropertyOp20
 70
     1
102
RTVSPropertyOp21
 70
     1
102
RTVSPropertyOp22
 70
     1
102
RTVSPropertyOp23
 70
     1
102
RTVSPropertyOp24
 70
     1
102
RTVSPropertyOp25
 70
     1
102
RTVSPropertyOp26
 70
     1
102
RTVSPropertyOp27
 70
     1
102
RTVSPropertyOp28
 70
     1
102
RTVSPropertyOp29
 70
     1
102
RTVSPropertyOp30
 70
     1
102
RTVSPropertyOp31
 70
     1
102
RTVSPropertyOp32
 70
     1
102
RTVSPropertyOp33
 70
     1
102
RTVSPropertyOp34
 70
     1
102
RTVSPropertyOp35
 70
     1
102
RTVSPropertyOp36
 70
     1
102
RTVSPropertyOp37
 70
     1
102
RTVSPropertyOp38
 70
     1
102
RTVSPropertyOp39
 70
     1
102
RTVSPropertyOp40
 70
     1
102
RTVSPropertyOp41
 70
     1
102
RTVSPropertyOp42
 70
     1
102
RTVSPropertyOp43
 70
     1
102
RTVSPropertyOp44
 70
     1
102
RTVSPropertyOp45
 70
     1
102
RTVSPropertyOp46
 70
     1
102
RTVSPropertyOp47
 70
     1
102
RTVSPropertyOp48
 70
     1
102
RTVSPropertyOp49
 70
     1
102
RTVSPropertyOp50
 70
     1
102
RTVSPropertyOp51
 70
     0
102
RTVSPropertyOp52
 70
     0
102
RTVSPropertyOp53
 70
     1
102
RTVSPropertyOp54
 70
     1
102
RTVSPropertyOp55
 70
     1
102
RTVSPropertyOp56
 70
     1
102
RTVSPropertyOp57
 70
     1
102
RTVSPropertyOp58
 70
     1
102
RTVSPropertyOp59
 70
     1
102
RTVSPropertyOp60
 70
     1
102
RTVSPropertyOp61
 70
     1
102
RTVSPropertyOp62
 70
     1
  0
XRECORD
  5
36E
102
{ACAD_REACTORS
330
36D
102
}
330
36D
100
AcDbXrecord
280
     1
102
RTVSPost2010Prop28
280
     0
102
RTVSPost2010PropOp28
 70
     0
102
RTVSPost2010Prop29
280
     1
102
RTVSPost2010PropOp29
 70
     0
102
RTVSPost2010Prop30
280
     1
102
RTVSPost2010PropOp30
 70
     0
102
RTVSPost2010Prop31
280
     0
102
RTVSPost2010PropOp31
 70
     0
102
RTVSPost2010Prop32
280
     0
102
RTVSPost2010PropOp32
 70
     0
102
RTVSPost2010Prop33
280
     0
102
RTVSPost2010PropOp33
 70
     0
102
RTVSPost2010Prop34
280
     0
102
RTVSPost2010PropOp34
 70
     0
102
RTVSPost2010Prop35
280
     0
102
RTVSPost2010PropOp35
 70
     0
102
RTVSPost2010Prop36
280
     0
102
RTVSPost2010PropOp36
 70
     0
102
RTVSPost2010Prop37
 90
       50
102
RTVSPost2010PropOp37
 70
     0
102
RTVSPost2010Prop38
140
0.0
102
RTVSPost2010PropOp38
 70
     0
102
RTVSPost2010Prop39
140
1.0
102
RTVSPost2010PropOp39
 70
     0
102
RTVSPost2010Prop40
 90
        0
102
RTVSPost2010PropOp40
 70
     0
102
RTVSPost2010Prop41ColorIndex
 90
       18
102
RTVSPost2010Prop41ColorRGB
 90
        0
102
RTVSPost2010PropOp41
 70
     0
102
RTVSPost2010Prop42
 90
       50
102
RTVSPost2010PropOp42
 70
     0
102
RTVSPost2010Prop43
 90
        3
102
RTVSPost2010PropOp43
 70
     0
102
RTVSPost2010Prop44ColorIndex
 90
        5
102
RTVSPost2010Prop44ColorRGB
 90
      255
102
RTVSPost2010PropOp44
 70
     0
102
RTVSPost2010Prop45
280
     0
102
RTVSPost2010PropOp45
 70
     0
102
RTVSPost2010Prop46
 90
       50
102
RTVSPost2010PropOp46
 70
     0
102
RTVSPost2010Prop47
 90
       50
102
RTVSPost2010PropOp47
 70
     0
102
RTVSPost2010Prop48
 90
       50
102
RTVSPost2010PropOp48
 70
     0
102
RTVSPost2010Prop49
280
     0
102
RTVSPost2010PropOp49
 70
     0
102
RTVSPost2010Prop50
 90
       50
102
RTVSPost2010PropOp50
 70
     0
102
RTVSPost2010Prop51ColorIndex
 90
      256
102
RTVSPost2010Prop51ColorRGB
 90
-16777216
102
RTVSPost2010PropOp51
 70
     0
102
RTVSPost2010Prop52
140
1.0
102
RTVSPost2010PropOp52
 70
     0
102
RTVSPost2010Prop53
 90
        2
102
RTVSPost2010PropOp53
 70
     0
102
RTVSPost2010Prop54
  1
strokes_ogs.tif
102
RTVSPost2010PropOp54
 70
     0
102
RTVSPost2010Prop55
280
     0
102
RTVSPost2010PropOp55
 70
     0
102
RTVSPost2010Prop56
140
1.0
102
RTVSPost2010PropOp56
 70
     0
102
RTVSPost2010Prop57
140
1.0
102
RTVSPost2010PropOp57
 70
     0
102
RTVSPropertyOp0
 70
     0
102
RTVSPropertyOp1
 70
     0
102
RTVSPropertyOp2
 70
     0
102
RTVSPropertyOp3
 70
     0
102
RTVSPropertyOp4
 70
     0
102
RTVSPropertyOp5
 70
     0
102
RTVSPropertyOp6
 70
     0
102
RTVSPropertyOp7
 70
     0
102
RTVSPropertyOp8
 70
     0
102
RTVSPropertyOp9
 70
     0
102
RTVSPropertyOp10
 70
     0
102
RTVSPropertyOp11
 70
     0
102
RTVSPropertyOp12
 70
     0
102
RTVSPropertyOp13
 70
     0
102
RTVSPropertyOp14
 70
     2
102
RTVSPropertyOp15
 70
     0
102
RTVSPropertyOp16
 70
     0
102
RTVSPropertyOp17
 70
     0
102
RTVSPropertyOp18
 70
     0
102
RTVSPropertyOp19
 70
     0
102
RTVSPropertyOp20
 70
     0
102
RTVSPropertyOp21
 70
     0
102
RTVSPropertyOp22
 70
     0
102
RTVSPropertyOp23
 70
     0
102
RTVSPropertyOp24
 70
     0
102
RTVSPropertyOp25
 70
     0
102
RTVSPropertyOp26
 70
     0
102
RTVSPropertyOp27
 70
     0
102
RTVSPropertyOp28
 70
     0
102
RTVSPropertyOp29
 70
     0
102
RTVSPropertyOp30
 70
     0
102
RTVSPropertyOp31
 70
     0
102
RTVSPropertyOp32
 70
     0
102
RTVSPropertyOp33
 70
     0
102
RTVSPropertyOp34
 70
     0
102
RTVSPropertyOp35
 70
     0
102
RTVSPropertyOp36
 70
     0
102
RTVSPropertyOp37
 70
     0
102
RTVSPropertyOp38
 70
     0
102
RTVSPropertyOp39
 70
     0
102
RTVSPropertyOp40
 70
     0
102
RTVSPropertyOp41
 70
     0
102
RTVSPropertyOp42
 70
     0
102
RTVSPropertyOp43
 70
     0
102
RTVSPropertyOp44
 70
     0
102
RTVSPropertyOp45
 70
     0
102
RTVSPropertyOp46
 70
     0
102
RTVSPropertyOp47
 70
     0
102
RTVSPropertyOp48
 70
     0
102
RTVSPropertyOp49
 70
     0
102
RTVSPropertyOp50
 70
     0
102
RTVSPropertyOp51
 70
     0
102
RTVSPropertyOp52
 70
     0
102
RTVSPropertyOp53
 70
     0
102
RTVSPropertyOp54
 70
     0
102
RTVSPropertyOp55
 70
     0
102
RTVSPropertyOp56
 70
     0
102
RTVSPropertyOp57
 70
     0
102
RTVSPropertyOp58
 70
     1
102
RTVSPropertyOp59
 70
     1
102
RTVSPropertyOp60
 70
     1
102
RTVSPropertyOp61
 70
     1
102
RTVSPropertyOp62
 70
     1
  0
XRECORD
  5
366
102
{ACAD_REACTORS
330
365
102
}
330
365
100
AcDbXrecord
280
     1
102
RTVSPost2010Prop28
280
     0
102
RTVSPost2010PropOp28
 70
     1
102
RTVSPost2010Prop29
280
     1
102
RTVSPost2010PropOp29
 70
     1
102
RTVSPost2010Prop30
280
     1
102
RTVSPost2010PropOp30
 70
     1
102
RTVSPost2010Prop31
280
     0
102
RTVSPost2010PropOp31
 70
     1
102
RTVSPost2010Prop32
280
     0
102
RTVSPost2010PropOp32
 70
     1
102
RTVSPost2010Prop33
280
     0
102
RTVSPost2010PropOp33
 70
     1
102
RTVSPost2010Prop34
280
     0
102
RTVSPost2010PropOp34
 70
     1
102
RTVSPost2010Prop35
280
     0
102
RTVSPost2010PropOp35
 70
     1
102
RTVSPost2010Prop36
280
     0
102
RTVSPost2010PropOp36
 70
     1
102
RTVSPost2010Prop37
 90
       50
102
RTVSPost2010PropOp37
 70
     1
102
RTVSPost2010Prop38
140
0.0
102
RTVSPost2010PropOp38
 70
     1
102
RTVSPost2010Prop39
140
1.0
102
RTVSPost2010PropOp39
 70
     1
102
RTVSPost2010Prop40
 90
        0
102
RTVSPost2010PropOp40
 70
     1
102
RTVSPost2010Prop41ColorIndex
 90
       18
102
RTVSPost2010Prop41ColorRGB
 90
        0
102
RTVSPost2010PropOp41
 70
     1
102
RTVSPost2010Prop42
 90
       50
102
RTVSPost2010PropOp42
 70
     1
102
RTVSPost2010Prop43
 90
        3
102
RTVSPost2010PropOp43
 70
     1
102
RTVSPost2010Prop44ColorIndex
 90
        5
102
RTVSPost2010Prop44ColorRGB
 90
      255
102
RTVSPost2010PropOp44
 70
     1
102
RTVSPost2010Prop45
280
     0
102
RTVSPost2010PropOp45
 70
     1
102
RTVSPost2010Prop46
 90
       50
102
RTVSPost2010PropOp46
 70
     1
102
RTVSPost2010Prop47
 90
       50
102
RTVSPost2010PropOp47
 70
     1
102
RTVSPost2010Prop48
 90
       50
102
RTVSPost2010PropOp48
 70
     1
102
RTVSPost2010Prop49
280
     0
102
RTVSPost2010PropOp49
 70
     1
102
RTVSPost2010Prop50
 90
       50
102
RTVSPost2010PropOp50
 70
     1
102
RTVSPost2010Prop51ColorIndex
 90
      256
102
RTVSPost2010Prop51ColorRGB
 90
-16777216
102
RTVSPost2010PropOp51
 70
     0
102
RTVSPost2010Prop52
140
1.0
102
RTVSPost2010PropOp52
 70
     0
102
RTVSPost2010Prop53
 90
        2
102
RTVSPost2010PropOp53
 70
     1
102
RTVSPost2010Prop54
  1
strokes_ogs.tif
102
RTVSPost2010PropOp54
 70
     1
102
RTVSPost2010Prop55
280
     0
102
RTVSPost2010PropOp55
 70
     1
102
RTVSPost2010Prop56
140
1.0
102
RTVSPost2010PropOp56
 70
     1
102
RTVSPost2010Prop57
140
1.0
102
RTVSPost2010PropOp57
 70
     1
102
RTVSPropertyOp0
 70
     1
102
RTVSPropertyOp1
 70
     1
102
RTVSPropertyOp2
 70
     1
102
RTVSPropertyOp3
 70
     1
102
RTVSPropertyOp4
 70
     1
102
RTVSPropertyOp5
 70
     1
102
RTVSPropertyOp6
 70
     1
102
RTVSPropertyOp7
 70
     1
102
RTVSPropertyOp8
 70
     1
102
RTVSPropertyOp9
 70
     1
102
RTVSPropertyOp10
 70
     1
102
RTVSPropertyOp11
 70
     1
102
RTVSPropertyOp12
 70
     1
102
RTVSPropertyOp13
 70
     1
102
RTVSPropertyOp14
 70
     1
102
RTVSPropertyOp15
 70
     1
102
RTVSPropertyOp16
 70
     1
102
RTVSPropertyOp17
 70
     1
102
RTVSPropertyOp18
 70
     1
102
RTVSPropertyOp19
 70
     1
102
RTVSPropertyOp20
 70
     1
102
RTVSPropertyOp21
 70
     1
102
RTVSPropertyOp22
 70
     1
102
RTVSPropertyOp23
 70
     1
102
RTVSPropertyOp24
 70
     1
102
RTVSPropertyOp25
 70
     1
102
RTVSPropertyOp26
 70
     1
102
RTVSPropertyOp27
 70
     1
102
RTVSPropertyOp28
 70
     1
102
RTVSPropertyOp29
 70
     1
102
RTVSPropertyOp30
 70
     1
102
RTVSPropertyOp31
 70
     1
102
RTVSPropertyOp32
 70
     1
102
RTVSPropertyOp33
 70
     1
102
RTVSPropertyOp34
 70
     1
102
RTVSPropertyOp35
 70
     1
102
RTVSPropertyOp36
 70
     1
102
RTVSPropertyOp37
 70
     1
102
RTVSPropertyOp38
 70
     1
102
RTVSPropertyOp39
 70
     1
102
RTVSPropertyOp40
 70
     1
102
RTVSPropertyOp41
 70
     1
102
RTVSPropertyOp42
 70
     1
102
RTVSPropertyOp43
 70
     1
102
RTVSPropertyOp44
 70
     1
102
RTVSPropertyOp45
 70
     1
102
RTVSPropertyOp46
 70
     1
102
RTVSPropertyOp47
 70
     1
102
RTVSPropertyOp48
 70
     1
102
RTVSPropertyOp49
 70
     1
102
RTVSPropertyOp50
 70
     1
102
RTVSPropertyOp51
 70
     0
102
RTVSPropertyOp52
 70
     0
102
RTVSPropertyOp53
 70
     1
102
RTVSPropertyOp54
 70
     1
102
RTVSPropertyOp55
 70
     1
102
RTVSPropertyOp56
 70
     1
102
RTVSPropertyOp57
 70
     1
102
RTVSPropertyOp58
 70
     1
102
RTVSPropertyOp59
 70
     1
102
RTVSPropertyOp60
 70
     1
102
RTVSPropertyOp61
 70
     1
102
RTVSPropertyOp62
 70
     1
  0
XRECORD
  5
34A
102
{ACAD_REACTORS
330
349
102
}
330
349
100
AcDbXrecord
280
     1
102
RTVSPost2010Prop28
280
     0
102
RTVSPost2010PropOp28
 70
     1
102
RTVSPost2010Prop29
280
     1
102
RTVSPost2010PropOp29
 70
     1
102
RTVSPost2010Prop30
280
     1
102
RTVSPost2010PropOp30
 70
     1
102
RTVSPost2010Prop31
280
     0
102
RTVSPost2010PropOp31
 70
     1
102
RTVSPost2010Prop32
280
     0
102
RTVSPost2010PropOp32
 70
     1
102
RTVSPost2010Prop33
280
     0
102
RTVSPost2010PropOp33
 70
     1
102
RTVSPost2010Prop34
280
     0
102
RTVSPost2010PropOp34
 70
     1
102
RTVSPost2010Prop35
280
     0
102
RTVSPost2010PropOp35
 70
     1
102
RTVSPost2010Prop36
280
     0
102
RTVSPost2010PropOp36
 70
     1
102
RTVSPost2010Prop37
 90
       50
102
RTVSPost2010PropOp37
 70
     1
102
RTVSPost2010Prop38
140
0.0
102
RTVSPost2010PropOp38
 70
     1
102
RTVSPost2010Prop39
140
1.0
102
RTVSPost2010PropOp39
 70
     1
102
RTVSPost2010Prop40
 90
        0
102
RTVSPost2010PropOp40
 70
     1
102
RTVSPost2010Prop41ColorIndex
 90
       18
102
RTVSPost2010Prop41ColorRGB
 90
        0
102
RTVSPost2010PropOp41
 70
     1
102
RTVSPost2010Prop42
 90
       50
102
RTVSPost2010PropOp42
 70
     1
102
RTVSPost2010Prop43
 90
        3
102
RTVSPost2010PropOp43
 70
     1
102
RTVSPost2010Prop44ColorIndex
 90
        5
102
RTVSPost2010Prop44ColorRGB
 90
      255
102
RTVSPost2010PropOp44
 70
     1
102
RTVSPost2010Prop45
280
     0
102
RTVSPost2010PropOp45
 70
     1
102
RTVSPost2010Prop46
 90
       50
102
RTVSPost2010PropOp46
 70
     1
102
RTVSPost2010Prop47
 90
       50
102
RTVSPost2010PropOp47
 70
     1
102
RTVSPost2010Prop48
 90
       50
102
RTVSPost2010PropOp48
 70
     1
102
RTVSPost2010Prop49
280
     0
102
RTVSPost2010PropOp49
 70
     1
102
RTVSPost2010Prop50
 90
       50
102
RTVSPost2010PropOp50
 70
     1
102
RTVSPost2010Prop51ColorIndex
 90
      256
102
RTVSPost2010Prop51ColorRGB
 90
-16777216
102
RTVSPost2010PropOp51
 70
     0
102
RTVSPost2010Prop52
140
1.0
102
RTVSPost2010PropOp52
 70
     0
102
RTVSPost2010Prop53
 90
        2
102
RTVSPost2010PropOp53
 70
     1
102
RTVSPost2010Prop54
  1
strokes_ogs.tif
102
RTVSPost2010PropOp54
 70
     1
102
RTVSPost2010Prop55
280
     0
102
RTVSPost2010PropOp55
 70
     1
102
RTVSPost2010Prop56
140
1.0
102
RTVSPost2010PropOp56
 70
     1
102
RTVSPost2010Prop57
140
1.0
102
RTVSPost2010PropOp57
 70
     1
102
RTVSPropertyOp0
 70
     1
102
RTVSPropertyOp1
 70
     1
102
RTVSPropertyOp2
 70
     1
102
RTVSPropertyOp3
 70
     1
102
RTVSPropertyOp4
 70
     1
102
RTVSPropertyOp5
 70
     1
102
RTVSPropertyOp6
 70
     1
102
RTVSPropertyOp7
 70
     1
102
RTVSPropertyOp8
 70
     1
102
RTVSPropertyOp9
 70
     1
102
RTVSPropertyOp10
 70
     1
102
RTVSPropertyOp11
 70
     1
102
RTVSPropertyOp12
 70
     1
102
RTVSPropertyOp13
 70
     1
102
RTVSPropertyOp14
 70
     1
102
RTVSPropertyOp15
 70
     1
102
RTVSPropertyOp16
 70
     1
102
RTVSPropertyOp17
 70
     1
102
RTVSPropertyOp18
 70
     1
102
RTVSPropertyOp19
 70
     1
102
RTVSPropertyOp20
 70
     1
102
RTVSPropertyOp21
 70
     1
102
RTVSPropertyOp22
 70
     1
102
RTVSPropertyOp23
 70
     1
102
RTVSPropertyOp24
 70
     1
102
RTVSPropertyOp25
 70
     1
102
RTVSPropertyOp26
 70
     1
102
RTVSPropertyOp27
 70
     1
102
RTVSPropertyOp28
 70
     1
102
RTVSPropertyOp29
 70
     1
102
RTVSPropertyOp30
 70
     1
102
RTVSPropertyOp31
 70
     1
102
RTVSPropertyOp32
 70
     1
102
RTVSPropertyOp33
 70
     1
102
RTVSPropertyOp34
 70
     1
102
RTVSPropertyOp35
 70
     1
102
RTVSPropertyOp36
 70
     1
102
RTVSPropertyOp37
 70
     1
102
RTVSPropertyOp38
 70
     1
102
RTVSPropertyOp39
 70
     1
102
RTVSPropertyOp40
 70
     1
102
RTVSPropertyOp41
 70
     1
102
RTVSPropertyOp42
 70
     1
102
RTVSPropertyOp43
 70
     1
102
RTVSPropertyOp44
 70
     1
102
RTVSPropertyOp45
 70
     1
102
RTVSPropertyOp46
 70
     1
102
RTVSPropertyOp47
 70
     1
102
RTVSPropertyOp48
 70
     1
102
RTVSPropertyOp49
 70
     1
102
RTVSPropertyOp50
 70
     1
102
RTVSPropertyOp51
 70
     0
102
RTVSPropertyOp52
 70
     0
102
RTVSPropertyOp53
 70
     1
102
RTVSPropertyOp54
 70
     1
102
RTVSPropertyOp55
 70
     1
102
RTVSPropertyOp56
 70
     1
102
RTVSPropertyOp57
 70
     1
102
RTVSPropertyOp58
 70
     1
102
RTVSPropertyOp59
 70
     1
102
RTVSPropertyOp60
 70
     1
102
RTVSPropertyOp61
 70
     1
102
RTVSPropertyOp62
 70
     1
  0
XRECORD
  5
34C
102
{ACAD_REACTORS
330
34B
102
}
330
34B
100
AcDbXrecord
280
     1
102
RTVSPost2010Prop28
280
     0
102
RTVSPost2010PropOp28
 70
     1
102
RTVSPost2010Prop29
280
     1
102
RTVSPost2010PropOp29
 70
     1
102
RTVSPost2010Prop30
280
     1
102
RTVSPost2010PropOp30
 70
     1
102
RTVSPost2010Prop31
280
     0
102
RTVSPost2010PropOp31
 70
     1
102
RTVSPost2010Prop32
280
     0
102
RTVSPost2010PropOp32
 70
     1
102
RTVSPost2010Prop33
280
     0
102
RTVSPost2010PropOp33
 70
     1
102
RTVSPost2010Prop34
280
     0
102
RTVSPost2010PropOp34
 70
     1
102
RTVSPost2010Prop35
280
     0
102
RTVSPost2010PropOp35
 70
     1
102
RTVSPost2010Prop36
280
     0
102
RTVSPost2010PropOp36
 70
     1
102
RTVSPost2010Prop37
 90
       50
102
RTVSPost2010PropOp37
 70
     1
102
RTVSPost2010Prop38
140
0.0
102
RTVSPost2010PropOp38
 70
     1
102
RTVSPost2010Prop39
140
1.0
102
RTVSPost2010PropOp39
 70
     1
102
RTVSPost2010Prop40
 90
        0
102
RTVSPost2010PropOp40
 70
     1
102
RTVSPost2010Prop41ColorIndex
 90
       18
102
RTVSPost2010Prop41ColorRGB
 90
        0
102
RTVSPost2010PropOp41
 70
     1
102
RTVSPost2010Prop42
 90
       50
102
RTVSPost2010PropOp42
 70
     1
102
RTVSPost2010Prop43
 90
        3
102
RTVSPost2010PropOp43
 70
     1
102
RTVSPost2010Prop44ColorIndex
 90
        5
102
RTVSPost2010Prop44ColorRGB
 90
      255
102
RTVSPost2010PropOp44
 70
     1
102
RTVSPost2010Prop45
280
     0
102
RTVSPost2010PropOp45
 70
     1
102
RTVSPost2010Prop46
 90
       50
102
RTVSPost2010PropOp46
 70
     1
102
RTVSPost2010Prop47
 90
       50
102
RTVSPost2010PropOp47
 70
     1
102
RTVSPost2010Prop48
 90
       50
102
RTVSPost2010PropOp48
 70
     1
102
RTVSPost2010Prop49
280
     0
102
RTVSPost2010PropOp49
 70
     1
102
RTVSPost2010Prop50
 90
       50
102
RTVSPost2010PropOp50
 70
     1
102
RTVSPost2010Prop51ColorIndex
 90
      256
102
RTVSPost2010Prop51ColorRGB
 90
-16777216
102
RTVSPost2010PropOp51
 70
     0
102
RTVSPost2010Prop52
140
1.0
102
RTVSPost2010PropOp52
 70
     0
102
RTVSPost2010Prop53
 90
        2
102
RTVSPost2010PropOp53
 70
     1
102
RTVSPost2010Prop54
  1
strokes_ogs.tif
102
RTVSPost2010PropOp54
 70
     1
102
RTVSPost2010Prop55
280
     0
102
RTVSPost2010PropOp55
 70
     1
102
RTVSPost2010Prop56
140
1.0
102
RTVSPost2010PropOp56
 70
     1
102
RTVSPost2010Prop57
140
1.0
102
RTVSPost2010PropOp57
 70
     1
102
RTVSPropertyOp0
 70
     1
102
RTVSPropertyOp1
 70
     1
102
RTVSPropertyOp2
 70
     1
102
RTVSPropertyOp3
 70
     1
102
RTVSPropertyOp4
 70
     1
102
RTVSPropertyOp5
 70
     1
102
RTVSPropertyOp6
 70
     1
102
RTVSPropertyOp7
 70
     1
102
RTVSPropertyOp8
 70
     1
102
RTVSPropertyOp9
 70
     1
102
RTVSPropertyOp10
 70
     1
102
RTVSPropertyOp11
 70
     1
102
RTVSPropertyOp12
 70
     1
102
RTVSPropertyOp13
 70
     1
102
RTVSPropertyOp14
 70
     1
102
RTVSPropertyOp15
 70
     1
102
RTVSPropertyOp16
 70
     1
102
RTVSPropertyOp17
 70
     1
102
RTVSPropertyOp18
 70
     1
102
RTVSPropertyOp19
 70
     1
102
RTVSPropertyOp20
 70
     1
102
RTVSPropertyOp21
 70
     1
102
RTVSPropertyOp22
 70
     1
102
RTVSPropertyOp23
 70
     1
102
RTVSPropertyOp24
 70
     1
102
RTVSPropertyOp25
 70
     1
102
RTVSPropertyOp26
 70
     1
102
RTVSPropertyOp27
 70
     1
102
RTVSPropertyOp28
 70
     1
102
RTVSPropertyOp29
 70
     1
102
RTVSPropertyOp30
 70
     1
102
RTVSPropertyOp31
 70
     1
102
RTVSPropertyOp32
 70
     1
102
RTVSPropertyOp33
 70
     1
102
RTVSPropertyOp34
 70
     1
102
RTVSPropertyOp35
 70
     1
102
RTVSPropertyOp36
 70
     1
102
RTVSPropertyOp37
 70
     1
102
RTVSPropertyOp38
 70
     1
102
RTVSPropertyOp39
 70
     1
102
RTVSPropertyOp40
 70
     1
102
RTVSPropertyOp41
 70
     1
102
RTVSPropertyOp42
 70
     1
102
RTVSPropertyOp43
 70
     1
102
RTVSPropertyOp44
 70
     1
102
RTVSPropertyOp45
 70
     1
102
RTVSPropertyOp46
 70
     1
102
RTVSPropertyOp47
 70
     1
102
RTVSPropertyOp48
 70
     1
102
RTVSPropertyOp49
 70
     1
102
RTVSPropertyOp50
 70
     1
102
RTVSPropertyOp51
 70
     0
102
RTVSPropertyOp52
 70
     0
102
RTVSPropertyOp53
 70
     1
102
RTVSPropertyOp54
 70
     1
102
RTVSPropertyOp55
 70
     1
102
RTVSPropertyOp56
 70
     1
102
RTVSPropertyOp57
 70
     1
102
RTVSPropertyOp58
 70
     1
102
RTVSPropertyOp59
 70
     1
102
RTVSPropertyOp60
 70
     1
102
RTVSPropertyOp61
 70
     1
102
RTVSPropertyOp62
 70
     1
  0
XRECORD
  5
34E
102
{ACAD_REACTORS
330
34D
102
}
330
34D
100
AcDbXrecord
280
     1
102
RTVSPost2010Prop28
280
     0
102
RTVSPost2010PropOp28
 70
     1
102
RTVSPost2010Prop29
280
     1
102
RTVSPost2010PropOp29
 70
     1
102
RTVSPost2010Prop30
280
     1
102
RTVSPost2010PropOp30
 70
     1
102
RTVSPost2010Prop31
280
     0
102
RTVSPost2010PropOp31
 70
     1
102
RTVSPost2010Prop32
280
     0
102
RTVSPost2010PropOp32
 70
     1
102
RTVSPost2010Prop33
280
     0
102
RTVSPost2010PropOp33
 70
     1
102
RTVSPost2010Prop34
280
     0
102
RTVSPost2010PropOp34
 70
     1
102
RTVSPost2010Prop35
280
     0
102
RTVSPost2010PropOp35
 70
     1
102
RTVSPost2010Prop36
280
     0
102
RTVSPost2010PropOp36
 70
     1
102
RTVSPost2010Prop37
 90
       50
102
RTVSPost2010PropOp37
 70
     1
102
RTVSPost2010Prop38
140
0.0
102
RTVSPost2010PropOp38
 70
     1
102
RTVSPost2010Prop39
140
1.0
102
RTVSPost2010PropOp39
 70
     1
102
RTVSPost2010Prop40
 90
        0
102
RTVSPost2010PropOp40
 70
     1
102
RTVSPost2010Prop41ColorIndex
 90
       18
102
RTVSPost2010Prop41ColorRGB
 90
        0
102
RTVSPost2010PropOp41
 70
     1
102
RTVSPost2010Prop42
 90
       50
102
RTVSPost2010PropOp42
 70
     1
102
RTVSPost2010Prop43
 90
        3
102
RTVSPost2010PropOp43
 70
     1
102
RTVSPost2010Prop44ColorIndex
 90
        5
102
RTVSPost2010Prop44ColorRGB
 90
      255
102
RTVSPost2010PropOp44
 70
     1
102
RTVSPost2010Prop45
280
     0
102
RTVSPost2010PropOp45
 70
     1
102
RTVSPost2010Prop46
 90
       50
102
RTVSPost2010PropOp46
 70
     1
102
RTVSPost2010Prop47
 90
       50
102
RTVSPost2010PropOp47
 70
     1
102
RTVSPost2010Prop48
 90
       50
102
RTVSPost2010PropOp48
 70
     1
102
RTVSPost2010Prop49
280
     0
102
RTVSPost2010PropOp49
 70
     1
102
RTVSPost2010Prop50
 90
       50
102
RTVSPost2010PropOp50
 70
     1
102
RTVSPost2010Prop51ColorIndex
 90
      256
102
RTVSPost2010Prop51ColorRGB
 90
-16777216
102
RTVSPost2010PropOp51
 70
     0
102
RTVSPost2010Prop52
140
1.0
102
RTVSPost2010PropOp52
 70
     0
102
RTVSPost2010Prop53
 90
        2
102
RTVSPost2010PropOp53
 70
     1
102
RTVSPost2010Prop54
  1
strokes_ogs.tif
102
RTVSPost2010PropOp54
 70
     1
102
RTVSPost2010Prop55
280
     0
102
RTVSPost2010PropOp55
 70
     1
102
RTVSPost2010Prop56
140
1.0
102
RTVSPost2010PropOp56
 70
     1
102
RTVSPost2010Prop57
140
1.0
102
RTVSPost2010PropOp57
 70
     1
102
RTVSPropertyOp0
 70
     1
102
RTVSPropertyOp1
 70
     1
102
RTVSPropertyOp2
 70
     1
102
RTVSPropertyOp3
 70
     1
102
RTVSPropertyOp4
 70
     1
102
RTVSPropertyOp5
 70
     1
102
RTVSPropertyOp6
 70
     1
102
RTVSPropertyOp7
 70
     1
102
RTVSPropertyOp8
 70
     1
102
RTVSPropertyOp9
 70
     1
102
RTVSPropertyOp10
 70
     1
102
RTVSPropertyOp11
 70
     1
102
RTVSPropertyOp12
 70
     1
102
RTVSPropertyOp13
 70
     1
102
RTVSPropertyOp14
 70
     1
102
RTVSPropertyOp15
 70
     1
102
RTVSPropertyOp16
 70
     1
102
RTVSPropertyOp17
 70
     1
102
RTVSPropertyOp18
 70
     1
102
RTVSPropertyOp19
 70
     1
102
RTVSPropertyOp20
 70
     1
102
RTVSPropertyOp21
 70
     1
102
RTVSPropertyOp22
 70
     1
102
RTVSPropertyOp23
 70
     1
102
RTVSPropertyOp24
 70
     1
102
RTVSPropertyOp25
 70
     1
102
RTVSPropertyOp26
 70
     1
102
RTVSPropertyOp27
 70
     1
102
RTVSPropertyOp28
 70
     1
102
RTVSPropertyOp29
 70
     1
102
RTVSPropertyOp30
 70
     1
102
RTVSPropertyOp31
 70
     1
102
RTVSPropertyOp32
 70
     1
102
RTVSPropertyOp33
 70
     1
102
RTVSPropertyOp34
 70
     1
102
RTVSPropertyOp35
 70
     1
102
RTVSPropertyOp36
 70
     1
102
RTVSPropertyOp37
 70
     1
102
RTVSPropertyOp38
 70
     1
102
RTVSPropertyOp39
 70
     1
102
RTVSPropertyOp40
 70
     1
102
RTVSPropertyOp41
 70
     1
102
RTVSPropertyOp42
 70
     1
102
RTVSPropertyOp43
 70
     1
102
RTVSPropertyOp44
 70
     1
102
RTVSPropertyOp45
 70
     1
102
RTVSPropertyOp46
 70
     1
102
RTVSPropertyOp47
 70
     1
102
RTVSPropertyOp48
 70
     1
102
RTVSPropertyOp49
 70
     1
102
RTVSPropertyOp50
 70
     1
102
RTVSPropertyOp51
 70
     0
102
RTVSPropertyOp52
 70
     0
102
RTVSPropertyOp53
 70
     1
102
RTVSPropertyOp54
 70
     1
102
RTVSPropertyOp55
 70
     1
102
RTVSPropertyOp56
 70
     1
102
RTVSPropertyOp57
 70
     1
102
RTVSPropertyOp58
 70
     1
102
RTVSPropertyOp59
 70
     1
102
RTVSPropertyOp60
 70
     1
102
RTVSPropertyOp61
 70
     1
102
RTVSPropertyOp62
 70
     1
  0
XRECORD
  5
350
102
{ACAD_REACTORS
330
34F
102
}
330
34F
100
AcDbXrecord
280
     1
102
RTVSPost2010Prop28
280
     0
102
RTVSPost2010PropOp28
 70
     1
102
RTVSPost2010Prop29
280
     1
102
RTVSPost2010PropOp29
 70
     1
102
RTVSPost2010Prop30
280
     1
102
RTVSPost2010PropOp30
 70
     1
102
RTVSPost2010Prop31
280
     0
102
RTVSPost2010PropOp31
 70
     1
102
RTVSPost2010Prop32
280
     0
102
RTVSPost2010PropOp32
 70
     1
102
RTVSPost2010Prop33
280
     0
102
RTVSPost2010PropOp33
 70
     1
102
RTVSPost2010Prop34
280
     0
102
RTVSPost2010PropOp34
 70
     1
102
RTVSPost2010Prop35
280
     0
102
RTVSPost2010PropOp35
 70
     1
102
RTVSPost2010Prop36
280
     0
102
RTVSPost2010PropOp36
 70
     1
102
RTVSPost2010Prop37
 90
       50
102
RTVSPost2010PropOp37
 70
     1
102
RTVSPost2010Prop38
140
0.0
102
RTVSPost2010PropOp38
 70
     1
102
RTVSPost2010Prop39
140
1.0
102
RTVSPost2010PropOp39
 70
     1
102
RTVSPost2010Prop40
 90
        0
102
RTVSPost2010PropOp40
 70
     1
102
RTVSPost2010Prop41ColorIndex
 90
       18
102
RTVSPost2010Prop41ColorRGB
 90
        0
102
RTVSPost2010PropOp41
 70
     1
102
RTVSPost2010Prop42
 90
       50
102
RTVSPost2010PropOp42
 70
     1
102
RTVSPost2010Prop43
 90
        3
102
RTVSPost2010PropOp43
 70
     1
102
RTVSPost2010Prop44ColorIndex
 90
        5
102
RTVSPost2010Prop44ColorRGB
 90
      255
102
RTVSPost2010PropOp44
 70
     1
102
RTVSPost2010Prop45
280
     0
102
RTVSPost2010PropOp45
 70
     1
102
RTVSPost2010Prop46
 90
       50
102
RTVSPost2010PropOp46
 70
     1
102
RTVSPost2010Prop47
 90
       50
102
RTVSPost2010PropOp47
 70
     1
102
RTVSPost2010Prop48
 90
       50
102
RTVSPost2010PropOp48
 70
     1
102
RTVSPost2010Prop49
280
     0
102
RTVSPost2010PropOp49
 70
     1
102
RTVSPost2010Prop50
 90
       50
102
RTVSPost2010PropOp50
 70
     1
102
RTVSPost2010Prop51ColorIndex
 90
      256
102
RTVSPost2010Prop51ColorRGB
 90
-16777216
102
RTVSPost2010PropOp51
 70
     0
102
RTVSPost2010Prop52
140
1.0
102
RTVSPost2010PropOp52
 70
     0
102
RTVSPost2010Prop53
 90
        2
102
RTVSPost2010PropOp53
 70
     1
102
RTVSPost2010Prop54
  1
strokes_ogs.tif
102
RTVSPost2010PropOp54
 70
     1
102
RTVSPost2010Prop55
280
     0
102
RTVSPost2010PropOp55
 70
     1
102
RTVSPost2010Prop56
140
1.0
102
RTVSPost2010PropOp56
 70
     1
102
RTVSPost2010Prop57
140
1.0
102
RTVSPost2010PropOp57
 70
     1
102
RTVSPropertyOp0
 70
     1
102
RTVSPropertyOp1
 70
     1
102
RTVSPropertyOp2
 70
     1
102
RTVSPropertyOp3
 70
     1
102
RTVSPropertyOp4
 70
     1
102
RTVSPropertyOp5
 70
     1
102
RTVSPropertyOp6
 70
     1
102
RTVSPropertyOp7
 70
     1
102
RTVSPropertyOp8
 70
     1
102
RTVSPropertyOp9
 70
     1
102
RTVSPropertyOp10
 70
     1
102
RTVSPropertyOp11
 70
     1
102
RTVSPropertyOp12
 70
     1
102
RTVSPropertyOp13
 70
     1
102
RTVSPropertyOp14
 70
     1
102
RTVSPropertyOp15
 70
     1
102
RTVSPropertyOp16
 70
     1
102
RTVSPropertyOp17
 70
     1
102
RTVSPropertyOp18
 70
     1
102
RTVSPropertyOp19
 70
     1
102
RTVSPropertyOp20
 70
     1
102
RTVSPropertyOp21
 70
     1
102
RTVSPropertyOp22
 70
     1
102
RTVSPropertyOp23
 70
     1
102
RTVSPropertyOp24
 70
     1
102
RTVSPropertyOp25
 70
     1
102
RTVSPropertyOp26
 70
     1
102
RTVSPropertyOp27
 70
     1
102
RTVSPropertyOp28
 70
     1
102
RTVSPropertyOp29
 70
     1
102
RTVSPropertyOp30
 70
     1
102
RTVSPropertyOp31
 70
     1
102
RTVSPropertyOp32
 70
     1
102
RTVSPropertyOp33
 70
     1
102
RTVSPropertyOp34
 70
     1
102
RTVSPropertyOp35
 70
     1
102
RTVSPropertyOp36
 70
     1
102
RTVSPropertyOp37
 70
     1
102
RTVSPropertyOp38
 70
     1
102
RTVSPropertyOp39
 70
     1
102
RTVSPropertyOp40
 70
     1
102
RTVSPropertyOp41
 70
     1
102
RTVSPropertyOp42
 70
     1
102
RTVSPropertyOp43
 70
     1
102
RTVSPropertyOp44
 70
     1
102
RTVSPropertyOp45
 70
     1
102
RTVSPropertyOp46
 70
     1
102
RTVSPropertyOp47
 70
     1
102
RTVSPropertyOp48
 70
     1
102
RTVSPropertyOp49
 70
     1
102
RTVSPropertyOp50
 70
     1
102
RTVSPropertyOp51
 70
     0
102
RTVSPropertyOp52
 70
     0
102
RTVSPropertyOp53
 70
     1
102
RTVSPropertyOp54
 70
     1
102
RTVSPropertyOp55
 70
     1
102
RTVSPropertyOp56
 70
     1
102
RTVSPropertyOp57
 70
     1
102
RTVSPropertyOp58
 70
     1
102
RTVSPropertyOp59
 70
     1
102
RTVSPropertyOp60
 70
     1
102
RTVSPropertyOp61
 70
     1
102
RTVSPropertyOp62
 70
     1
  0
XRECORD
  5
356
102
{ACAD_REACTORS
330
355
102
}
330
355
100
AcDbXrecord
280
     1
102
RTVSPost2010Prop28
280
     0
102
RTVSPost2010PropOp28
 70
     1
102
RTVSPost2010Prop29
280
     1
102
RTVSPost2010PropOp29
 70
     1
102
RTVSPost2010Prop30
280
     1
102
RTVSPost2010PropOp30
 70
     1
102
RTVSPost2010Prop31
280
     0
102
RTVSPost2010PropOp31
 70
     1
102
RTVSPost2010Prop32
280
     0
102
RTVSPost2010PropOp32
 70
     1
102
RTVSPost2010Prop33
280
     0
102
RTVSPost2010PropOp33
 70
     1
102
RTVSPost2010Prop34
280
     0
102
RTVSPost2010PropOp34
 70
     1
102
RTVSPost2010Prop35
280
     0
102
RTVSPost2010PropOp35
 70
     1
102
RTVSPost2010Prop36
280
     0
102
RTVSPost2010PropOp36
 70
     1
102
RTVSPost2010Prop37
 90
       50
102
RTVSPost2010PropOp37
 70
     1
102
RTVSPost2010Prop38
140
0.0
102
RTVSPost2010PropOp38
 70
     1
102
RTVSPost2010Prop39
140
1.0
102
RTVSPost2010PropOp39
 70
     1
102
RTVSPost2010Prop40
 90
        0
102
RTVSPost2010PropOp40
 70
     1
102
RTVSPost2010Prop41ColorIndex
 90
       18
102
RTVSPost2010Prop41ColorRGB
 90
        0
102
RTVSPost2010PropOp41
 70
     1
102
RTVSPost2010Prop42
 90
       50
102
RTVSPost2010PropOp42
 70
     1
102
RTVSPost2010Prop43
 90
        3
102
RTVSPost2010PropOp43
 70
     1
102
RTVSPost2010Prop44ColorIndex
 90
        5
102
RTVSPost2010Prop44ColorRGB
 90
      255
102
RTVSPost2010PropOp44
 70
     1
102
RTVSPost2010Prop45
280
     0
102
RTVSPost2010PropOp45
 70
     1
102
RTVSPost2010Prop46
 90
       50
102
RTVSPost2010PropOp46
 70
     1
102
RTVSPost2010Prop47
 90
       50
102
RTVSPost2010PropOp47
 70
     1
102
RTVSPost2010Prop48
 90
       50
102
RTVSPost2010PropOp48
 70
     1
102
RTVSPost2010Prop49
280
     0
102
RTVSPost2010PropOp49
 70
     1
102
RTVSPost2010Prop50
 90
       50
102
RTVSPost2010PropOp50
 70
     1
102
RTVSPost2010Prop51ColorIndex
 90
      256
102
RTVSPost2010Prop51ColorRGB
 90
-16777216
102
RTVSPost2010PropOp51
 70
     0
102
RTVSPost2010Prop52
140
1.0
102
RTVSPost2010PropOp52
 70
     0
102
RTVSPost2010Prop53
 90
        2
102
RTVSPost2010PropOp53
 70
     1
102
RTVSPost2010Prop54
  1
strokes_ogs.tif
102
RTVSPost2010PropOp54
 70
     1
102
RTVSPost2010Prop55
280
     0
102
RTVSPost2010PropOp55
 70
     1
102
RTVSPost2010Prop56
140
1.0
102
RTVSPost2010PropOp56
 70
     1
102
RTVSPost2010Prop57
140
1.0
102
RTVSPost2010PropOp57
 70
     1
102
RTVSPropertyOp0
 70
     1
102
RTVSPropertyOp1
 70
     1
102
RTVSPropertyOp2
 70
     1
102
RTVSPropertyOp3
 70
     1
102
RTVSPropertyOp4
 70
     1
102
RTVSPropertyOp5
 70
     1
102
RTVSPropertyOp6
 70
     1
102
RTVSPropertyOp7
 70
     1
102
RTVSPropertyOp8
 70
     1
102
RTVSPropertyOp9
 70
     1
102
RTVSPropertyOp10
 70
     1
102
RTVSPropertyOp11
 70
     1
102
RTVSPropertyOp12
 70
     1
102
RTVSPropertyOp13
 70
     1
102
RTVSPropertyOp14
 70
     1
102
RTVSPropertyOp15
 70
     1
102
RTVSPropertyOp16
 70
     1
102
RTVSPropertyOp17
 70
     1
102
RTVSPropertyOp18
 70
     1
102
RTVSPropertyOp19
 70
     1
102
RTVSPropertyOp20
 70
     1
102
RTVSPropertyOp21
 70
     1
102
RTVSPropertyOp22
 70
     1
102
RTVSPropertyOp23
 70
     1
102
RTVSPropertyOp24
 70
     1
102
RTVSPropertyOp25
 70
     1
102
RTVSPropertyOp26
 70
     1
102
RTVSPropertyOp27
 70
     1
102
RTVSPropertyOp28
 70
     1
102
RTVSPropertyOp29
 70
     1
102
RTVSPropertyOp30
 70
     1
102
RTVSPropertyOp31
 70
     1
102
RTVSPropertyOp32
 70
     1
102
RTVSPropertyOp33
 70
     1
102
RTVSPropertyOp34
 70
     1
102
RTVSPropertyOp35
 70
     1
102
RTVSPropertyOp36
 70
     1
102
RTVSPropertyOp37
 70
     1
102
RTVSPropertyOp38
 70
     1
102
RTVSPropertyOp39
 70
     1
102
RTVSPropertyOp40
 70
     1
102
RTVSPropertyOp41
 70
     1
102
RTVSPropertyOp42
 70
     1
102
RTVSPropertyOp43
 70
     1
102
RTVSPropertyOp44
 70
     1
102
RTVSPropertyOp45
 70
     1
102
RTVSPropertyOp46
 70
     1
102
RTVSPropertyOp47
 70
     1
102
RTVSPropertyOp48
 70
     1
102
RTVSPropertyOp49
 70
     1
102
RTVSPropertyOp50
 70
     1
102
RTVSPropertyOp51
 70
     0
102
RTVSPropertyOp52
 70
     0
102
RTVSPropertyOp53
 70
     1
102
RTVSPropertyOp54
 70
     1
102
RTVSPropertyOp55
 70
     1
102
RTVSPropertyOp56
 70
     1
102
RTVSPropertyOp57
 70
     1
102
RTVSPropertyOp58
 70
     1
102
RTVSPropertyOp59
 70
     1
102
RTVSPropertyOp60
 70
     1
102
RTVSPropertyOp61
 70
     1
102
RTVSPropertyOp62
 70
     1
  0
XRECORD
  5
36A
102
{ACAD_REACTORS
330
369
102
}
330
369
100
AcDbXrecord
280
     1
102
RTVSPost2010Prop28
280
     0
102
RTVSPost2010PropOp28
 70
     0
102
RTVSPost2010Prop29
280
     1
102
RTVSPost2010PropOp29
 70
     0
102
RTVSPost2010Prop30
280
     1
102
RTVSPost2010PropOp30
 70
     0
102
RTVSPost2010Prop31
280
     0
102
RTVSPost2010PropOp31
 70
     0
102
RTVSPost2010Prop32
280
     0
102
RTVSPost2010PropOp32
 70
     0
102
RTVSPost2010Prop33
280
     0
102
RTVSPost2010PropOp33
 70
     0
102
RTVSPost2010Prop34
280
     0
102
RTVSPost2010PropOp34
 70
     0
102
RTVSPost2010Prop35
280
     0
102
RTVSPost2010PropOp35
 70
     0
102
RTVSPost2010Prop36
280
     0
102
RTVSPost2010PropOp36
 70
     0
102
RTVSPost2010Prop37
 90
       50
102
RTVSPost2010PropOp37
 70
     0
102
RTVSPost2010Prop38
140
0.0
102
RTVSPost2010PropOp38
 70
     0
102
RTVSPost2010Prop39
140
1.0
102
RTVSPost2010PropOp39
 70
     0
102
RTVSPost2010Prop40
 90
        0
102
RTVSPost2010PropOp40
 70
     0
102
RTVSPost2010Prop41ColorIndex
 90
       18
102
RTVSPost2010Prop41ColorRGB
 90
        0
102
RTVSPost2010PropOp41
 70
     0
102
RTVSPost2010Prop42
 90
       50
102
RTVSPost2010PropOp42
 70
     0
102
RTVSPost2010Prop43
 90
        3
102
RTVSPost2010PropOp43
 70
     0
102
RTVSPost2010Prop44ColorIndex
 90
        5
102
RTVSPost2010Prop44ColorRGB
 90
      255
102
RTVSPost2010PropOp44
 70
     0
102
RTVSPost2010Prop45
280
     0
102
RTVSPost2010PropOp45
 70
     0
102
RTVSPost2010Prop46
 90
       50
102
RTVSPost2010PropOp46
 70
     0
102
RTVSPost2010Prop47
 90
       50
102
RTVSPost2010PropOp47
 70
     0
102
RTVSPost2010Prop48
 90
       50
102
RTVSPost2010PropOp48
 70
     0
102
RTVSPost2010Prop49
280
     0
102
RTVSPost2010PropOp49
 70
     0
102
RTVSPost2010Prop50
 90
       50
102
RTVSPost2010PropOp50
 70
     0
102
RTVSPost2010Prop51ColorIndex
 90
      256
102
RTVSPost2010Prop51ColorRGB
 90
-16777216
102
RTVSPost2010PropOp51
 70
     0
102
RTVSPost2010Prop52
140
1.0
102
RTVSPost2010PropOp52
 70
     0
102
RTVSPost2010Prop53
 90
        2
102
RTVSPost2010PropOp53
 70
     0
102
RTVSPost2010Prop54
  1
strokes_ogs.tif
102
RTVSPost2010PropOp54
 70
     0
102
RTVSPost2010Prop55
280
     0
102
RTVSPost2010PropOp55
 70
     0
102
RTVSPost2010Prop56
140
1.0
102
RTVSPost2010PropOp56
 70
     0
102
RTVSPost2010Prop57
140
1.0
102
RTVSPost2010PropOp57
 70
     0
102
RTVSPropertyOp0
 70
     0
102
RTVSPropertyOp1
 70
     0
102
RTVSPropertyOp2
 70
     0
102
RTVSPropertyOp3
 70
     0
102
RTVSPropertyOp4
 70
     0
102
RTVSPropertyOp5
 70
     0
102
RTVSPropertyOp6
 70
     0
102
RTVSPropertyOp7
 70
     0
102
RTVSPropertyOp8
 70
     0
102
RTVSPropertyOp9
 70
     0
102
RTVSPropertyOp10
 70
     0
102
RTVSPropertyOp11
 70
     0
102
RTVSPropertyOp12
 70
     0
102
RTVSPropertyOp13
 70
     0
102
RTVSPropertyOp14
 70
     2
102
RTVSPropertyOp15
 70
     0
102
RTVSPropertyOp16
 70
     0
102
RTVSPropertyOp17
 70
     0
102
RTVSPropertyOp18
 70
     0
102
RTVSPropertyOp19
 70
     0
102
RTVSPropertyOp20
 70
     0
102
RTVSPropertyOp21
 70
     0
102
RTVSPropertyOp22
 70
     0
102
RTVSPropertyOp23
 70
     0
102
RTVSPropertyOp24
 70
     0
102
RTVSPropertyOp25
 70
     0
102
RTVSPropertyOp26
 70
     0
102
RTVSPropertyOp27
 70
     0
102
RTVSPropertyOp28
 70
     0
102
RTVSPropertyOp29
 70
     0
102
RTVSPropertyOp30
 70
     0
102
RTVSPropertyOp31
 70
     0
102
RTVSPropertyOp32
 70
     0
102
RTVSPropertyOp33
 70
     0
102
RTVSPropertyOp34
 70
     0
102
RTVSPropertyOp35
 70
     0
102
RTVSPropertyOp36
 70
     0
102
RTVSPropertyOp37
 70
     0
102
RTVSPropertyOp38
 70
     0
102
RTVSPropertyOp39
 70
     0
102
RTVSPropertyOp40
 70
     0
102
RTVSPropertyOp41
 70
     0
102
RTVSPropertyOp42
 70
     0
102
RTVSPropertyOp43
 70
     0
102
RTVSPropertyOp44
 70
     0
102
RTVSPropertyOp45
 70
     0
102
RTVSPropertyOp46
 70
     0
102
RTVSPropertyOp47
 70
     0
102
RTVSPropertyOp48
 70
     0
102
RTVSPropertyOp49
 70
     0
102
RTVSPropertyOp50
 70
     0
102
RTVSPropertyOp51
 70
     0
102
RTVSPropertyOp52
 70
     0
102
RTVSPropertyOp53
 70
     0
102
RTVSPropertyOp54
 70
     0
102
RTVSPropertyOp55
 70
     0
102
RTVSPropertyOp56
 70
     0
102
RTVSPropertyOp57
 70
     0
102
RTVSPropertyOp58
 70
     1
102
RTVSPropertyOp59
 70
     1
102
RTVSPropertyOp60
 70
     1
102
RTVSPropertyOp61
 70
     1
102
RTVSPropertyOp62
 70
     1
  0
XRECORD
  5
364
102
{ACAD_REACTORS
330
363
102
}
330
363
100
AcDbXrecord
280
     1
102
RTVSPost2010Prop28
280
     0
102
RTVSPost2010PropOp28
 70
     1
102
RTVSPost2010Prop29
280
     1
102
RTVSPost2010PropOp29
 70
     1
102
RTVSPost2010Prop30
280
     1
102
RTVSPost2010PropOp30
 70
     1
102
RTVSPost2010Prop31
280
     0
102
RTVSPost2010PropOp31
 70
     1
102
RTVSPost2010Prop32
280
     0
102
RTVSPost2010PropOp32
 70
     1
102
RTVSPost2010Prop33
280
     0
102
RTVSPost2010PropOp33
 70
     1
102
RTVSPost2010Prop34
280
     0
102
RTVSPost2010PropOp34
 70
     1
102
RTVSPost2010Prop35
280
     0
102
RTVSPost2010PropOp35
 70
     1
102
RTVSPost2010Prop36
280
     0
102
RTVSPost2010PropOp36
 70
     1
102
RTVSPost2010Prop37
 90
       50
102
RTVSPost2010PropOp37
 70
     1
102
RTVSPost2010Prop38
140
0.0
102
RTVSPost2010PropOp38
 70
     1
102
RTVSPost2010Prop39
140
1.0
102
RTVSPost2010PropOp39
 70
     1
102
RTVSPost2010Prop40
 90
        0
102
RTVSPost2010PropOp40
 70
     1
102
RTVSPost2010Prop41ColorIndex
 90
       18
102
RTVSPost2010Prop41ColorRGB
 90
        0
102
RTVSPost2010PropOp41
 70
     1
102
RTVSPost2010Prop42
 90
       50
102
RTVSPost2010PropOp42
 70
     1
102
RTVSPost2010Prop43
 90
        3
102
RTVSPost2010PropOp43
 70
     1
102
RTVSPost2010Prop44ColorIndex
 90
        5
102
RTVSPost2010Prop44ColorRGB
 90
      255
102
RTVSPost2010PropOp44
 70
     1
102
RTVSPost2010Prop45
280
     0
102
RTVSPost2010PropOp45
 70
     1
102
RTVSPost2010Prop46
 90
       50
102
RTVSPost2010PropOp46
 70
     1
102
RTVSPost2010Prop47
 90
       50
102
RTVSPost2010PropOp47
 70
     1
102
RTVSPost2010Prop48
 90
       50
102
RTVSPost2010PropOp48
 70
     1
102
RTVSPost2010Prop49
280
     0
102
RTVSPost2010PropOp49
 70
     1
102
RTVSPost2010Prop50
 90
       50
102
RTVSPost2010PropOp50
 70
     1
102
RTVSPost2010Prop51ColorIndex
 90
      256
102
RTVSPost2010Prop51ColorRGB
 90
-16777216
102
RTVSPost2010PropOp51
 70
     0
102
RTVSPost2010Prop52
140
1.0
102
RTVSPost2010PropOp52
 70
     0
102
RTVSPost2010Prop53
 90
        2
102
RTVSPost2010PropOp53
 70
     1
102
RTVSPost2010Prop54
  1
strokes_ogs.tif
102
RTVSPost2010PropOp54
 70
     1
102
RTVSPost2010Prop55
280
     0
102
RTVSPost2010PropOp55
 70
     1
102
RTVSPost2010Prop56
140
1.0
102
RTVSPost2010PropOp56
 70
     1
102
RTVSPost2010Prop57
140
1.0
102
RTVSPost2010PropOp57
 70
     1
102
RTVSPropertyOp0
 70
     1
102
RTVSPropertyOp1
 70
     1
102
RTVSPropertyOp2
 70
     1
102
RTVSPropertyOp3
 70
     1
102
RTVSPropertyOp4
 70
     1
102
RTVSPropertyOp5
 70
     1
102
RTVSPropertyOp6
 70
     1
102
RTVSPropertyOp7
 70
     1
102
RTVSPropertyOp8
 70
     1
102
RTVSPropertyOp9
 70
     1
102
RTVSPropertyOp10
 70
     1
102
RTVSPropertyOp11
 70
     1
102
RTVSPropertyOp12
 70
     1
102
RTVSPropertyOp13
 70
     1
102
RTVSPropertyOp14
 70
     1
102
RTVSPropertyOp15
 70
     1
102
RTVSPropertyOp16
 70
     1
102
RTVSPropertyOp17
 70
     1
102
RTVSPropertyOp18
 70
     1
102
RTVSPropertyOp19
 70
     1
102
RTVSPropertyOp20
 70
     1
102
RTVSPropertyOp21
 70
     1
102
RTVSPropertyOp22
 70
     1
102
RTVSPropertyOp23
 70
     1
102
RTVSPropertyOp24
 70
     1
102
RTVSPropertyOp25
 70
     1
102
RTVSPropertyOp26
 70
     1
102
RTVSPropertyOp27
 70
     1
102
RTVSPropertyOp28
 70
     1
102
RTVSPropertyOp29
 70
     1
102
RTVSPropertyOp30
 70
     1
102
RTVSPropertyOp31
 70
     1
102
RTVSPropertyOp32
 70
     1
102
RTVSPropertyOp33
 70
     1
102
RTVSPropertyOp34
 70
     1
102
RTVSPropertyOp35
 70
     1
102
RTVSPropertyOp36
 70
     1
102
RTVSPropertyOp37
 70
     1
102
RTVSPropertyOp38
 70
     1
102
RTVSPropertyOp39
 70
     1
102
RTVSPropertyOp40
 70
     1
102
RTVSPropertyOp41
 70
     1
102
RTVSPropertyOp42
 70
     1
102
RTVSPropertyOp43
 70
     1
102
RTVSPropertyOp44
 70
     1
102
RTVSPropertyOp45
 70
     1
102
RTVSPropertyOp46
 70
     1
102
RTVSPropertyOp47
 70
     1
102
RTVSPropertyOp48
 70
     1
102
RTVSPropertyOp49
 70
     1
102
RTVSPropertyOp50
 70
     1
102
RTVSPropertyOp51
 70
     0
102
RTVSPropertyOp52
 70
     0
102
RTVSPropertyOp53
 70
     1
102
RTVSPropertyOp54
 70
     1
102
RTVSPropertyOp55
 70
     1
102
RTVSPropertyOp56
 70
     1
102
RTVSPropertyOp57
 70
     1
102
RTVSPropertyOp58
 70
     1
102
RTVSPropertyOp59
 70
     1
102
RTVSPropertyOp60
 70
     1
102
RTVSPropertyOp61
 70
     1
102
RTVSPropertyOp62
 70
     1
  0
XRECORD
  5
36C
102
{ACAD_REACTORS
330
36B
102
}
330
36B
100
AcDbXrecord
280
     1
102
RTVSPost2010Prop28
280
     0
102
RTVSPost2010PropOp28
 70
     0
102
RTVSPost2010Prop29
280
     1
102
RTVSPost2010PropOp29
 70
     0
102
RTVSPost2010Prop30
280
     1
102
RTVSPost2010PropOp30
 70
     0
102
RTVSPost2010Prop31
280
     0
102
RTVSPost2010PropOp31
 70
     0
102
RTVSPost2010Prop32
280
     0
102
RTVSPost2010PropOp32
 70
     0
102
RTVSPost2010Prop33
280
     0
102
RTVSPost2010PropOp33
 70
     0
102
RTVSPost2010Prop34
280
     0
102
RTVSPost2010PropOp34
 70
     0
102
RTVSPost2010Prop35
280
     0
102
RTVSPost2010PropOp35
 70
     0
102
RTVSPost2010Prop36
280
     0
102
RTVSPost2010PropOp36
 70
     0
102
RTVSPost2010Prop37
 90
       50
102
RTVSPost2010PropOp37
 70
     0
102
RTVSPost2010Prop38
140
0.0
102
RTVSPost2010PropOp38
 70
     0
102
RTVSPost2010Prop39
140
1.0
102
RTVSPost2010PropOp39
 70
     0
102
RTVSPost2010Prop40
 90
        0
102
RTVSPost2010PropOp40
 70
     0
102
RTVSPost2010Prop41ColorIndex
 90
       18
102
RTVSPost2010Prop41ColorRGB
 90
        0
102
RTVSPost2010PropOp41
 70
     0
102
RTVSPost2010Prop42
 90
       50
102
RTVSPost2010PropOp42
 70
     0
102
RTVSPost2010Prop43
 90
        3
102
RTVSPost2010PropOp43
 70
     0
102
RTVSPost2010Prop44ColorIndex
 90
        5
102
RTVSPost2010Prop44ColorRGB
 90
      255
102
RTVSPost2010PropOp44
 70
     0
102
RTVSPost2010Prop45
280
     0
102
RTVSPost2010PropOp45
 70
     0
102
RTVSPost2010Prop46
 90
       50
102
RTVSPost2010PropOp46
 70
     0
102
RTVSPost2010Prop47
 90
       50
102
RTVSPost2010PropOp47
 70
     0
102
RTVSPost2010Prop48
 90
       50
102
RTVSPost2010PropOp48
 70
     0
102
RTVSPost2010Prop49
280
     0
102
RTVSPost2010PropOp49
 70
     0
102
RTVSPost2010Prop50
 90
       50
102
RTVSPost2010PropOp50
 70
     0
102
RTVSPost2010Prop51ColorIndex
 90
      256
102
RTVSPost2010Prop51ColorRGB
 90
-16777216
102
RTVSPost2010PropOp51
 70
     0
102
RTVSPost2010Prop52
140
1.0
102
RTVSPost2010PropOp52
 70
     0
102
RTVSPost2010Prop53
 90
        2
102
RTVSPost2010PropOp53
 70
     0
102
RTVSPost2010Prop54
  1
strokes_ogs.tif
102
RTVSPost2010PropOp54
 70
     0
102
RTVSPost2010Prop55
280
     0
102
RTVSPost2010PropOp55
 70
     0
102
RTVSPost2010Prop56
140
1.0
102
RTVSPost2010PropOp56
 70
     0
102
RTVSPost2010Prop57
140
1.0
102
RTVSPost2010PropOp57
 70
     0
102
RTVSPropertyOp0
 70
     0
102
RTVSPropertyOp1
 70
     0
102
RTVSPropertyOp2
 70
     0
102
RTVSPropertyOp3
 70
     0
102
RTVSPropertyOp4
 70
     0
102
RTVSPropertyOp5
 70
     0
102
RTVSPropertyOp6
 70
     0
102
RTVSPropertyOp7
 70
     0
102
RTVSPropertyOp8
 70
     0
102
RTVSPropertyOp9
 70
     0
102
RTVSPropertyOp10
 70
     0
102
RTVSPropertyOp11
 70
     0
102
RTVSPropertyOp12
 70
     0
102
RTVSPropertyOp13
 70
     0
102
RTVSPropertyOp14
 70
     2
102
RTVSPropertyOp15
 70
     0
102
RTVSPropertyOp16
 70
     0
102
RTVSPropertyOp17
 70
     0
102
RTVSPropertyOp18
 70
     0
102
RTVSPropertyOp19
 70
     0
102
RTVSPropertyOp20
 70
     0
102
RTVSPropertyOp21
 70
     0
102
RTVSPropertyOp22
 70
     0
102
RTVSPropertyOp23
 70
     0
102
RTVSPropertyOp24
 70
     0
102
RTVSPropertyOp25
 70
     0
102
RTVSPropertyOp26
 70
     0
102
RTVSPropertyOp27
 70
     0
102
RTVSPropertyOp28
 70
     0
102
RTVSPropertyOp29
 70
     0
102
RTVSPropertyOp30
 70
     0
102
RTVSPropertyOp31
 70
     0
102
RTVSPropertyOp32
 70
     0
102
RTVSPropertyOp33
 70
     0
102
RTVSPropertyOp34
 70
     0
102
RTVSPropertyOp35
 70
     0
102
RTVSPropertyOp36
 70
     0
102
RTVSPropertyOp37
 70
     0
102
RTVSPropertyOp38
 70
     0
102
RTVSPropertyOp39
 70
     0
102
RTVSPropertyOp40
 70
     0
102
RTVSPropertyOp41
 70
     0
102
RTVSPropertyOp42
 70
     0
102
RTVSPropertyOp43
 70
     0
102
RTVSPropertyOp44
 70
     0
102
RTVSPropertyOp45
 70
     0
102
RTVSPropertyOp46
 70
     0
102
RTVSPropertyOp47
 70
     0
102
RTVSPropertyOp48
 70
     0
102
RTVSPropertyOp49
 70
     0
102
RTVSPropertyOp50
 70
     0
102
RTVSPropertyOp51
 70
     0
102
RTVSPropertyOp52
 70
     0
102
RTVSPropertyOp53
 70
     0
102
RTVSPropertyOp54
 70
     0
102
RTVSPropertyOp55
 70
     0
102
RTVSPropertyOp56
 70
     0
102
RTVSPropertyOp57
 70
     0
102
RTVSPropertyOp58
 70
     1
102
RTVSPropertyOp59
 70
     1
102
RTVSPropertyOp60
 70
     1
102
RTVSPropertyOp61
 70
     1
102
RTVSPropertyOp62
 70
     1
  0
XRECORD
  5
35A
102
{ACAD_REACTORS
330
359
102
}
330
359
100
AcDbXrecord
280
     1
102
RTVSPost2010Prop28
280
     0
102
RTVSPost2010PropOp28
 70
     1
102
RTVSPost2010Prop29
280
     1
102
RTVSPost2010PropOp29
 70
     1
102
RTVSPost2010Prop30
280
     1
102
RTVSPost2010PropOp30
 70
     1
102
RTVSPost2010Prop31
280
     0
102
RTVSPost2010PropOp31
 70
     1
102
RTVSPost2010Prop32
280
     0
102
RTVSPost2010PropOp32
 70
     1
102
RTVSPost2010Prop33
280
     0
102
RTVSPost2010PropOp33
 70
     1
102
RTVSPost2010Prop34
280
     0
102
RTVSPost2010PropOp34
 70
     1
102
RTVSPost2010Prop35
280
     0
102
RTVSPost2010PropOp35
 70
     1
102
RTVSPost2010Prop36
280
     0
102
RTVSPost2010PropOp36
 70
     1
102
RTVSPost2010Prop37
 90
       50
102
RTVSPost2010PropOp37
 70
     1
102
RTVSPost2010Prop38
140
0.0
102
RTVSPost2010PropOp38
 70
     1
102
RTVSPost2010Prop39
140
1.0
102
RTVSPost2010PropOp39
 70
     1
102
RTVSPost2010Prop40
 90
        0
102
RTVSPost2010PropOp40
 70
     1
102
RTVSPost2010Prop41ColorIndex
 90
       18
102
RTVSPost2010Prop41ColorRGB
 90
        0
102
RTVSPost2010PropOp41
 70
     1
102
RTVSPost2010Prop42
 90
       50
102
RTVSPost2010PropOp42
 70
     1
102
RTVSPost2010Prop43
 90
        3
102
RTVSPost2010PropOp43
 70
     1
102
RTVSPost2010Prop44ColorIndex
 90
        5
102
RTVSPost2010Prop44ColorRGB
 90
      255
102
RTVSPost2010PropOp44
 70
     1
102
RTVSPost2010Prop45
280
     0
102
RTVSPost2010PropOp45
 70
     1
102
RTVSPost2010Prop46
 90
       50
102
RTVSPost2010PropOp46
 70
     1
102
RTVSPost2010Prop47
 90
       50
102
RTVSPost2010PropOp47
 70
     1
102
RTVSPost2010Prop48
 90
       50
102
RTVSPost2010PropOp48
 70
     1
102
RTVSPost2010Prop49
280
     0
102
RTVSPost2010PropOp49
 70
     1
102
RTVSPost2010Prop50
 90
       50
102
RTVSPost2010PropOp50
 70
     1
102
RTVSPost2010Prop51ColorIndex
 90
      256
102
RTVSPost2010Prop51ColorRGB
 90
-16777216
102
RTVSPost2010PropOp51
 70
     0
102
RTVSPost2010Prop52
140
1.0
102
RTVSPost2010PropOp52
 70
     0
102
RTVSPost2010Prop53
 90
        2
102
RTVSPost2010PropOp53
 70
     1
102
RTVSPost2010Prop54
  1
strokes_ogs.tif
102
RTVSPost2010PropOp54
 70
     1
102
RTVSPost2010Prop55
280
     0
102
RTVSPost2010PropOp55
 70
     1
102
RTVSPost2010Prop56
140
1.0
102
RTVSPost2010PropOp56
 70
     1
102
RTVSPost2010Prop57
140
1.0
102
RTVSPost2010PropOp57
 70
     1
102
RTVSPropertyOp0
 70
     1
102
RTVSPropertyOp1
 70
     1
102
RTVSPropertyOp2
 70
     1
102
RTVSPropertyOp3
 70
     1
102
RTVSPropertyOp4
 70
     1
102
RTVSPropertyOp5
 70
     1
102
RTVSPropertyOp6
 70
     1
102
RTVSPropertyOp7
 70
     1
102
RTVSPropertyOp8
 70
     1
102
RTVSPropertyOp9
 70
     1
102
RTVSPropertyOp10
 70
     1
102
RTVSPropertyOp11
 70
     1
102
RTVSPropertyOp12
 70
     1
102
RTVSPropertyOp13
 70
     1
102
RTVSPropertyOp14
 70
     1
102
RTVSPropertyOp15
 70
     1
102
RTVSPropertyOp16
 70
     1
102
RTVSPropertyOp17
 70
     1
102
RTVSPropertyOp18
 70
     1
102
RTVSPropertyOp19
 70
     1
102
RTVSPropertyOp20
 70
     1
102
RTVSPropertyOp21
 70
     1
102
RTVSPropertyOp22
 70
     1
102
RTVSPropertyOp23
 70
     1
102
RTVSPropertyOp24
 70
     1
102
RTVSPropertyOp25
 70
     1
102
RTVSPropertyOp26
 70
     1
102
RTVSPropertyOp27
 70
     1
102
RTVSPropertyOp28
 70
     1
102
RTVSPropertyOp29
 70
     1
102
RTVSPropertyOp30
 70
     1
102
RTVSPropertyOp31
 70
     1
102
RTVSPropertyOp32
 70
     1
102
RTVSPropertyOp33
 70
     1
102
RTVSPropertyOp34
 70
     1
102
RTVSPropertyOp35
 70
     1
102
RTVSPropertyOp36
 70
     1
102
RTVSPropertyOp37
 70
     1
102
RTVSPropertyOp38
 70
     1
102
RTVSPropertyOp39
 70
     1
102
RTVSPropertyOp40
 70
     1
102
RTVSPropertyOp41
 70
     1
102
RTVSPropertyOp42
 70
     1
102
RTVSPropertyOp43
 70
     1
102
RTVSPropertyOp44
 70
     1
102
RTVSPropertyOp45
 70
     1
102
RTVSPropertyOp46
 70
     1
102
RTVSPropertyOp47
 70
     1
102
RTVSPropertyOp48
 70
     1
102
RTVSPropertyOp49
 70
     1
102
RTVSPropertyOp50
 70
     1
102
RTVSPropertyOp51
 70
     0
102
RTVSPropertyOp52
 70
     0
102
RTVSPropertyOp53
 70
     1
102
RTVSPropertyOp54
 70
     1
102
RTVSPropertyOp55
 70
     1
102
RTVSPropertyOp56
 70
     1
102
RTVSPropertyOp57
 70
     1
102
RTVSPropertyOp58
 70
     1
102
RTVSPropertyOp59
 70
     1
102
RTVSPropertyOp60
 70
     1
102
RTVSPropertyOp61
 70
     1
102
RTVSPropertyOp62
 70
     1
  0
XRECORD
  5
378
102
{ACAD_REACTORS
330
377
102
}
330
377
100
AcDbXrecord
280
     1
102
RTVSPost2010Prop28
280
     0
102
RTVSPost2010PropOp28
 70
     1
102
RTVSPost2010Prop29
280
     1
102
RTVSPost2010PropOp29
 70
     1
102
RTVSPost2010Prop30
280
     1
102
RTVSPost2010PropOp30
 70
     1
102
RTVSPost2010Prop31
280
     0
102
RTVSPost2010PropOp31
 70
     1
102
RTVSPost2010Prop32
280
     0
102
RTVSPost2010PropOp32
 70
     1
102
RTVSPost2010Prop33
280
     0
102
RTVSPost2010PropOp33
 70
     1
102
RTVSPost2010Prop34
280
     0
102
RTVSPost2010PropOp34
 70
     1
102
RTVSPost2010Prop35
280
     0
102
RTVSPost2010PropOp35
 70
     1
102
RTVSPost2010Prop36
280
     0
102
RTVSPost2010PropOp36
 70
     1
102
RTVSPost2010Prop37
 90
       50
102
RTVSPost2010PropOp37
 70
     1
102
RTVSPost2010Prop38
140
0.0
102
RTVSPost2010PropOp38
 70
     1
102
RTVSPost2010Prop39
140
1.0
102
RTVSPost2010PropOp39
 70
     1
102
RTVSPost2010Prop40
 90
        0
102
RTVSPost2010PropOp40
 70
     1
102
RTVSPost2010Prop41ColorIndex
 90
       18
102
RTVSPost2010Prop41ColorRGB
 90
        0
102
RTVSPost2010PropOp41
 70
     1
102
RTVSPost2010Prop42
 90
       50
102
RTVSPost2010PropOp42
 70
     1
102
RTVSPost2010Prop43
 90
        3
102
RTVSPost2010PropOp43
 70
     1
102
RTVSPost2010Prop44ColorIndex
 90
        5
102
RTVSPost2010Prop44ColorRGB
 90
      255
102
RTVSPost2010PropOp44
 70
     1
102
RTVSPost2010Prop45
280
     0
102
RTVSPost2010PropOp45
 70
     1
102
RTVSPost2010Prop46
 90
       50
102
RTVSPost2010PropOp46
 70
     1
102
RTVSPost2010Prop47
 90
       50
102
RTVSPost2010PropOp47
 70
     1
102
RTVSPost2010Prop48
 90
       50
102
RTVSPost2010PropOp48
 70
     1
102
RTVSPost2010Prop49
280
     0
102
RTVSPost2010PropOp49
 70
     1
102
RTVSPost2010Prop50
 90
       50
102
RTVSPost2010PropOp50
 70
     1
102
RTVSPost2010Prop51ColorIndex
 90
      256
102
RTVSPost2010Prop51ColorRGB
 90
-16777216
102
RTVSPost2010PropOp51
 70
     0
102
RTVSPost2010Prop52
140
1.0
102
RTVSPost2010PropOp52
 70
     0
102
RTVSPost2010Prop53
 90
        2
102
RTVSPost2010PropOp53
 70
     1
102
RTVSPost2010Prop54
  1
strokes_ogs.tif
102
RTVSPost2010PropOp54
 70
     1
102
RTVSPost2010Prop55
280
     0
102
RTVSPost2010PropOp55
 70
     1
102
RTVSPost2010Prop56
140
1.0
102
RTVSPost2010PropOp56
 70
     1
102
RTVSPost2010Prop57
140
1.0
102
RTVSPost2010PropOp57
 70
     1
102
RTVSPropertyOp0
 70
     1
102
RTVSPropertyOp1
 70
     1
102
RTVSPropertyOp2
 70
     1
102
RTVSPropertyOp3
 70
     1
102
RTVSPropertyOp4
 70
     1
102
RTVSPropertyOp5
 70
     1
102
RTVSPropertyOp6
 70
     1
102
RTVSPropertyOp7
 70
     1
102
RTVSPropertyOp8
 70
     1
102
RTVSPropertyOp9
 70
     1
102
RTVSPropertyOp10
 70
     1
102
RTVSPropertyOp11
 70
     1
102
RTVSPropertyOp12
 70
     1
102
RTVSPropertyOp13
 70
     1
102
RTVSPropertyOp14
 70
     1
102
RTVSPropertyOp15
 70
     1
102
RTVSPropertyOp16
 70
     1
102
RTVSPropertyOp17
 70
     1
102
RTVSPropertyOp18
 70
     1
102
RTVSPropertyOp19
 70
     1
102
RTVSPropertyOp20
 70
     1
102
RTVSPropertyOp21
 70
     1
102
RTVSPropertyOp22
 70
     1
102
RTVSPropertyOp23
 70
     1
102
RTVSPropertyOp24
 70
     1
102
RTVSPropertyOp25
 70
     1
102
RTVSPropertyOp26
 70
     1
102
RTVSPropertyOp27
 70
     1
102
RTVSPropertyOp28
 70
     1
102
RTVSPropertyOp29
 70
     1
102
RTVSPropertyOp30
 70
     1
102
RTVSPropertyOp31
 70
     1
102
RTVSPropertyOp32
 70
     1
102
RTVSPropertyOp33
 70
     1
102
RTVSPropertyOp34
 70
     1
102
RTVSPropertyOp35
 70
     1
102
RTVSPropertyOp36
 70
     1
102
RTVSPropertyOp37
 70
     1
102
RTVSPropertyOp38
 70
     1
102
RTVSPropertyOp39
 70
     1
102
RTVSPropertyOp40
 70
     1
102
RTVSPropertyOp41
 70
     1
102
RTVSPropertyOp42
 70
     1
102
RTVSPropertyOp43
 70
     1
102
RTVSPropertyOp44
 70
     1
102
RTVSPropertyOp45
 70
     1
102
RTVSPropertyOp46
 70
     1
102
RTVSPropertyOp47
 70
     1
102
RTVSPropertyOp48
 70
     1
102
RTVSPropertyOp49
 70
     1
102
RTVSPropertyOp50
 70
     1
102
RTVSPropertyOp51
 70
     0
102
RTVSPropertyOp52
 70
     0
102
RTVSPropertyOp53
 70
     1
102
RTVSPropertyOp54
 70
     1
102
RTVSPropertyOp55
 70
     1
102
RTVSPropertyOp56
 70
     1
102
RTVSPropertyOp57
 70
     1
102
RTVSPropertyOp58
 70
     1
102
RTVSPropertyOp59
 70
     1
102
RTVSPropertyOp60
 70
     1
102
RTVSPropertyOp61
 70
     1
102
RTVSPropertyOp62
 70
     1
  0
XRECORD
  5
376
102
{ACAD_REACTORS
330
375
102
}
330
375
100
AcDbXrecord
280
     1
102
RTVSPost2010Prop28
280
     0
102
RTVSPost2010PropOp28
 70
     1
102
RTVSPost2010Prop29
280
     1
102
RTVSPost2010PropOp29
 70
     1
102
RTVSPost2010Prop30
280
     1
102
RTVSPost2010PropOp30
 70
     1
102
RTVSPost2010Prop31
280
     0
102
RTVSPost2010PropOp31
 70
     1
102
RTVSPost2010Prop32
280
     0
102
RTVSPost2010PropOp32
 70
     1
102
RTVSPost2010Prop33
280
     0
102
RTVSPost2010PropOp33
 70
     1
102
RTVSPost2010Prop34
280
     0
102
RTVSPost2010PropOp34
 70
     1
102
RTVSPost2010Prop35
280
     0
102
RTVSPost2010PropOp35
 70
     1
102
RTVSPost2010Prop36
280
     0
102
RTVSPost2010PropOp36
 70
     1
102
RTVSPost2010Prop37
 90
       50
102
RTVSPost2010PropOp37
 70
     1
102
RTVSPost2010Prop38
140
0.0
102
RTVSPost2010PropOp38
 70
     1
102
RTVSPost2010Prop39
140
1.0
102
RTVSPost2010PropOp39
 70
     1
102
RTVSPost2010Prop40
 90
        0
102
RTVSPost2010PropOp40
 70
     1
102
RTVSPost2010Prop41ColorIndex
 90
       18
102
RTVSPost2010Prop41ColorRGB
 90
        0
102
RTVSPost2010PropOp41
 70
     1
102
RTVSPost2010Prop42
 90
       50
102
RTVSPost2010PropOp42
 70
     1
102
RTVSPost2010Prop43
 90
        3
102
RTVSPost2010PropOp43
 70
     1
102
RTVSPost2010Prop44ColorIndex
 90
        5
102
RTVSPost2010Prop44ColorRGB
 90
      255
102
RTVSPost2010PropOp44
 70
     1
102
RTVSPost2010Prop45
280
     0
102
RTVSPost2010PropOp45
 70
     1
102
RTVSPost2010Prop46
 90
       50
102
RTVSPost2010PropOp46
 70
     1
102
RTVSPost2010Prop47
 90
       50
102
RTVSPost2010PropOp47
 70
     1
102
RTVSPost2010Prop48
 90
       50
102
RTVSPost2010PropOp48
 70
     1
102
RTVSPost2010Prop49
280
     0
102
RTVSPost2010PropOp49
 70
     1
102
RTVSPost2010Prop50
 90
       50
102
RTVSPost2010PropOp50
 70
     1
102
RTVSPost2010Prop51ColorIndex
 90
      256
102
RTVSPost2010Prop51ColorRGB
 90
-16777216
102
RTVSPost2010PropOp51
 70
     0
102
RTVSPost2010Prop52
140
1.0
102
RTVSPost2010PropOp52
 70
     0
102
RTVSPost2010Prop53
 90
        2
102
RTVSPost2010PropOp53
 70
     1
102
RTVSPost2010Prop54
  1
strokes_ogs.tif
102
RTVSPost2010PropOp54
 70
     1
102
RTVSPost2010Prop55
280
     0
102
RTVSPost2010PropOp55
 70
     1
102
RTVSPost2010Prop56
140
1.0
102
RTVSPost2010PropOp56
 70
     1
102
RTVSPost2010Prop57
140
1.0
102
RTVSPost2010PropOp57
 70
     1
102
RTVSPropertyOp0
 70
     1
102
RTVSPropertyOp1
 70
     1
102
RTVSPropertyOp2
 70
     1
102
RTVSPropertyOp3
 70
     1
102
RTVSPropertyOp4
 70
     1
102
RTVSPropertyOp5
 70
     1
102
RTVSPropertyOp6
 70
     1
102
RTVSPropertyOp7
 70
     1
102
RTVSPropertyOp8
 70
     1
102
RTVSPropertyOp9
 70
     1
102
RTVSPropertyOp10
 70
     1
102
RTVSPropertyOp11
 70
     1
102
RTVSPropertyOp12
 70
     1
102
RTVSPropertyOp13
 70
     1
102
RTVSPropertyOp14
 70
     1
102
RTVSPropertyOp15
 70
     1
102
RTVSPropertyOp16
 70
     1
102
RTVSPropertyOp17
 70
     1
102
RTVSPropertyOp18
 70
     1
102
RTVSPropertyOp19
 70
     1
102
RTVSPropertyOp20
 70
     1
102
RTVSPropertyOp21
 70
     1
102
RTVSPropertyOp22
 70
     1
102
RTVSPropertyOp23
 70
     1
102
RTVSPropertyOp24
 70
     1
102
RTVSPropertyOp25
 70
     1
102
RTVSPropertyOp26
 70
     1
102
RTVSPropertyOp27
 70
     1
102
RTVSPropertyOp28
 70
     1
102
RTVSPropertyOp29
 70
     1
102
RTVSPropertyOp30
 70
     1
102
RTVSPropertyOp31
 70
     1
102
RTVSPropertyOp32
 70
     1
102
RTVSPropertyOp33
 70
     1
102
RTVSPropertyOp34
 70
     1
102
RTVSPropertyOp35
 70
     1
102
RTVSPropertyOp36
 70
     1
102
RTVSPropertyOp37
 70
     1
102
RTVSPropertyOp38
 70
     1
102
RTVSPropertyOp39
 70
     1
102
RTVSPropertyOp40
 70
     1
102
RTVSPropertyOp41
 70
     1
102
RTVSPropertyOp42
 70
     1
102
RTVSPropertyOp43
 70
     1
102
RTVSPropertyOp44
 70
     1
102
RTVSPropertyOp45
 70
     1
102
RTVSPropertyOp46
 70
     1
102
RTVSPropertyOp47
 70
     1
102
RTVSPropertyOp48
 70
     1
102
RTVSPropertyOp49
 70
     1
102
RTVSPropertyOp50
 70
     1
102
RTVSPropertyOp51
 70
     0
102
RTVSPropertyOp52
 70
     0
102
RTVSPropertyOp53
 70
     1
102
RTVSPropertyOp54
 70
     1
102
RTVSPropertyOp55
 70
     1
102
RTVSPropertyOp56
 70
     1
102
RTVSPropertyOp57
 70
     1
102
RTVSPropertyOp58
 70
     1
102
RTVSPropertyOp59
 70
     1
102
RTVSPropertyOp60
 70
     1
102
RTVSPropertyOp61
 70
     1
102
RTVSPropertyOp62
 70
     1
  0
XRECORD
  5
370
102
{ACAD_REACTORS
330
36F
102
}
330
36F
100
AcDbXrecord
280
     1
102
RTVSPost2010Prop28
280
     0
102
RTVSPost2010PropOp28
 70
     1
102
RTVSPost2010Prop29
280
     1
102
RTVSPost2010PropOp29
 70
     1
102
RTVSPost2010Prop30
280
     1
102
RTVSPost2010PropOp30
 70
     1
102
RTVSPost2010Prop31
280
     0
102
RTVSPost2010PropOp31
 70
     1
102
RTVSPost2010Prop32
280
     0
102
RTVSPost2010PropOp32
 70
     1
102
RTVSPost2010Prop33
280
     0
102
RTVSPost2010PropOp33
 70
     1
102
RTVSPost2010Prop34
280
     0
102
RTVSPost2010PropOp34
 70
     1
102
RTVSPost2010Prop35
280
     0
102
RTVSPost2010PropOp35
 70
     1
102
RTVSPost2010Prop36
280
     0
102
RTVSPost2010PropOp36
 70
     1
102
RTVSPost2010Prop37
 90
       50
102
RTVSPost2010PropOp37
 70
     1
102
RTVSPost2010Prop38
140
0.0
102
RTVSPost2010PropOp38
 70
     1
102
RTVSPost2010Prop39
140
1.0
102
RTVSPost2010PropOp39
 70
     1
102
RTVSPost2010Prop40
 90
        0
102
RTVSPost2010PropOp40
 70
     1
102
RTVSPost2010Prop41ColorIndex
 90
       18
102
RTVSPost2010Prop41ColorRGB
 90
        0
102
RTVSPost2010PropOp41
 70
     1
102
RTVSPost2010Prop42
 90
       50
102
RTVSPost2010PropOp42
 70
     1
102
RTVSPost2010Prop43
 90
        3
102
RTVSPost2010PropOp43
 70
     1
102
RTVSPost2010Prop44ColorIndex
 90
        5
102
RTVSPost2010Prop44ColorRGB
 90
      255
102
RTVSPost2010PropOp44
 70
     1
102
RTVSPost2010Prop45
280
     0
102
RTVSPost2010PropOp45
 70
     1
102
RTVSPost2010Prop46
 90
       50
102
RTVSPost2010PropOp46
 70
     1
102
RTVSPost2010Prop47
 90
       50
102
RTVSPost2010PropOp47
 70
     1
102
RTVSPost2010Prop48
 90
       50
102
RTVSPost2010PropOp48
 70
     1
102
RTVSPost2010Prop49
280
     0
102
RTVSPost2010PropOp49
 70
     1
102
RTVSPost2010Prop50
 90
       50
102
RTVSPost2010PropOp50
 70
     1
102
RTVSPost2010Prop51ColorIndex
 90
      256
102
RTVSPost2010Prop51ColorRGB
 90
-16777216
102
RTVSPost2010PropOp51
 70
     0
102
RTVSPost2010Prop52
140
1.0
102
RTVSPost2010PropOp52
 70
     0
102
RTVSPost2010Prop53
 90
        2
102
RTVSPost2010PropOp53
 70
     1
102
RTVSPost2010Prop54
  1
strokes_ogs.tif
102
RTVSPost2010PropOp54
 70
     1
102
RTVSPost2010Prop55
280
     0
102
RTVSPost2010PropOp55
 70
     1
102
RTVSPost2010Prop56
140
1.0
102
RTVSPost2010PropOp56
 70
     1
102
RTVSPost2010Prop57
140
1.0
102
RTVSPost2010PropOp57
 70
     1
102
RTVSPropertyOp0
 70
     1
102
RTVSPropertyOp1
 70
     1
102
RTVSPropertyOp2
 70
     1
102
RTVSPropertyOp3
 70
     1
102
RTVSPropertyOp4
 70
     1
102
RTVSPropertyOp5
 70
     1
102
RTVSPropertyOp6
 70
     1
102
RTVSPropertyOp7
 70
     1
102
RTVSPropertyOp8
 70
     1
102
RTVSPropertyOp9
 70
     1
102
RTVSPropertyOp10
 70
     1
102
RTVSPropertyOp11
 70
     1
102
RTVSPropertyOp12
 70
     1
102
RTVSPropertyOp13
 70
     1
102
RTVSPropertyOp14
 70
     1
102
RTVSPropertyOp15
 70
     1
102
RTVSPropertyOp16
 70
     1
102
RTVSPropertyOp17
 70
     1
102
RTVSPropertyOp18
 70
     1
102
RTVSPropertyOp19
 70
     1
102
RTVSPropertyOp20
 70
     1
102
RTVSPropertyOp21
 70
     1
102
RTVSPropertyOp22
 70
     1
102
RTVSPropertyOp23
 70
     1
102
RTVSPropertyOp24
 70
     1
102
RTVSPropertyOp25
 70
     1
102
RTVSPropertyOp26
 70
     1
102
RTVSPropertyOp27
 70
     1
102
RTVSPropertyOp28
 70
     1
102
RTVSPropertyOp29
 70
     1
102
RTVSPropertyOp30
 70
     1
102
RTVSPropertyOp31
 70
     1
102
RTVSPropertyOp32
 70
     1
102
RTVSPropertyOp33
 70
     1
102
RTVSPropertyOp34
 70
     1
102
RTVSPropertyOp35
 70
     1
102
RTVSPropertyOp36
 70
     1
102
RTVSPropertyOp37
 70
     1
102
RTVSPropertyOp38
 70
     1
102
RTVSPropertyOp39
 70
     1
102
RTVSPropertyOp40
 70
     1
102
RTVSPropertyOp41
 70
     1
102
RTVSPropertyOp42
 70
     1
102
RTVSPropertyOp43
 70
     1
102
RTVSPropertyOp44
 70
     1
102
RTVSPropertyOp45
 70
     1
102
RTVSPropertyOp46
 70
     1
102
RTVSPropertyOp47
 70
     1
102
RTVSPropertyOp48
 70
     1
102
RTVSPropertyOp49
 70
     1
102
RTVSPropertyOp50
 70
     1
102
RTVSPropertyOp51
 70
     0
102
RTVSPropertyOp52
 70
     0
102
RTVSPropertyOp53
 70
     1
102
RTVSPropertyOp54
 70
     1
102
RTVSPropertyOp55
 70
     1
102
RTVSPropertyOp56
 70
     1
102
RTVSPropertyOp57
 70
     1
102
RTVSPropertyOp58
 70
     1
102
RTVSPropertyOp59
 70
     1
102
RTVSPropertyOp60
 70
     1
102
RTVSPropertyOp61
 70
     1
102
RTVSPropertyOp62
 70
     1
  0
XRECORD
  5
372
102
{ACAD_REACTORS
330
371
102
}
330
371
100
AcDbXrecord
280
     1
102
RTVSPost2010Prop28
280
     0
102
RTVSPost2010PropOp28
 70
     1
102
RTVSPost2010Prop29
280
     1
102
RTVSPost2010PropOp29
 70
     1
102
RTVSPost2010Prop30
280
     1
102
RTVSPost2010PropOp30
 70
     1
102
RTVSPost2010Prop31
280
     0
102
RTVSPost2010PropOp31
 70
     1
102
RTVSPost2010Prop32
280
     0
102
RTVSPost2010PropOp32
 70
     1
102
RTVSPost2010Prop33
280
     0
102
RTVSPost2010PropOp33
 70
     1
102
RTVSPost2010Prop34
280
     0
102
RTVSPost2010PropOp34
 70
     1
102
RTVSPost2010Prop35
280
     0
102
RTVSPost2010PropOp35
 70
     1
102
RTVSPost2010Prop36
280
     0
102
RTVSPost2010PropOp36
 70
     1
102
RTVSPost2010Prop37
 90
       50
102
RTVSPost2010PropOp37
 70
     1
102
RTVSPost2010Prop38
140
0.0
102
RTVSPost2010PropOp38
 70
     1
102
RTVSPost2010Prop39
140
1.0
102
RTVSPost2010PropOp39
 70
     1
102
RTVSPost2010Prop40
 90
        0
102
RTVSPost2010PropOp40
 70
     1
102
RTVSPost2010Prop41ColorIndex
 90
       18
102
RTVSPost2010Prop41ColorRGB
 90
        0
102
RTVSPost2010PropOp41
 70
     1
102
RTVSPost2010Prop42
 90
       50
102
RTVSPost2010PropOp42
 70
     1
102
RTVSPost2010Prop43
 90
        3
102
RTVSPost2010PropOp43
 70
     1
102
RTVSPost2010Prop44ColorIndex
 90
        5
102
RTVSPost2010Prop44ColorRGB
 90
      255
102
RTVSPost2010PropOp44
 70
     1
102
RTVSPost2010Prop45
280
     0
102
RTVSPost2010PropOp45
 70
     1
102
RTVSPost2010Prop46
 90
       50
102
RTVSPost2010PropOp46
 70
     1
102
RTVSPost2010Prop47
 90
       50
102
RTVSPost2010PropOp47
 70
     1
102
RTVSPost2010Prop48
 90
       50
102
RTVSPost2010PropOp48
 70
     1
102
RTVSPost2010Prop49
280
     0
102
RTVSPost2010PropOp49
 70
     1
102
RTVSPost2010Prop50
 90
       50
102
RTVSPost2010PropOp50
 70
     1
102
RTVSPost2010Prop51ColorIndex
 90
      256
102
RTVSPost2010Prop51ColorRGB
 90
-16777216
102
RTVSPost2010PropOp51
 70
     0
102
RTVSPost2010Prop52
140
1.0
102
RTVSPost2010PropOp52
 70
     0
102
RTVSPost2010Prop53
 90
        2
102
RTVSPost2010PropOp53
 70
     1
102
RTVSPost2010Prop54
  1
strokes_ogs.tif
102
RTVSPost2010PropOp54
 70
     1
102
RTVSPost2010Prop55
280
     0
102
RTVSPost2010PropOp55
 70
     1
102
RTVSPost2010Prop56
140
1.0
102
RTVSPost2010PropOp56
 70
     1
102
RTVSPost2010Prop57
140
1.0
102
RTVSPost2010PropOp57
 70
     1
102
RTVSPropertyOp0
 70
     1
102
RTVSPropertyOp1
 70
     1
102
RTVSPropertyOp2
 70
     1
102
RTVSPropertyOp3
 70
     1
102
RTVSPropertyOp4
 70
     1
102
RTVSPropertyOp5
 70
     1
102
RTVSPropertyOp6
 70
     1
102
RTVSPropertyOp7
 70
     1
102
RTVSPropertyOp8
 70
     1
102
RTVSPropertyOp9
 70
     1
102
RTVSPropertyOp10
 70
     1
102
RTVSPropertyOp11
 70
     1
102
RTVSPropertyOp12
 70
     1
102
RTVSPropertyOp13
 70
     1
102
RTVSPropertyOp14
 70
     1
102
RTVSPropertyOp15
 70
     1
102
RTVSPropertyOp16
 70
     1
102
RTVSPropertyOp17
 70
     1
102
RTVSPropertyOp18
 70
     1
102
RTVSPropertyOp19
 70
     1
102
RTVSPropertyOp20
 70
     1
102
RTVSPropertyOp21
 70
     1
102
RTVSPropertyOp22
 70
     1
102
RTVSPropertyOp23
 70
     1
102
RTVSPropertyOp24
 70
     1
102
RTVSPropertyOp25
 70
     1
102
RTVSPropertyOp26
 70
     1
102
RTVSPropertyOp27
 70
     1
102
RTVSPropertyOp28
 70
     1
102
RTVSPropertyOp29
 70
     1
102
RTVSPropertyOp30
 70
     1
102
RTVSPropertyOp31
 70
     1
102
RTVSPropertyOp32
 70
     1
102
RTVSPropertyOp33
 70
     1
102
RTVSPropertyOp34
 70
     1
102
RTVSPropertyOp35
 70
     1
102
RTVSPropertyOp36
 70
     1
102
RTVSPropertyOp37
 70
     1
102
RTVSPropertyOp38
 70
     1
102
RTVSPropertyOp39
 70
     1
102
RTVSPropertyOp40
 70
     1
102
RTVSPropertyOp41
 70
     1
102
RTVSPropertyOp42
 70
     1
102
RTVSPropertyOp43
 70
     1
102
RTVSPropertyOp44
 70
     1
102
RTVSPropertyOp45
 70
     1
102
RTVSPropertyOp46
 70
     1
102
RTVSPropertyOp47
 70
     1
102
RTVSPropertyOp48
 70
     1
102
RTVSPropertyOp49
 70
     1
102
RTVSPropertyOp50
 70
     1
102
RTVSPropertyOp51
 70
     0
102
RTVSPropertyOp52
 70
     0
102
RTVSPropertyOp53
 70
     1
102
RTVSPropertyOp54
 70
     1
102
RTVSPropertyOp55
 70
     1
102
RTVSPropertyOp56
 70
     1
102
RTVSPropertyOp57
 70
     1
102
RTVSPropertyOp58
 70
     1
102
RTVSPropertyOp59
 70
     1
102
RTVSPropertyOp60
 70
     1
102
RTVSPropertyOp61
 70
     1
102
RTVSPropertyOp62
 70
     1
  0
XRECORD
  5
362
102
{ACAD_REACTORS
330
361
102
}
330
361
100
AcDbXrecord
280
     1
102
RTVSPost2010Prop28
280
     0
102
RTVSPost2010PropOp28
 70
     1
102
RTVSPost2010Prop29
280
     1
102
RTVSPost2010PropOp29
 70
     1
102
RTVSPost2010Prop30
280
     1
102
RTVSPost2010PropOp30
 70
     1
102
RTVSPost2010Prop31
280
     0
102
RTVSPost2010PropOp31
 70
     1
102
RTVSPost2010Prop32
280
     0
102
RTVSPost2010PropOp32
 70
     1
102
RTVSPost2010Prop33
280
     0
102
RTVSPost2010PropOp33
 70
     1
102
RTVSPost2010Prop34
280
     0
102
RTVSPost2010PropOp34
 70
     1
102
RTVSPost2010Prop35
280
     0
102
RTVSPost2010PropOp35
 70
     1
102
RTVSPost2010Prop36
280
     0
102
RTVSPost2010PropOp36
 70
     1
102
RTVSPost2010Prop37
 90
       50
102
RTVSPost2010PropOp37
 70
     1
102
RTVSPost2010Prop38
140
0.0
102
RTVSPost2010PropOp38
 70
     1
102
RTVSPost2010Prop39
140
1.0
102
RTVSPost2010PropOp39
 70
     1
102
RTVSPost2010Prop40
 90
        0
102
RTVSPost2010PropOp40
 70
     1
102
RTVSPost2010Prop41ColorIndex
 90
       18
102
RTVSPost2010Prop41ColorRGB
 90
        0
102
RTVSPost2010PropOp41
 70
     1
102
RTVSPost2010Prop42
 90
       50
102
RTVSPost2010PropOp42
 70
     1
102
RTVSPost2010Prop43
 90
        3
102
RTVSPost2010PropOp43
 70
     1
102
RTVSPost2010Prop44ColorIndex
 90
        5
102
RTVSPost2010Prop44ColorRGB
 90
      255
102
RTVSPost2010PropOp44
 70
     1
102
RTVSPost2010Prop45
280
     0
102
RTVSPost2010PropOp45
 70
     1
102
RTVSPost2010Prop46
 90
       50
102
RTVSPost2010PropOp46
 70
     1
102
RTVSPost2010Prop47
 90
       50
102
RTVSPost2010PropOp47
 70
     1
102
RTVSPost2010Prop48
 90
       50
102
RTVSPost2010PropOp48
 70
     1
102
RTVSPost2010Prop49
280
     0
102
RTVSPost2010PropOp49
 70
     1
102
RTVSPost2010Prop50
 90
       50
102
RTVSPost2010PropOp50
 70
     1
102
RTVSPost2010Prop51ColorIndex
 90
      256
102
RTVSPost2010Prop51ColorRGB
 90
-16777216
102
RTVSPost2010PropOp51
 70
     0
102
RTVSPost2010Prop52
140
1.0
102
RTVSPost2010PropOp52
 70
     0
102
RTVSPost2010Prop53
 90
        2
102
RTVSPost2010PropOp53
 70
     1
102
RTVSPost2010Prop54
  1
strokes_ogs.tif
102
RTVSPost2010PropOp54
 70
     1
102
RTVSPost2010Prop55
280
     0
102
RTVSPost2010PropOp55
 70
     1
102
RTVSPost2010Prop56
140
1.0
102
RTVSPost2010PropOp56
 70
     1
102
RTVSPost2010Prop57
140
1.0
102
RTVSPost2010PropOp57
 70
     1
102
RTVSPropertyOp0
 70
     1
102
RTVSPropertyOp1
 70
     1
102
RTVSPropertyOp2
 70
     1
102
RTVSPropertyOp3
 70
     1
102
RTVSPropertyOp4
 70
     1
102
RTVSPropertyOp5
 70
     1
102
RTVSPropertyOp6
 70
     1
102
RTVSPropertyOp7
 70
     1
102
RTVSPropertyOp8
 70
     1
102
RTVSPropertyOp9
 70
     1
102
RTVSPropertyOp10
 70
     1
102
RTVSPropertyOp11
 70
     1
102
RTVSPropertyOp12
 70
     1
102
RTVSPropertyOp13
 70
     1
102
RTVSPropertyOp14
 70
     1
102
RTVSPropertyOp15
 70
     1
102
RTVSPropertyOp16
 70
     1
102
RTVSPropertyOp17
 70
     1
102
RTVSPropertyOp18
 70
     1
102
RTVSPropertyOp19
 70
     1
102
RTVSPropertyOp20
 70
     1
102
RTVSPropertyOp21
 70
     1
102
RTVSPropertyOp22
 70
     1
102
RTVSPropertyOp23
 70
     1
102
RTVSPropertyOp24
 70
     1
102
RTVSPropertyOp25
 70
     1
102
RTVSPropertyOp26
 70
     1
102
RTVSPropertyOp27
 70
     1
102
RTVSPropertyOp28
 70
     1
102
RTVSPropertyOp29
 70
     1
102
RTVSPropertyOp30
 70
     1
102
RTVSPropertyOp31
 70
     1
102
RTVSPropertyOp32
 70
     1
102
RTVSPropertyOp33
 70
     1
102
RTVSPropertyOp34
 70
     1
102
RTVSPropertyOp35
 70
     1
102
RTVSPropertyOp36
 70
     1
102
RTVSPropertyOp37
 70
     1
102
RTVSPropertyOp38
 70
     1
102
RTVSPropertyOp39
 70
     1
102
RTVSPropertyOp40
 70
     1
102
RTVSPropertyOp41
 70
     1
102
RTVSPropertyOp42
 70
     1
102
RTVSPropertyOp43
 70
     1
102
RTVSPropertyOp44
 70
     1
102
RTVSPropertyOp45
 70
     1
102
RTVSPropertyOp46
 70
     1
102
RTVSPropertyOp47
 70
     1
102
RTVSPropertyOp48
 70
     1
102
RTVSPropertyOp49
 70
     1
102
RTVSPropertyOp50
 70
     1
102
RTVSPropertyOp51
 70
     0
102
RTVSPropertyOp52
 70
     0
102
RTVSPropertyOp53
 70
     1
102
RTVSPropertyOp54
 70
     1
102
RTVSPropertyOp55
 70
     1
102
RTVSPropertyOp56
 70
     1
102
RTVSPropertyOp57
 70
     1
102
RTVSPropertyOp58
 70
     1
102
RTVSPropertyOp59
 70
     1
102
RTVSPropertyOp60
 70
     1
102
RTVSPropertyOp61
 70
     1
102
RTVSPropertyOp62
 70
     1
  0
XRECORD
  5
354
102
{ACAD_REACTORS
330
353
102
}
330
353
100
AcDbXrecord
280
     1
102
RTVSPost2010Prop28
280
     0
102
RTVSPost2010PropOp28
 70
     1
102
RTVSPost2010Prop29
280
     1
102
RTVSPost2010PropOp29
 70
     1
102
RTVSPost2010Prop30
280
     1
102
RTVSPost2010PropOp30
 70
     1
102
RTVSPost2010Prop31
280
     0
102
RTVSPost2010PropOp31
 70
     1
102
RTVSPost2010Prop32
280
     0
102
RTVSPost2010PropOp32
 70
     1
102
RTVSPost2010Prop33
280
     0
102
RTVSPost2010PropOp33
 70
     1
102
RTVSPost2010Prop34
280
     0
102
RTVSPost2010PropOp34
 70
     1
102
RTVSPost2010Prop35
280
     0
102
RTVSPost2010PropOp35
 70
     1
102
RTVSPost2010Prop36
280
     0
102
RTVSPost2010PropOp36
 70
     1
102
RTVSPost2010Prop37
 90
       50
102
RTVSPost2010PropOp37
 70
     1
102
RTVSPost2010Prop38
140
0.0
102
RTVSPost2010PropOp38
 70
     1
102
RTVSPost2010Prop39
140
1.0
102
RTVSPost2010PropOp39
 70
     1
102
RTVSPost2010Prop40
 90
        0
102
RTVSPost2010PropOp40
 70
     1
102
RTVSPost2010Prop41ColorIndex
 90
       18
102
RTVSPost2010Prop41ColorRGB
 90
        0
102
RTVSPost2010PropOp41
 70
     1
102
RTVSPost2010Prop42
 90
       50
102
RTVSPost2010PropOp42
 70
     1
102
RTVSPost2010Prop43
 90
        3
102
RTVSPost2010PropOp43
 70
     1
102
RTVSPost2010Prop44ColorIndex
 90
        5
102
RTVSPost2010Prop44ColorRGB
 90
      255
102
RTVSPost2010PropOp44
 70
     1
102
RTVSPost2010Prop45
280
     0
102
RTVSPost2010PropOp45
 70
     1
102
RTVSPost2010Prop46
 90
       50
102
RTVSPost2010PropOp46
 70
     1
102
RTVSPost2010Prop47
 90
       50
102
RTVSPost2010PropOp47
 70
     1
102
RTVSPost2010Prop48
 90
       50
102
RTVSPost2010PropOp48
 70
     1
102
RTVSPost2010Prop49
280
     0
102
RTVSPost2010PropOp49
 70
     1
102
RTVSPost2010Prop50
 90
       50
102
RTVSPost2010PropOp50
 70
     1
102
RTVSPost2010Prop51ColorIndex
 90
      256
102
RTVSPost2010Prop51ColorRGB
 90
-16777216
102
RTVSPost2010PropOp51
 70
     0
102
RTVSPost2010Prop52
140
1.0
102
RTVSPost2010PropOp52
 70
     0
102
RTVSPost2010Prop53
 90
        2
102
RTVSPost2010PropOp53
 70
     1
102
RTVSPost2010Prop54
  1
strokes_ogs.tif
102
RTVSPost2010PropOp54
 70
     1
102
RTVSPost2010Prop55
280
     0
102
RTVSPost2010PropOp55
 70
     1
102
RTVSPost2010Prop56
140
1.0
102
RTVSPost2010PropOp56
 70
     1
102
RTVSPost2010Prop57
140
1.0
102
RTVSPost2010PropOp57
 70
     1
102
RTVSPropertyOp0
 70
     1
102
RTVSPropertyOp1
 70
     1
102
RTVSPropertyOp2
 70
     1
102
RTVSPropertyOp3
 70
     1
102
RTVSPropertyOp4
 70
     1
102
RTVSPropertyOp5
 70
     1
102
RTVSPropertyOp6
 70
     1
102
RTVSPropertyOp7
 70
     1
102
RTVSPropertyOp8
 70
     1
102
RTVSPropertyOp9
 70
     1
102
RTVSPropertyOp10
 70
     1
102
RTVSPropertyOp11
 70
     1
102
RTVSPropertyOp12
 70
     1
102
RTVSPropertyOp13
 70
     1
102
RTVSPropertyOp14
 70
     1
102
RTVSPropertyOp15
 70
     1
102
RTVSPropertyOp16
 70
     1
102
RTVSPropertyOp17
 70
     1
102
RTVSPropertyOp18
 70
     1
102
RTVSPropertyOp19
 70
     1
102
RTVSPropertyOp20
 70
     1
102
RTVSPropertyOp21
 70
     1
102
RTVSPropertyOp22
 70
     1
102
RTVSPropertyOp23
 70
     1
102
RTVSPropertyOp24
 70
     1
102
RTVSPropertyOp25
 70
     1
102
RTVSPropertyOp26
 70
     1
102
RTVSPropertyOp27
 70
     1
102
RTVSPropertyOp28
 70
     1
102
RTVSPropertyOp29
 70
     1
102
RTVSPropertyOp30
 70
     1
102
RTVSPropertyOp31
 70
     1
102
RTVSPropertyOp32
 70
     1
102
RTVSPropertyOp33
 70
     1
102
RTVSPropertyOp34
 70
     1
102
RTVSPropertyOp35
 70
     1
102
RTVSPropertyOp36
 70
     1
102
RTVSPropertyOp37
 70
     1
102
RTVSPropertyOp38
 70
     1
102
RTVSPropertyOp39
 70
     1
102
RTVSPropertyOp40
 70
     1
102
RTVSPropertyOp41
 70
     1
102
RTVSPropertyOp42
 70
     1
102
RTVSPropertyOp43
 70
     1
102
RTVSPropertyOp44
 70
     1
102
RTVSPropertyOp45
 70
     1
102
RTVSPropertyOp46
 70
     1
102
RTVSPropertyOp47
 70
     1
102
RTVSPropertyOp48
 70
     1
102
RTVSPropertyOp49
 70
     1
102
RTVSPropertyOp50
 70
     1
102
RTVSPropertyOp51
 70
     0
102
RTVSPropertyOp52
 70
     0
102
RTVSPropertyOp53
 70
     1
102
RTVSPropertyOp54
 70
     1
102
RTVSPropertyOp55
 70
     1
102
RTVSPropertyOp56
 70
     1
102
RTVSPropertyOp57
 70
     1
102
RTVSPropertyOp58
 70
     1
102
RTVSPropertyOp59
 70
     1
102
RTVSPropertyOp60
 70
     1
102
RTVSPropertyOp61
 70
     1
102
RTVSPropertyOp62
 70
     1
  0
XRECORD
  5
374
102
{ACAD_REACTORS
330
373
102
}
330
373
100
AcDbXrecord
280
     1
102
RTVSPost2010Prop28
280
     0
102
RTVSPost2010PropOp28
 70
     1
102
RTVSPost2010Prop29
280
     1
102
RTVSPost2010PropOp29
 70
     1
102
RTVSPost2010Prop30
280
     1
102
RTVSPost2010PropOp30
 70
     1
102
RTVSPost2010Prop31
280
     0
102
RTVSPost2010PropOp31
 70
     1
102
RTVSPost2010Prop32
280
     0
102
RTVSPost2010PropOp32
 70
     1
102
RTVSPost2010Prop33
280
     0
102
RTVSPost2010PropOp33
 70
     1
102
RTVSPost2010Prop34
280
     0
102
RTVSPost2010PropOp34
 70
     1
102
RTVSPost2010Prop35
280
     0
102
RTVSPost2010PropOp35
 70
     1
102
RTVSPost2010Prop36
280
     0
102
RTVSPost2010PropOp36
 70
     1
102
RTVSPost2010Prop37
 90
       50
102
RTVSPost2010PropOp37
 70
     1
102
RTVSPost2010Prop38
140
0.0
102
RTVSPost2010PropOp38
 70
     1
102
RTVSPost2010Prop39
140
1.0
102
RTVSPost2010PropOp39
 70
     1
102
RTVSPost2010Prop40
 90
        0
102
RTVSPost2010PropOp40
 70
     1
102
RTVSPost2010Prop41ColorIndex
 90
       18
102
RTVSPost2010Prop41ColorRGB
 90
        0
102
RTVSPost2010PropOp41
 70
     1
102
RTVSPost2010Prop42
 90
       50
102
RTVSPost2010PropOp42
 70
     1
102
RTVSPost2010Prop43
 90
        3
102
RTVSPost2010PropOp43
 70
     1
102
RTVSPost2010Prop44ColorIndex
 90
        5
102
RTVSPost2010Prop44ColorRGB
 90
      255
102
RTVSPost2010PropOp44
 70
     1
102
RTVSPost2010Prop45
280
     0
102
RTVSPost2010PropOp45
 70
     1
102
RTVSPost2010Prop46
 90
       50
102
RTVSPost2010PropOp46
 70
     1
102
RTVSPost2010Prop47
 90
       50
102
RTVSPost2010PropOp47
 70
     1
102
RTVSPost2010Prop48
 90
       50
102
RTVSPost2010PropOp48
 70
     1
102
RTVSPost2010Prop49
280
     0
102
RTVSPost2010PropOp49
 70
     1
102
RTVSPost2010Prop50
 90
       50
102
RTVSPost2010PropOp50
 70
     1
102
RTVSPost2010Prop51ColorIndex
 90
      256
102
RTVSPost2010Prop51ColorRGB
 90
-16777216
102
RTVSPost2010PropOp51
 70
     0
102
RTVSPost2010Prop52
140
1.0
102
RTVSPost2010PropOp52
 70
     0
102
RTVSPost2010Prop53
 90
        2
102
RTVSPost2010PropOp53
 70
     1
102
RTVSPost2010Prop54
  1
strokes_ogs.tif
102
RTVSPost2010PropOp54
 70
     1
102
RTVSPost2010Prop55
280
     0
102
RTVSPost2010PropOp55
 70
     1
102
RTVSPost2010Prop56
140
1.0
102
RTVSPost2010PropOp56
 70
     1
102
RTVSPost2010Prop57
140
1.0
102
RTVSPost2010PropOp57
 70
     1
102
RTVSPropertyOp0
 70
     1
102
RTVSPropertyOp1
 70
     1
102
RTVSPropertyOp2
 70
     1
102
RTVSPropertyOp3
 70
     1
102
RTVSPropertyOp4
 70
     1
102
RTVSPropertyOp5
 70
     1
102
RTVSPropertyOp6
 70
     1
102
RTVSPropertyOp7
 70
     1
102
RTVSPropertyOp8
 70
     1
102
RTVSPropertyOp9
 70
     1
102
RTVSPropertyOp10
 70
     1
102
RTVSPropertyOp11
 70
     1
102
RTVSPropertyOp12
 70
     1
102
RTVSPropertyOp13
 70
     1
102
RTVSPropertyOp14
 70
     1
102
RTVSPropertyOp15
 70
     1
102
RTVSPropertyOp16
 70
     1
102
RTVSPropertyOp17
 70
     1
102
RTVSPropertyOp18
 70
     1
102
RTVSPropertyOp19
 70
     1
102
RTVSPropertyOp20
 70
     1
102
RTVSPropertyOp21
 70
     1
102
RTVSPropertyOp22
 70
     1
102
RTVSPropertyOp23
 70
     1
102
RTVSPropertyOp24
 70
     1
102
RTVSPropertyOp25
 70
     1
102
RTVSPropertyOp26
 70
     1
102
RTVSPropertyOp27
 70
     1
102
RTVSPropertyOp28
 70
     1
102
RTVSPropertyOp29
 70
     1
102
RTVSPropertyOp30
 70
     1
102
RTVSPropertyOp31
 70
     1
102
RTVSPropertyOp32
 70
     1
102
RTVSPropertyOp33
 70
     1
102
RTVSPropertyOp34
 70
     1
102
RTVSPropertyOp35
 70
     1
102
RTVSPropertyOp36
 70
     1
102
RTVSPropertyOp37
 70
     1
102
RTVSPropertyOp38
 70
     1
102
RTVSPropertyOp39
 70
     1
102
RTVSPropertyOp40
 70
     1
102
RTVSPropertyOp41
 70
     1
102
RTVSPropertyOp42
 70
     1
102
RTVSPropertyOp43
 70
     1
102
RTVSPropertyOp44
 70
     1
102
RTVSPropertyOp45
 70
     1
102
RTVSPropertyOp46
 70
     1
102
RTVSPropertyOp47
 70
     1
102
RTVSPropertyOp48
 70
     1
102
RTVSPropertyOp49
 70
     1
102
RTVSPropertyOp50
 70
     1
102
RTVSPropertyOp51
 70
     0
102
RTVSPropertyOp52
 70
     0
102
RTVSPropertyOp53
 70
     1
102
RTVSPropertyOp54
 70
     1
102
RTVSPropertyOp55
 70
     1
102
RTVSPropertyOp56
 70
     1
102
RTVSPropertyOp57
 70
     1
102
RTVSPropertyOp58
 70
     1
102
RTVSPropertyOp59
 70
     1
102
RTVSPropertyOp60
 70
     1
102
RTVSPropertyOp61
 70
     1
102
RTVSPropertyOp62
 70
     1
  0
ENDSEC
  0
EOF
