  0
SECTION
  2
HEADER
  9
$ACADVER
  1
AC1012
  9
$DWGCODEPAGE
  3
ANSI_1252
  9
$INSBASE
 10
0.0
 20
0.0
 30
0.0
  9
$EXTMIN
 10
0.1433322289650007
 20
2.01022341196684
 30
-0.0015258207003583
  9
$EXTMAX
 10
4.644277376422639
 20
7.858383198336678
 30
0.0000000349246037
  9
$LIMMIN
 10
0.0
 20
0.0
  9
$LIMMAX
 10
12.0
 20
9.0
  9
$ORTHOMODE
 70
     1
  9
$REGENMODE
 70
     1
  9
$FILLMODE
 70
     1
  9
$QTEXTMODE
 70
     0
  9
$MIRRTEXT
 70
     1
  9
$DRAGMODE
 70
     2
  9
$LTSCALE
 40
1.0
  9
$OSMODE
 70
   547
  9
$ATTMODE
 70
     1
  9
$TEXTSIZE
 40
0.2
  9
$TRACEWID
 40
0.05
  9
$TEXTSTYLE
  7
STANDARD
  9
$CLAYER
  8
0
  9
$CELTYPE
  6
BYLAYER
  9
$CECOLOR
 62
   256
  9
$CELTSCALE
 40
1.0
  9
$DELOBJ
 70
     1
  9
$DISPSILH
 70
     0
  9
$DIMSCALE
 40
1.0
  9
$DIMASZ
 40
0.18
  9
$DIMEXO
 40
0.0625
  9
$DIMDLI
 40
0.38
  9
$DIMRND
 40
0.0
  9
$DIMDLE
 40
0.0
  9
$DIMEXE
 40
0.18
  9
$DIMTP
 40
0.0
  9
$DIMTM
 40
0.0
  9
$DIMTXT
 40
0.18
  9
$DIMCEN
 40
0.09
  9
$DIMTSZ
 40
0.0
  9
$DIMTOL
 70
     0
  9
$DIMLIM
 70
     0
  9
$DIMTIH
 70
     1
  9
$DIMTOH
 70
     1
  9
$DIMSE1
 70
     0
  9
$DIMSE2
 70
     0
  9
$DIMTAD
 70
     0
  9
$DIMZIN
 70
     0
  9
$DIMBLK
  1

  9
$DIMASO
 70
     1
  9
$DIMSHO
 70
     1
  9
$DIMPOST
  1

  9
$DIMAPOST
  1

  9
$DIMALT
 70
     0
  9
$DIMALTD
 70
     2
  9
$DIMALTF
 40
25.4
  9
$DIMLFAC
 40
1.0
  9
$DIMTOFL
 70
     0
  9
$DIMTVP
 40
0.0
  9
$DIMTIX
 70
     0
  9
$DIMSOXD
 70
     0
  9
$DIMSAH
 70
     0
  9
$DIMBLK1
  1

  9
$DIMBLK2
  1

  9
$DIMSTYLE
  2
STANDARD
  9
$DIMCLRD
 70
     0
  9
$DIMCLRE
 70
     0
  9
$DIMCLRT
 70
     0
  9
$DIMTFAC
 40
1.0
  9
$DIMGAP
 40
0.09
  9
$DIMJUST
 70
     0
  9
$DIMSD1
 70
     0
  9
$DIMSD2
 70
     0
  9
$DIMTOLJ
 70
     1
  9
$DIMTZIN
 70
     0
  9
$DIMALTZ
 70
     0
  9
$DIMALTTZ
 70
     0
  9
$DIMFIT
 70
     5
  9
$DIMUPT
 70
     0
  9
$DIMUNIT
 70
     2
  9
$DIMDEC
 70
     4
  9
$DIMTDEC
 70
     4
  9
$DIMALTU
 70
     2
  9
$DIMALTTD
 70
     2
  9
$DIMTXSTY
  7
STANDARD
  9
$DIMAUNIT
 70
     0
  9
$LUNITS
 70
     2
  9
$LUPREC
 70
     4
  9
$SKETCHINC
 40
0.1
  9
$FILLETRAD
 40
0.0
  9
$AUNITS
 70
     0
  9
$AUPREC
 70
     0
  9
$MENU
  1
acad
  9
$ELEVATION
 40
0.0
  9
$PELEVATION
 40
0.0
  9
$THICKNESS
 40
0.0
  9
$LIMCHECK
 70
     0
  9
$BLIPMODE
 70
     0
  9
$CHAMFERA
 40
0.0
  9
$CHAMFERB
 40
0.0
  9
$CHAMFERC
 40
0.0
  9
$CHAMFERD
 40
0.0
  9
$SKPOLY
 70
     0
  9
$TDCREATE
 40
2452569.492210648
  9
$TDUPDATE
 40
2453946.470146678
  9
$TDINDWG
 40
0.0071471875
  9
$TDUSRTIMER
 40
0.0071471875
  9
$USRTIMER
 70
     1
  9
$ANGBASE
 50
0.0
  9
$ANGDIR
 70
     0
  9
$PDMODE
 70
     0
  9
$PDSIZE
 40
0.0
  9
$PLINEWID
 40
0.0
  9
$COORDS
 70
     1
  9
$SPLFRAME
 70
     0
  9
$SPLINETYPE
 70
     6
  9
$SPLINESEGS
 70
     8
  9
$ATTDIA
 70
     0
  9
$ATTREQ
 70
     1
  9
$HANDLING
 70
  4097
  9
$HANDSEED
  5
5674
  9
$SURFTAB1
 70
     6
  9
$SURFTAB2
 70
     6
  9
$SURFTYPE
 70
     6
  9
$SURFU
 70
     6
  9
$SURFV
 70
     6
  9
$UCSNAME
  2

  9
$UCSORG
 10
0.0
 20
0.0
 30
0.0
  9
$UCSXDIR
 10
1.0
 20
0.0
 30
0.0
  9
$UCSYDIR
 10
0.0
 20
1.0
 30
0.0
  9
$PUCSNAME
  2

  9
$PUCSORG
 10
0.0
 20
0.0
 30
0.0
  9
$PUCSXDIR
 10
1.0
 20
0.0
 30
0.0
  9
$PUCSYDIR
 10
0.0
 20
1.0
 30
0.0
  9
$USERI1
 70
     0
  9
$USERI2
 70
     0
  9
$USERI3
 70
     0
  9
$USERI4
 70
     0
  9
$USERI5
 70
     0
  9
$USERR1
 40
0.0
  9
$USERR2
 40
0.0
  9
$USERR3
 40
0.0
  9
$USERR4
 40
0.0
  9
$USERR5
 40
0.0
  9
$WORLDVIEW
 70
     1
  9
$SHADEDGE
 70
     3
  9
$SHADEDIF
 70
    70
  9
$TILEMODE
 70
     1
  9
$MAXACTVP
 70
    16
  9
$PINSBASE
 10
0.0
 20
0.0
 30
0.0
  9
$PLIMCHECK
 70
     0
  9
$PEXTMIN
 10
1.000000000000000E+20
 20
1.000000000000000E+20
 30
1.000000000000000E+20
  9
$PEXTMAX
 10
-1.000000000000000E+20
 20
-1.000000000000000E+20
 30
-1.000000000000000E+20
  9
$PLIMMIN
 10
0.0
 20
0.0
  9
$PLIMMAX
 10
12.0
 20
9.0
  9
$UNITMODE
 70
     0
  9
$VISRETAIN
 70
     0
  9
$PLINEGEN
 70
     0
  9
$PSLTSCALE
 70
     1
  9
$TREEDEPTH
 70
  3020
  9
$PICKSTYLE
 70
     1
  9
$CMLSTYLE
  2
STANDARD
  9
$CMLJUST
 70
     0
  9
$CMLSCALE
 40
1.0
  9
$SAVEIMAGES
 70
     1
  0
ENDSEC
  0
SECTION
  2
CLASSES
  0
CLASS
  1
ACDBDICTIONARYWDFLT
  2
AcDbDictionaryWithDefault
  3
AutoCAD 2000
 90
    32768
280
     0
281
     0
  0
CLASS
  1
ACDBPLACEHOLDER
  2
AcDbPlaceHolder
  3
AutoCAD 2000
 90
    32768
280
     0
281
     0
  0
CLASS
  1
LAYOUT
  2
AcDbLayout
  3
AutoCAD 2000
 90
    32768
280
     0
281
     0
  0
CLASS
  1
LONG_TRANSACTION
  2
AcDbLongTransaction
  3
AutoCAD 2000
 90
    32768
280
     0
281
     0
  0
CLASS
  1
LWPOLYLINE
  2
AcDbPolyline
  3
AutoCAD 2000
 90
    32768
280
     0
281
     1
  0
CLASS
  1
HATCH
  2
AcDbHatch
  3
AutoCAD 2000
 90
    32768
280
     0
281
     1
  0
CLASS
  1
XRECORD
  2
AcDbXrecord
  3
AutoCAD 2000
 90
    32768
280
     0
281
     0
  0
CLASS
  1
LONG_TRANSACTION
  2
AcDbLongTransaction
  3
AutoCAD 2000
 90
    32768
280
     0
281
     0
  0
CLASS
  1
LWPOLYLINE
  2
AcDbPolyline
  3
AutoCAD 2000
 90
    32768
280
     0
281
     1
  0
CLASS
  1
HATCH
  2
AcDbHatch
  3
AutoCAD 2000
 90
    32768
280
     0
281
     1
  0
CLASS
  1
XRECORD
  2
AcDbXrecord
  3
AutoCAD 2000
 90
    32768
280
     0
281
     0
  0
ENDSEC
  0
SECTION
  2
TABLES
  0
TABLE
  2
VPORT
  5
8
330
0
100
AcDbSymbolTable
 70
     4
  0
VPORT
  5
5671
330
8
100
AcDbSymbolTableRecord
100
AcDbViewportTableRecord
  2
*ACTIVE
 70
     0
 10
0.0
 20
0.0
 11
1.0
 21
1.0
 12
2.393804802693819
 22
4.934303305151759
 13
0.0
 23
0.0
 14
1.0
 24
1.0
 15
0.0
 25
0.0
 16
0.0
 26
0.0
 36
1.0
 17
0.0
 27
0.0
 37
0.0
 40
5.908972539780961
 41
1.647569444444444
 42
50.0
 43
0.0
 44
0.0
 50
0.0
 51
0.0
 71
     0
 72
   100
 73
     1
 74
     1
 75
     0
 76
     0
 77
     0
 78
     0
  0
ENDTAB
  0
TABLE
  2
LTYPE
  5
5
330
0
100
AcDbSymbolTable
 70
    25
  0
LTYPE
  5
13
330
5
100
AcDbSymbolTableRecord
100
AcDbLinetypeTableRecord
  2
BYBLOCK
 70
     0
  3

 72
    65
 73
     0
 40
0.0
  0
LTYPE
  5
14
330
5
100
AcDbSymbolTableRecord
100
AcDbLinetypeTableRecord
  2
BYLAYER
 70
     0
  3

 72
    65
 73
     0
 40
0.0
  0
LTYPE
  5
15
330
5
100
AcDbSymbolTableRecord
100
AcDbLinetypeTableRecord
  2
CONTINUOUS
 70
     0
  3
Solid line
 72
    65
 73
     0
 40
0.0
  0
LTYPE
  5
22
330
5
100
AcDbSymbolTableRecord
100
AcDbLinetypeTableRecord
  2
BORDER
 70
     0
  3
__ __ . __ __ . __ __ . __ __ . __ __ . __ __ .
 72
    65
 73
     6
 40
1.75
 49
0.5
 74
     0
 49
-0.25
 74
     0
 49
0.5
 74
     0
 49
-0.25
 74
     0
 49
0.5
 74
     0
 49
-0.25
 74
     0
  0
LTYPE
  5
23
330
5
100
AcDbSymbolTableRecord
100
AcDbLinetypeTableRecord
  2
BORDER2
 70
     0
  3
__.__.__.__.__.__.__.__.__.__.__.__.__.__.__.__
 72
    65
 73
     6
 40
0.875
 49
0.25
 74
     0
 49
-0.125
 74
     0
 49
0.25
 74
     0
 49
-0.125
 74
     0
 49
0.25
 74
     0
 49
-0.125
 74
     0
  0
LTYPE
  5
24
330
5
100
AcDbSymbolTableRecord
100
AcDbLinetypeTableRecord
  2
BORDERX2
 70
     0
  3
____  ____  .  ____  ____  .  
 72
    65
 73
     6
 40
3.5
 49
1.0
 74
     0
 49
-0.5
 74
     0
 49
1.0
 74
     0
 49
-0.5
 74
     0
 49
1.0
 74
     0
 49
-0.5
 74
     0
  0
LTYPE
  5
25
330
5
100
AcDbSymbolTableRecord
100
AcDbLinetypeTableRecord
  2
CENTER
 70
     0
  3
____ _ ____ _ ____ _ ____ _ ____ _ ____ _ ____
 72
    65
 73
     4
 40
2.0
 49
1.25
 74
     0
 49
-0.25
 74
     0
 49
0.25
 74
     0
 49
-0.25
 74
     0
  0
LTYPE
  5
26
330
5
100
AcDbSymbolTableRecord
100
AcDbLinetypeTableRecord
  2
CENTER2
 70
     0
  3
____ _ ____ _ ____ _ ____ _ ____ _ ____ _ ____
 72
    65
 73
     4
 40
1.125
 49
0.75
 74
     0
 49
-0.125
 74
     0
 49
0.125
 74
     0
 49
-0.125
 74
     0
  0
LTYPE
  5
27
330
5
100
AcDbSymbolTableRecord
100
AcDbLinetypeTableRecord
  2
CENTERX2
 70
     0
  3
________  __  ________  __  ________  __  
 72
    65
 73
     4
 40
4.0
 49
2.5
 74
     0
 49
-0.5
 74
     0
 49
0.5
 74
     0
 49
-0.5
 74
     0
  0
LTYPE
  5
28
330
5
100
AcDbSymbolTableRecord
100
AcDbLinetypeTableRecord
  2
DASHDOT
 70
     0
  3
__ . __ . __ . __ . __ . __ . __ . 
 72
    65
 73
     4
 40
1.0
 49
0.5
 74
     0
 49
-0.25
 74
     0
 49
0.0
 74
     0
 49
-0.25
 74
     0
  0
LTYPE
  5
29
330
5
100
AcDbSymbolTableRecord
100
AcDbLinetypeTableRecord
  2
DASHDOT2
 70
     0
  3
_._._._._._._._._._._._._._._._.
 72
    65
 73
     4
 40
0.5
 49
0.25
 74
     0
 49
-0.125
 74
     0
 49
0.0
 74
     0
 49
-0.125
 74
     0
  0
LTYPE
  5
2A
330
5
100
AcDbSymbolTableRecord
100
AcDbLinetypeTableRecord
  2
DASHDOTX2
 70
     0
  3
____  .  ____  .  ____  .  ____  .  
 72
    65
 73
     4
 40
2.0
 49
1.0
 74
     0
 49
-0.5
 74
     0
 49
0.0
 74
     0
 49
-0.5
 74
     0
  0
LTYPE
  5
2B
330
5
100
AcDbSymbolTableRecord
100
AcDbLinetypeTableRecord
  2
DASHED
 70
     0
  3
__ __ __ __ __ __ __ __ __ __ __ __ 
 72
    65
 73
     2
 40
0.75
 49
0.5
 74
     0
 49
-0.25
 74
     0
  0
LTYPE
  5
2C
330
5
100
AcDbSymbolTableRecord
100
AcDbLinetypeTableRecord
  2
DASHED2
 70
     0
  3
_ _ _ _ _ _ _ _ _ _ _ _ _ _ _ _ _ _ 
 72
    65
 73
     2
 40
0.375
 49
0.25
 74
     0
 49
-0.125
 74
     0
  0
LTYPE
  5
2D
330
5
100
AcDbSymbolTableRecord
100
AcDbLinetypeTableRecord
  2
DASHEDX2
 70
     0
  3
____  ____  ____  ____  ____  ____  
 72
    65
 73
     2
 40
1.5
 49
1.0
 74
     0
 49
-0.5
 74
     0
  0
LTYPE
  5
2E
330
5
100
AcDbSymbolTableRecord
100
AcDbLinetypeTableRecord
  2
DIVIDE
 70
     0
  3
____ . . ____ . . ____ . . ____ . . 
 72
    65
 73
     6
 40
1.25
 49
0.5
 74
     0
 49
-0.25
 74
     0
 49
0.0
 74
     0
 49
-0.25
 74
     0
 49
0.0
 74
     0
 49
-0.25
 74
     0
  0
LTYPE
  5
2F
330
5
100
AcDbSymbolTableRecord
100
AcDbLinetypeTableRecord
  2
DIVIDE2
 70
     0
  3
__..__..__..__..__..__..__..__..__..
 72
    65
 73
     6
 40
0.625
 49
0.25
 74
     0
 49
-0.125
 74
     0
 49
0.0
 74
     0
 49
-0.125
 74
     0
 49
0.0
 74
     0
 49
-0.125
 74
     0
  0
LTYPE
  5
30
330
5
100
AcDbSymbolTableRecord
100
AcDbLinetypeTableRecord
  2
DIVIDEX2
 70
     0
  3
________  .  .  ________  .  .  ________  .  . 
 72
    65
 73
     6
 40
2.5
 49
1.0
 74
     0
 49
-0.5
 74
     0
 49
0.0
 74
     0
 49
-0.5
 74
     0
 49
0.0
 74
     0
 49
-0.5
 74
     0
  0
LTYPE
  5
31
330
5
100
AcDbSymbolTableRecord
100
AcDbLinetypeTableRecord
  2
DOT
 70
     0
  3
. . . . . . . . . . . . . . . . . . 
 72
    65
 73
     2
 40
0.25
 49
0.0
 74
     0
 49
-0.25
 74
     0
  0
LTYPE
  5
32
330
5
100
AcDbSymbolTableRecord
100
AcDbLinetypeTableRecord
  2
DOT2
 70
     0
  3
....................................
 72
    65
 73
     2
 40
0.125
 49
0.0
 74
     0
 49
-0.125
 74
     0
  0
LTYPE
  5
33
330
5
100
AcDbSymbolTableRecord
100
AcDbLinetypeTableRecord
  2
DOTX2
 70
     0
  3
.  .  .  .  .  .  .  .  .  .  .  .  .  
 72
    65
 73
     2
 40
0.5
 49
0.0
 74
     0
 49
-0.5
 74
     0
  0
LTYPE
  5
34
330
5
100
AcDbSymbolTableRecord
100
AcDbLinetypeTableRecord
  2
HIDDEN
 70
     0
  3
__ __ __ __ __ __ __ __ __ __ __ __ 
 72
    65
 73
     2
 40
0.375
 49
0.25
 74
     0
 49
-0.125
 74
     0
  0
LTYPE
  5
35
330
5
100
AcDbSymbolTableRecord
100
AcDbLinetypeTableRecord
  2
HIDDEN2
 70
     0
  3
_ _ _ _ _ _ _ _ _ _ _ _ _ _ _ _ _ _ 
 72
    65
 73
     2
 40
0.1875
 49
0.125
 74
     0
 49
-0.0625
 74
     0
  0
LTYPE
  5
36
330
5
100
AcDbSymbolTableRecord
100
AcDbLinetypeTableRecord
  2
HIDDENX2
 70
     0
  3
____ ____ ____ ____ ____ ____ ____ 
 72
    65
 73
     2
 40
0.75
 49
0.5
 74
     0
 49
-0.25
 74
     0
  0
LTYPE
  5
37
330
5
100
AcDbSymbolTableRecord
100
AcDbLinetypeTableRecord
  2
PHANTOM
 70
     0
  3
______  __  __  ______  __  __  
 72
    65
 73
     6
 40
2.5
 49
1.25
 74
     0
 49
-0.25
 74
     0
 49
0.25
 74
     0
 49
-0.25
 74
     0
 49
0.25
 74
     0
 49
-0.25
 74
     0
  0
LTYPE
  5
38
330
5
100
AcDbSymbolTableRecord
100
AcDbLinetypeTableRecord
  2
PHANTOM2
 70
     0
  3
___ _ _ ___ _ _ ___ _ _ ___ _ _ 
 72
    65
 73
     6
 40
1.25
 49
0.625
 74
     0
 49
-0.125
 74
     0
 49
0.125
 74
     0
 49
-0.125
 74
     0
 49
0.125
 74
     0
 49
-0.125
 74
     0
  0
LTYPE
  5
39
330
5
100
AcDbSymbolTableRecord
100
AcDbLinetypeTableRecord
  2
PHANTOMX2
 70
     0
  3
___ _ _ ___ _ _ ___ _ _ ___ _ _ 
 72
    65
 73
     6
 40
5.0
 49
2.5
 74
     0
 49
-0.5
 74
     0
 49
0.5
 74
     0
 49
-0.5
 74
     0
 49
0.5
 74
     0
 49
-0.5
 74
     0
  0
ENDTAB
  0
TABLE
  2
LAYER
  5
2
330
0
100
AcDbSymbolTable
 70
   257
  0
LAYER
  5
10
330
2
100
AcDbSymbolTableRecord
100
AcDbLayerTableRecord
  2
0
 70
     0
 62
     7
  6
CONTINUOUS
  0
LAYER
  5
3A
330
2
100
AcDbSymbolTableRecord
100
AcDbLayerTableRecord
  2
1
 70
     0
 62
     1
  6
CONTINUOUS
  0
LAYER
  5
3B
330
2
100
AcDbSymbolTableRecord
100
AcDbLayerTableRecord
  2
2
 70
     0
 62
     2
  6
CONTINUOUS
  0
LAYER
  5
3C
330
2
100
AcDbSymbolTableRecord
100
AcDbLayerTableRecord
  2
3
 70
     0
 62
     3
  6
CONTINUOUS
  0
LAYER
  5
3D
330
2
100
AcDbSymbolTableRecord
100
AcDbLayerTableRecord
  2
4
 70
     0
 62
     4
  6
CONTINUOUS
  0
LAYER
  5
3E
330
2
100
AcDbSymbolTableRecord
100
AcDbLayerTableRecord
  2
5
 70
     0
 62
     5
  6
CONTINUOUS
  0
LAYER
  5
3F
330
2
100
AcDbSymbolTableRecord
100
AcDbLayerTableRecord
  2
6
 70
     0
 62
     6
  6
CONTINUOUS
  0
LAYER
  5
40
330
2
100
AcDbSymbolTableRecord
100
AcDbLayerTableRecord
  2
7
 70
     0
 62
     7
  6
CONTINUOUS
  0
LAYER
  5
41
330
2
100
AcDbSymbolTableRecord
100
AcDbLayerTableRecord
  2
8
 70
     0
 62
     8
  6
CONTINUOUS
  0
LAYER
  5
42
330
2
100
AcDbSymbolTableRecord
100
AcDbLayerTableRecord
  2
9
 70
     0
 62
     9
  6
CONTINUOUS
  0
LAYER
  5
43
330
2
100
AcDbSymbolTableRecord
100
AcDbLayerTableRecord
  2
10
 70
     0
 62
    10
  6
CONTINUOUS
  0
LAYER
  5
44
330
2
100
AcDbSymbolTableRecord
100
AcDbLayerTableRecord
  2
11
 70
     0
 62
    11
  6
CONTINUOUS
  0
LAYER
  5
45
330
2
100
AcDbSymbolTableRecord
100
AcDbLayerTableRecord
  2
12
 70
     0
 62
    12
  6
CONTINUOUS
  0
LAYER
  5
46
330
2
100
AcDbSymbolTableRecord
100
AcDbLayerTableRecord
  2
13
 70
     0
 62
    13
  6
CONTINUOUS
  0
LAYER
  5
47
330
2
100
AcDbSymbolTableRecord
100
AcDbLayerTableRecord
  2
14
 70
     0
 62
    14
  6
CONTINUOUS
  0
LAYER
  5
48
330
2
100
AcDbSymbolTableRecord
100
AcDbLayerTableRecord
  2
15
 70
     0
 62
    15
  6
CONTINUOUS
  0
LAYER
  5
49
330
2
100
AcDbSymbolTableRecord
100
AcDbLayerTableRecord
  2
16
 70
     0
 62
    16
  6
CONTINUOUS
  0
LAYER
  5
4A
330
2
100
AcDbSymbolTableRecord
100
AcDbLayerTableRecord
  2
17
 70
     0
 62
    17
  6
CONTINUOUS
  0
LAYER
  5
4B
330
2
100
AcDbSymbolTableRecord
100
AcDbLayerTableRecord
  2
18
 70
     0
 62
    18
  6
CONTINUOUS
  0
LAYER
  5
4C
330
2
100
AcDbSymbolTableRecord
100
AcDbLayerTableRecord
  2
19
 70
     0
 62
    19
  6
CONTINUOUS
  0
LAYER
  5
4D
330
2
100
AcDbSymbolTableRecord
100
AcDbLayerTableRecord
  2
20
 70
     0
 62
    20
  6
CONTINUOUS
  0
LAYER
  5
4E
330
2
100
AcDbSymbolTableRecord
100
AcDbLayerTableRecord
  2
21
 70
     0
 62
    21
  6
CONTINUOUS
  0
LAYER
  5
4F
330
2
100
AcDbSymbolTableRecord
100
AcDbLayerTableRecord
  2
22
 70
     0
 62
    22
  6
CONTINUOUS
  0
LAYER
  5
50
330
2
100
AcDbSymbolTableRecord
100
AcDbLayerTableRecord
  2
23
 70
     0
 62
    23
  6
CONTINUOUS
  0
LAYER
  5
51
330
2
100
AcDbSymbolTableRecord
100
AcDbLayerTableRecord
  2
24
 70
     0
 62
    24
  6
CONTINUOUS
  0
LAYER
  5
52
330
2
100
AcDbSymbolTableRecord
100
AcDbLayerTableRecord
  2
25
 70
     0
 62
    25
  6
CONTINUOUS
  0
LAYER
  5
53
330
2
100
AcDbSymbolTableRecord
100
AcDbLayerTableRecord
  2
26
 70
     0
 62
    26
  6
CONTINUOUS
  0
LAYER
  5
54
330
2
100
AcDbSymbolTableRecord
100
AcDbLayerTableRecord
  2
27
 70
     0
 62
    27
  6
CONTINUOUS
  0
LAYER
  5
55
330
2
100
AcDbSymbolTableRecord
100
AcDbLayerTableRecord
  2
28
 70
     0
 62
    28
  6
CONTINUOUS
  0
LAYER
  5
56
330
2
100
AcDbSymbolTableRecord
100
AcDbLayerTableRecord
  2
29
 70
     0
 62
    29
  6
CONTINUOUS
  0
LAYER
  5
57
330
2
100
AcDbSymbolTableRecord
100
AcDbLayerTableRecord
  2
30
 70
     0
 62
    30
  6
CONTINUOUS
  0
LAYER
  5
58
330
2
100
AcDbSymbolTableRecord
100
AcDbLayerTableRecord
  2
31
 70
     0
 62
    31
  6
CONTINUOUS
  0
LAYER
  5
59
330
2
100
AcDbSymbolTableRecord
100
AcDbLayerTableRecord
  2
32
 70
     0
 62
    32
  6
CONTINUOUS
  0
LAYER
  5
5A
330
2
100
AcDbSymbolTableRecord
100
AcDbLayerTableRecord
  2
33
 70
     0
 62
    33
  6
CONTINUOUS
  0
LAYER
  5
5B
330
2
100
AcDbSymbolTableRecord
100
AcDbLayerTableRecord
  2
34
 70
     0
 62
    34
  6
CONTINUOUS
  0
LAYER
  5
5C
330
2
100
AcDbSymbolTableRecord
100
AcDbLayerTableRecord
  2
35
 70
     0
 62
    35
  6
CONTINUOUS
  0
LAYER
  5
5D
330
2
100
AcDbSymbolTableRecord
100
AcDbLayerTableRecord
  2
36
 70
     0
 62
    36
  6
CONTINUOUS
  0
LAYER
  5
5E
330
2
100
AcDbSymbolTableRecord
100
AcDbLayerTableRecord
  2
37
 70
     0
 62
    37
  6
CONTINUOUS
  0
LAYER
  5
5F
330
2
100
AcDbSymbolTableRecord
100
AcDbLayerTableRecord
  2
38
 70
     0
 62
    38
  6
CONTINUOUS
  0
LAYER
  5
60
330
2
100
AcDbSymbolTableRecord
100
AcDbLayerTableRecord
  2
39
 70
     0
 62
    39
  6
CONTINUOUS
  0
LAYER
  5
61
330
2
100
AcDbSymbolTableRecord
100
AcDbLayerTableRecord
  2
40
 70
     0
 62
    40
  6
CONTINUOUS
  0
LAYER
  5
62
330
2
100
AcDbSymbolTableRecord
100
AcDbLayerTableRecord
  2
41
 70
     0
 62
    41
  6
CONTINUOUS
  0
LAYER
  5
63
330
2
100
AcDbSymbolTableRecord
100
AcDbLayerTableRecord
  2
42
 70
     0
 62
    42
  6
CONTINUOUS
  0
LAYER
  5
64
330
2
100
AcDbSymbolTableRecord
100
AcDbLayerTableRecord
  2
43
 70
     0
 62
    43
  6
CONTINUOUS
  0
LAYER
  5
65
330
2
100
AcDbSymbolTableRecord
100
AcDbLayerTableRecord
  2
44
 70
     0
 62
    44
  6
CONTINUOUS
  0
LAYER
  5
66
330
2
100
AcDbSymbolTableRecord
100
AcDbLayerTableRecord
  2
45
 70
     0
 62
    45
  6
CONTINUOUS
  0
LAYER
  5
67
330
2
100
AcDbSymbolTableRecord
100
AcDbLayerTableRecord
  2
46
 70
     0
 62
    46
  6
CONTINUOUS
  0
LAYER
  5
68
330
2
100
AcDbSymbolTableRecord
100
AcDbLayerTableRecord
  2
47
 70
     0
 62
    47
  6
CONTINUOUS
  0
LAYER
  5
69
330
2
100
AcDbSymbolTableRecord
100
AcDbLayerTableRecord
  2
48
 70
     0
 62
    48
  6
CONTINUOUS
  0
LAYER
  5
6A
330
2
100
AcDbSymbolTableRecord
100
AcDbLayerTableRecord
  2
49
 70
     0
 62
    49
  6
CONTINUOUS
  0
LAYER
  5
6B
330
2
100
AcDbSymbolTableRecord
100
AcDbLayerTableRecord
  2
50
 70
     0
 62
    50
  6
CONTINUOUS
  0
LAYER
  5
6C
330
2
100
AcDbSymbolTableRecord
100
AcDbLayerTableRecord
  2
51
 70
     0
 62
    51
  6
CONTINUOUS
  0
LAYER
  5
6D
330
2
100
AcDbSymbolTableRecord
100
AcDbLayerTableRecord
  2
52
 70
     0
 62
    52
  6
CONTINUOUS
  0
LAYER
  5
6E
330
2
100
AcDbSymbolTableRecord
100
AcDbLayerTableRecord
  2
53
 70
     0
 62
    53
  6
CONTINUOUS
  0
LAYER
  5
6F
330
2
100
AcDbSymbolTableRecord
100
AcDbLayerTableRecord
  2
54
 70
     0
 62
    54
  6
CONTINUOUS
  0
LAYER
  5
70
330
2
100
AcDbSymbolTableRecord
100
AcDbLayerTableRecord
  2
55
 70
     0
 62
    55
  6
CONTINUOUS
  0
LAYER
  5
71
330
2
100
AcDbSymbolTableRecord
100
AcDbLayerTableRecord
  2
56
 70
     0
 62
    56
  6
CONTINUOUS
  0
LAYER
  5
72
330
2
100
AcDbSymbolTableRecord
100
AcDbLayerTableRecord
  2
57
 70
     0
 62
    57
  6
CONTINUOUS
  0
LAYER
  5
73
330
2
100
AcDbSymbolTableRecord
100
AcDbLayerTableRecord
  2
58
 70
     0
 62
    58
  6
CONTINUOUS
  0
LAYER
  5
74
330
2
100
AcDbSymbolTableRecord
100
AcDbLayerTableRecord
  2
59
 70
     0
 62
    59
  6
CONTINUOUS
  0
LAYER
  5
75
330
2
100
AcDbSymbolTableRecord
100
AcDbLayerTableRecord
  2
60
 70
     0
 62
    60
  6
CONTINUOUS
  0
LAYER
  5
76
330
2
100
AcDbSymbolTableRecord
100
AcDbLayerTableRecord
  2
61
 70
     0
 62
    61
  6
CONTINUOUS
  0
LAYER
  5
77
330
2
100
AcDbSymbolTableRecord
100
AcDbLayerTableRecord
  2
62
 70
     0
 62
    62
  6
CONTINUOUS
  0
LAYER
  5
78
330
2
100
AcDbSymbolTableRecord
100
AcDbLayerTableRecord
  2
63
 70
     0
 62
    63
  6
CONTINUOUS
  0
LAYER
  5
79
330
2
100
AcDbSymbolTableRecord
100
AcDbLayerTableRecord
  2
64
 70
     0
 62
    64
  6
CONTINUOUS
  0
LAYER
  5
7A
330
2
100
AcDbSymbolTableRecord
100
AcDbLayerTableRecord
  2
65
 70
     0
 62
    65
  6
CONTINUOUS
  0
LAYER
  5
7B
330
2
100
AcDbSymbolTableRecord
100
AcDbLayerTableRecord
  2
66
 70
     0
 62
    66
  6
CONTINUOUS
  0
LAYER
  5
7C
330
2
100
AcDbSymbolTableRecord
100
AcDbLayerTableRecord
  2
67
 70
     0
 62
    67
  6
CONTINUOUS
  0
LAYER
  5
7D
330
2
100
AcDbSymbolTableRecord
100
AcDbLayerTableRecord
  2
68
 70
     0
 62
    68
  6
CONTINUOUS
  0
LAYER
  5
7E
330
2
100
AcDbSymbolTableRecord
100
AcDbLayerTableRecord
  2
69
 70
     0
 62
    69
  6
CONTINUOUS
  0
LAYER
  5
7F
330
2
100
AcDbSymbolTableRecord
100
AcDbLayerTableRecord
  2
70
 70
     0
 62
    70
  6
CONTINUOUS
  0
LAYER
  5
80
330
2
100
AcDbSymbolTableRecord
100
AcDbLayerTableRecord
  2
71
 70
     0
 62
    71
  6
CONTINUOUS
  0
LAYER
  5
81
330
2
100
AcDbSymbolTableRecord
100
AcDbLayerTableRecord
  2
72
 70
     0
 62
    72
  6
CONTINUOUS
  0
LAYER
  5
82
330
2
100
AcDbSymbolTableRecord
100
AcDbLayerTableRecord
  2
73
 70
     0
 62
    73
  6
CONTINUOUS
  0
LAYER
  5
83
330
2
100
AcDbSymbolTableRecord
100
AcDbLayerTableRecord
  2
74
 70
     0
 62
    74
  6
CONTINUOUS
  0
LAYER
  5
84
330
2
100
AcDbSymbolTableRecord
100
AcDbLayerTableRecord
  2
75
 70
     0
 62
    75
  6
CONTINUOUS
  0
LAYER
  5
85
330
2
100
AcDbSymbolTableRecord
100
AcDbLayerTableRecord
  2
76
 70
     0
 62
    76
  6
CONTINUOUS
  0
LAYER
  5
86
330
2
100
AcDbSymbolTableRecord
100
AcDbLayerTableRecord
  2
77
 70
     0
 62
    77
  6
CONTINUOUS
  0
LAYER
  5
87
330
2
100
AcDbSymbolTableRecord
100
AcDbLayerTableRecord
  2
78
 70
     0
 62
    78
  6
CONTINUOUS
  0
LAYER
  5
88
330
2
100
AcDbSymbolTableRecord
100
AcDbLayerTableRecord
  2
79
 70
     0
 62
    79
  6
CONTINUOUS
  0
LAYER
  5
89
330
2
100
AcDbSymbolTableRecord
100
AcDbLayerTableRecord
  2
80
 70
     0
 62
    80
  6
CONTINUOUS
  0
LAYER
  5
8A
330
2
100
AcDbSymbolTableRecord
100
AcDbLayerTableRecord
  2
81
 70
     0
 62
    81
  6
CONTINUOUS
  0
LAYER
  5
8B
330
2
100
AcDbSymbolTableRecord
100
AcDbLayerTableRecord
  2
82
 70
     0
 62
    82
  6
CONTINUOUS
  0
LAYER
  5
8C
330
2
100
AcDbSymbolTableRecord
100
AcDbLayerTableRecord
  2
83
 70
     0
 62
    83
  6
CONTINUOUS
  0
LAYER
  5
8D
330
2
100
AcDbSymbolTableRecord
100
AcDbLayerTableRecord
  2
84
 70
     0
 62
    84
  6
CONTINUOUS
  0
LAYER
  5
8E
330
2
100
AcDbSymbolTableRecord
100
AcDbLayerTableRecord
  2
85
 70
     0
 62
    85
  6
CONTINUOUS
  0
LAYER
  5
8F
330
2
100
AcDbSymbolTableRecord
100
AcDbLayerTableRecord
  2
86
 70
     0
 62
    86
  6
CONTINUOUS
  0
LAYER
  5
90
330
2
100
AcDbSymbolTableRecord
100
AcDbLayerTableRecord
  2
87
 70
     0
 62
    87
  6
CONTINUOUS
  0
LAYER
  5
91
330
2
100
AcDbSymbolTableRecord
100
AcDbLayerTableRecord
  2
88
 70
     0
 62
    88
  6
CONTINUOUS
  0
LAYER
  5
92
330
2
100
AcDbSymbolTableRecord
100
AcDbLayerTableRecord
  2
89
 70
     0
 62
    89
  6
CONTINUOUS
  0
LAYER
  5
93
330
2
100
AcDbSymbolTableRecord
100
AcDbLayerTableRecord
  2
90
 70
     0
 62
    90
  6
CONTINUOUS
  0
LAYER
  5
94
330
2
100
AcDbSymbolTableRecord
100
AcDbLayerTableRecord
  2
91
 70
     0
 62
    91
  6
CONTINUOUS
  0
LAYER
  5
95
330
2
100
AcDbSymbolTableRecord
100
AcDbLayerTableRecord
  2
92
 70
     0
 62
    92
  6
CONTINUOUS
  0
LAYER
  5
96
330
2
100
AcDbSymbolTableRecord
100
AcDbLayerTableRecord
  2
93
 70
     0
 62
    93
  6
CONTINUOUS
  0
LAYER
  5
97
330
2
100
AcDbSymbolTableRecord
100
AcDbLayerTableRecord
  2
94
 70
     0
 62
    94
  6
CONTINUOUS
  0
LAYER
  5
98
330
2
100
AcDbSymbolTableRecord
100
AcDbLayerTableRecord
  2
95
 70
     0
 62
    95
  6
CONTINUOUS
  0
LAYER
  5
99
330
2
100
AcDbSymbolTableRecord
100
AcDbLayerTableRecord
  2
96
 70
     0
 62
    96
  6
CONTINUOUS
  0
LAYER
  5
9A
330
2
100
AcDbSymbolTableRecord
100
AcDbLayerTableRecord
  2
97
 70
     0
 62
    97
  6
CONTINUOUS
  0
LAYER
  5
9B
330
2
100
AcDbSymbolTableRecord
100
AcDbLayerTableRecord
  2
98
 70
     0
 62
    98
  6
CONTINUOUS
  0
LAYER
  5
9C
330
2
100
AcDbSymbolTableRecord
100
AcDbLayerTableRecord
  2
99
 70
     0
 62
    99
  6
CONTINUOUS
  0
LAYER
  5
9D
330
2
100
AcDbSymbolTableRecord
100
AcDbLayerTableRecord
  2
100
 70
     0
 62
   100
  6
CONTINUOUS
  0
LAYER
  5
9E
330
2
100
AcDbSymbolTableRecord
100
AcDbLayerTableRecord
  2
101
 70
     0
 62
   101
  6
CONTINUOUS
  0
LAYER
  5
9F
330
2
100
AcDbSymbolTableRecord
100
AcDbLayerTableRecord
  2
102
 70
     0
 62
   102
  6
CONTINUOUS
  0
LAYER
  5
A0
330
2
100
AcDbSymbolTableRecord
100
AcDbLayerTableRecord
  2
103
 70
     0
 62
   103
  6
CONTINUOUS
  0
LAYER
  5
A1
330
2
100
AcDbSymbolTableRecord
100
AcDbLayerTableRecord
  2
104
 70
     0
 62
   104
  6
CONTINUOUS
  0
LAYER
  5
A2
330
2
100
AcDbSymbolTableRecord
100
AcDbLayerTableRecord
  2
105
 70
     0
 62
   105
  6
CONTINUOUS
  0
LAYER
  5
A3
330
2
100
AcDbSymbolTableRecord
100
AcDbLayerTableRecord
  2
106
 70
     0
 62
   106
  6
CONTINUOUS
  0
LAYER
  5
A4
330
2
100
AcDbSymbolTableRecord
100
AcDbLayerTableRecord
  2
107
 70
     0
 62
   107
  6
CONTINUOUS
  0
LAYER
  5
A5
330
2
100
AcDbSymbolTableRecord
100
AcDbLayerTableRecord
  2
108
 70
     0
 62
   108
  6
CONTINUOUS
  0
LAYER
  5
A6
330
2
100
AcDbSymbolTableRecord
100
AcDbLayerTableRecord
  2
109
 70
     0
 62
   109
  6
CONTINUOUS
  0
LAYER
  5
A7
330
2
100
AcDbSymbolTableRecord
100
AcDbLayerTableRecord
  2
110
 70
     0
 62
   110
  6
CONTINUOUS
  0
LAYER
  5
A8
330
2
100
AcDbSymbolTableRecord
100
AcDbLayerTableRecord
  2
111
 70
     0
 62
   111
  6
CONTINUOUS
  0
LAYER
  5
A9
330
2
100
AcDbSymbolTableRecord
100
AcDbLayerTableRecord
  2
112
 70
     0
 62
   112
  6
CONTINUOUS
  0
LAYER
  5
AA
330
2
100
AcDbSymbolTableRecord
100
AcDbLayerTableRecord
  2
113
 70
     0
 62
   113
  6
CONTINUOUS
  0
LAYER
  5
AB
330
2
100
AcDbSymbolTableRecord
100
AcDbLayerTableRecord
  2
114
 70
     0
 62
   114
  6
CONTINUOUS
  0
LAYER
  5
AC
330
2
100
AcDbSymbolTableRecord
100
AcDbLayerTableRecord
  2
115
 70
     0
 62
   115
  6
CONTINUOUS
  0
LAYER
  5
AD
330
2
100
AcDbSymbolTableRecord
100
AcDbLayerTableRecord
  2
116
 70
     0
 62
   116
  6
CONTINUOUS
  0
LAYER
  5
AE
330
2
100
AcDbSymbolTableRecord
100
AcDbLayerTableRecord
  2
117
 70
     0
 62
   117
  6
CONTINUOUS
  0
LAYER
  5
AF
330
2
100
AcDbSymbolTableRecord
100
AcDbLayerTableRecord
  2
118
 70
     0
 62
   118
  6
CONTINUOUS
  0
LAYER
  5
B0
330
2
100
AcDbSymbolTableRecord
100
AcDbLayerTableRecord
  2
119
 70
     0
 62
   119
  6
CONTINUOUS
  0
LAYER
  5
B1
330
2
100
AcDbSymbolTableRecord
100
AcDbLayerTableRecord
  2
120
 70
     0
 62
   120
  6
CONTINUOUS
  0
LAYER
  5
B2
330
2
100
AcDbSymbolTableRecord
100
AcDbLayerTableRecord
  2
121
 70
     0
 62
   121
  6
CONTINUOUS
  0
LAYER
  5
B3
330
2
100
AcDbSymbolTableRecord
100
AcDbLayerTableRecord
  2
122
 70
     0
 62
   122
  6
CONTINUOUS
  0
LAYER
  5
B4
330
2
100
AcDbSymbolTableRecord
100
AcDbLayerTableRecord
  2
123
 70
     0
 62
   123
  6
CONTINUOUS
  0
LAYER
  5
B5
330
2
100
AcDbSymbolTableRecord
100
AcDbLayerTableRecord
  2
124
 70
     0
 62
   124
  6
CONTINUOUS
  0
LAYER
  5
B6
330
2
100
AcDbSymbolTableRecord
100
AcDbLayerTableRecord
  2
125
 70
     0
 62
   125
  6
CONTINUOUS
  0
LAYER
  5
B7
330
2
100
AcDbSymbolTableRecord
100
AcDbLayerTableRecord
  2
126
 70
     0
 62
   126
  6
CONTINUOUS
  0
LAYER
  5
B8
330
2
100
AcDbSymbolTableRecord
100
AcDbLayerTableRecord
  2
127
 70
     0
 62
   127
  6
CONTINUOUS
  0
LAYER
  5
B9
330
2
100
AcDbSymbolTableRecord
100
AcDbLayerTableRecord
  2
128
 70
     0
 62
   128
  6
CONTINUOUS
  0
LAYER
  5
BA
330
2
100
AcDbSymbolTableRecord
100
AcDbLayerTableRecord
  2
129
 70
     0
 62
   129
  6
CONTINUOUS
  0
LAYER
  5
BB
330
2
100
AcDbSymbolTableRecord
100
AcDbLayerTableRecord
  2
130
 70
     0
 62
   130
  6
CONTINUOUS
  0
LAYER
  5
BC
330
2
100
AcDbSymbolTableRecord
100
AcDbLayerTableRecord
  2
131
 70
     0
 62
   131
  6
CONTINUOUS
  0
LAYER
  5
BD
330
2
100
AcDbSymbolTableRecord
100
AcDbLayerTableRecord
  2
132
 70
     0
 62
   132
  6
CONTINUOUS
  0
LAYER
  5
BE
330
2
100
AcDbSymbolTableRecord
100
AcDbLayerTableRecord
  2
133
 70
     0
 62
   133
  6
CONTINUOUS
  0
LAYER
  5
BF
330
2
100
AcDbSymbolTableRecord
100
AcDbLayerTableRecord
  2
134
 70
     0
 62
   134
  6
CONTINUOUS
  0
LAYER
  5
C0
330
2
100
AcDbSymbolTableRecord
100
AcDbLayerTableRecord
  2
135
 70
     0
 62
   135
  6
CONTINUOUS
  0
LAYER
  5
C1
330
2
100
AcDbSymbolTableRecord
100
AcDbLayerTableRecord
  2
136
 70
     0
 62
   136
  6
CONTINUOUS
  0
LAYER
  5
C2
330
2
100
AcDbSymbolTableRecord
100
AcDbLayerTableRecord
  2
137
 70
     0
 62
   137
  6
CONTINUOUS
  0
LAYER
  5
C3
330
2
100
AcDbSymbolTableRecord
100
AcDbLayerTableRecord
  2
138
 70
     0
 62
   138
  6
CONTINUOUS
  0
LAYER
  5
C4
330
2
100
AcDbSymbolTableRecord
100
AcDbLayerTableRecord
  2
139
 70
     0
 62
   139
  6
CONTINUOUS
  0
LAYER
  5
C5
330
2
100
AcDbSymbolTableRecord
100
AcDbLayerTableRecord
  2
140
 70
     0
 62
   140
  6
CONTINUOUS
  0
LAYER
  5
C6
330
2
100
AcDbSymbolTableRecord
100
AcDbLayerTableRecord
  2
141
 70
     0
 62
   141
  6
CONTINUOUS
  0
LAYER
  5
C7
330
2
100
AcDbSymbolTableRecord
100
AcDbLayerTableRecord
  2
142
 70
     0
 62
   142
  6
CONTINUOUS
  0
LAYER
  5
C8
330
2
100
AcDbSymbolTableRecord
100
AcDbLayerTableRecord
  2
143
 70
     0
 62
   143
  6
CONTINUOUS
  0
LAYER
  5
C9
330
2
100
AcDbSymbolTableRecord
100
AcDbLayerTableRecord
  2
144
 70
     0
 62
   144
  6
CONTINUOUS
  0
LAYER
  5
CA
330
2
100
AcDbSymbolTableRecord
100
AcDbLayerTableRecord
  2
145
 70
     0
 62
   145
  6
CONTINUOUS
  0
LAYER
  5
CB
330
2
100
AcDbSymbolTableRecord
100
AcDbLayerTableRecord
  2
146
 70
     0
 62
   146
  6
CONTINUOUS
  0
LAYER
  5
CC
330
2
100
AcDbSymbolTableRecord
100
AcDbLayerTableRecord
  2
147
 70
     0
 62
   147
  6
CONTINUOUS
  0
LAYER
  5
CD
330
2
100
AcDbSymbolTableRecord
100
AcDbLayerTableRecord
  2
148
 70
     0
 62
   148
  6
CONTINUOUS
  0
LAYER
  5
CE
330
2
100
AcDbSymbolTableRecord
100
AcDbLayerTableRecord
  2
149
 70
     0
 62
   149
  6
CONTINUOUS
  0
LAYER
  5
CF
330
2
100
AcDbSymbolTableRecord
100
AcDbLayerTableRecord
  2
150
 70
     0
 62
   150
  6
CONTINUOUS
  0
LAYER
  5
D0
330
2
100
AcDbSymbolTableRecord
100
AcDbLayerTableRecord
  2
151
 70
     0
 62
   151
  6
CONTINUOUS
  0
LAYER
  5
D1
330
2
100
AcDbSymbolTableRecord
100
AcDbLayerTableRecord
  2
152
 70
     0
 62
   152
  6
CONTINUOUS
  0
LAYER
  5
D2
330
2
100
AcDbSymbolTableRecord
100
AcDbLayerTableRecord
  2
153
 70
     0
 62
   153
  6
CONTINUOUS
  0
LAYER
  5
D3
330
2
100
AcDbSymbolTableRecord
100
AcDbLayerTableRecord
  2
154
 70
     0
 62
   154
  6
CONTINUOUS
  0
LAYER
  5
D4
330
2
100
AcDbSymbolTableRecord
100
AcDbLayerTableRecord
  2
155
 70
     0
 62
   155
  6
CONTINUOUS
  0
LAYER
  5
D5
330
2
100
AcDbSymbolTableRecord
100
AcDbLayerTableRecord
  2
156
 70
     0
 62
   156
  6
CONTINUOUS
  0
LAYER
  5
D6
330
2
100
AcDbSymbolTableRecord
100
AcDbLayerTableRecord
  2
157
 70
     0
 62
   157
  6
CONTINUOUS
  0
LAYER
  5
D7
330
2
100
AcDbSymbolTableRecord
100
AcDbLayerTableRecord
  2
158
 70
     0
 62
   158
  6
CONTINUOUS
  0
LAYER
  5
D8
330
2
100
AcDbSymbolTableRecord
100
AcDbLayerTableRecord
  2
159
 70
     0
 62
   159
  6
CONTINUOUS
  0
LAYER
  5
D9
330
2
100
AcDbSymbolTableRecord
100
AcDbLayerTableRecord
  2
160
 70
     0
 62
   160
  6
CONTINUOUS
  0
LAYER
  5
DA
330
2
100
AcDbSymbolTableRecord
100
AcDbLayerTableRecord
  2
161
 70
     0
 62
   161
  6
CONTINUOUS
  0
LAYER
  5
DB
330
2
100
AcDbSymbolTableRecord
100
AcDbLayerTableRecord
  2
162
 70
     0
 62
   162
  6
CONTINUOUS
  0
LAYER
  5
DC
330
2
100
AcDbSymbolTableRecord
100
AcDbLayerTableRecord
  2
163
 70
     0
 62
   163
  6
CONTINUOUS
  0
LAYER
  5
DD
330
2
100
AcDbSymbolTableRecord
100
AcDbLayerTableRecord
  2
164
 70
     0
 62
   164
  6
CONTINUOUS
  0
LAYER
  5
DE
330
2
100
AcDbSymbolTableRecord
100
AcDbLayerTableRecord
  2
165
 70
     0
 62
   165
  6
CONTINUOUS
  0
LAYER
  5
DF
330
2
100
AcDbSymbolTableRecord
100
AcDbLayerTableRecord
  2
166
 70
     0
 62
   166
  6
CONTINUOUS
  0
LAYER
  5
E0
330
2
100
AcDbSymbolTableRecord
100
AcDbLayerTableRecord
  2
167
 70
     0
 62
   167
  6
CONTINUOUS
  0
LAYER
  5
E1
330
2
100
AcDbSymbolTableRecord
100
AcDbLayerTableRecord
  2
168
 70
     0
 62
   168
  6
CONTINUOUS
  0
LAYER
  5
E2
330
2
100
AcDbSymbolTableRecord
100
AcDbLayerTableRecord
  2
169
 70
     0
 62
   169
  6
CONTINUOUS
  0
LAYER
  5
E3
330
2
100
AcDbSymbolTableRecord
100
AcDbLayerTableRecord
  2
170
 70
     0
 62
   170
  6
CONTINUOUS
  0
LAYER
  5
E4
330
2
100
AcDbSymbolTableRecord
100
AcDbLayerTableRecord
  2
171
 70
     0
 62
   171
  6
CONTINUOUS
  0
LAYER
  5
E5
330
2
100
AcDbSymbolTableRecord
100
AcDbLayerTableRecord
  2
172
 70
     0
 62
   172
  6
CONTINUOUS
  0
LAYER
  5
E6
330
2
100
AcDbSymbolTableRecord
100
AcDbLayerTableRecord
  2
173
 70
     0
 62
   173
  6
CONTINUOUS
  0
LAYER
  5
E7
330
2
100
AcDbSymbolTableRecord
100
AcDbLayerTableRecord
  2
174
 70
     0
 62
   174
  6
CONTINUOUS
  0
LAYER
  5
E8
330
2
100
AcDbSymbolTableRecord
100
AcDbLayerTableRecord
  2
175
 70
     0
 62
   175
  6
CONTINUOUS
  0
LAYER
  5
E9
330
2
100
AcDbSymbolTableRecord
100
AcDbLayerTableRecord
  2
176
 70
     0
 62
   176
  6
CONTINUOUS
  0
LAYER
  5
EA
330
2
100
AcDbSymbolTableRecord
100
AcDbLayerTableRecord
  2
177
 70
     0
 62
   177
  6
CONTINUOUS
  0
LAYER
  5
EB
330
2
100
AcDbSymbolTableRecord
100
AcDbLayerTableRecord
  2
178
 70
     0
 62
   178
  6
CONTINUOUS
  0
LAYER
  5
EC
330
2
100
AcDbSymbolTableRecord
100
AcDbLayerTableRecord
  2
179
 70
     0
 62
   179
  6
CONTINUOUS
  0
LAYER
  5
ED
330
2
100
AcDbSymbolTableRecord
100
AcDbLayerTableRecord
  2
180
 70
     0
 62
   180
  6
CONTINUOUS
  0
LAYER
  5
EE
330
2
100
AcDbSymbolTableRecord
100
AcDbLayerTableRecord
  2
181
 70
     0
 62
   181
  6
CONTINUOUS
  0
LAYER
  5
EF
330
2
100
AcDbSymbolTableRecord
100
AcDbLayerTableRecord
  2
182
 70
     0
 62
   182
  6
CONTINUOUS
  0
LAYER
  5
F0
330
2
100
AcDbSymbolTableRecord
100
AcDbLayerTableRecord
  2
183
 70
     0
 62
   183
  6
CONTINUOUS
  0
LAYER
  5
F1
330
2
100
AcDbSymbolTableRecord
100
AcDbLayerTableRecord
  2
184
 70
     0
 62
   184
  6
CONTINUOUS
  0
LAYER
  5
F2
330
2
100
AcDbSymbolTableRecord
100
AcDbLayerTableRecord
  2
185
 70
     0
 62
   185
  6
CONTINUOUS
  0
LAYER
  5
F3
330
2
100
AcDbSymbolTableRecord
100
AcDbLayerTableRecord
  2
186
 70
     0
 62
   186
  6
CONTINUOUS
  0
LAYER
  5
F4
330
2
100
AcDbSymbolTableRecord
100
AcDbLayerTableRecord
  2
187
 70
     0
 62
   187
  6
CONTINUOUS
  0
LAYER
  5
F5
330
2
100
AcDbSymbolTableRecord
100
AcDbLayerTableRecord
  2
188
 70
     0
 62
   188
  6
CONTINUOUS
  0
LAYER
  5
F6
330
2
100
AcDbSymbolTableRecord
100
AcDbLayerTableRecord
  2
189
 70
     0
 62
   189
  6
CONTINUOUS
  0
LAYER
  5
F7
330
2
100
AcDbSymbolTableRecord
100
AcDbLayerTableRecord
  2
190
 70
     0
 62
   190
  6
CONTINUOUS
  0
LAYER
  5
F8
330
2
100
AcDbSymbolTableRecord
100
AcDbLayerTableRecord
  2
191
 70
     0
 62
   191
  6
CONTINUOUS
  0
LAYER
  5
F9
330
2
100
AcDbSymbolTableRecord
100
AcDbLayerTableRecord
  2
192
 70
     0
 62
   192
  6
CONTINUOUS
  0
LAYER
  5
FA
330
2
100
AcDbSymbolTableRecord
100
AcDbLayerTableRecord
  2
193
 70
     0
 62
   193
  6
CONTINUOUS
  0
LAYER
  5
FB
330
2
100
AcDbSymbolTableRecord
100
AcDbLayerTableRecord
  2
194
 70
     0
 62
   194
  6
CONTINUOUS
  0
LAYER
  5
FC
330
2
100
AcDbSymbolTableRecord
100
AcDbLayerTableRecord
  2
195
 70
     0
 62
   195
  6
CONTINUOUS
  0
LAYER
  5
FD
330
2
100
AcDbSymbolTableRecord
100
AcDbLayerTableRecord
  2
196
 70
     0
 62
   196
  6
CONTINUOUS
  0
LAYER
  5
FE
330
2
100
AcDbSymbolTableRecord
100
AcDbLayerTableRecord
  2
197
 70
     0
 62
   197
  6
CONTINUOUS
  0
LAYER
  5
FF
330
2
100
AcDbSymbolTableRecord
100
AcDbLayerTableRecord
  2
198
 70
     0
 62
   198
  6
CONTINUOUS
  0
LAYER
  5
100
330
2
100
AcDbSymbolTableRecord
100
AcDbLayerTableRecord
  2
199
 70
     0
 62
   199
  6
CONTINUOUS
  0
LAYER
  5
101
330
2
100
AcDbSymbolTableRecord
100
AcDbLayerTableRecord
  2
200
 70
     0
 62
   200
  6
CONTINUOUS
  0
LAYER
  5
102
330
2
100
AcDbSymbolTableRecord
100
AcDbLayerTableRecord
  2
201
 70
     0
 62
   201
  6
CONTINUOUS
  0
LAYER
  5
103
330
2
100
AcDbSymbolTableRecord
100
AcDbLayerTableRecord
  2
202
 70
     0
 62
   202
  6
CONTINUOUS
  0
LAYER
  5
104
330
2
100
AcDbSymbolTableRecord
100
AcDbLayerTableRecord
  2
203
 70
     0
 62
   203
  6
CONTINUOUS
  0
LAYER
  5
105
330
2
100
AcDbSymbolTableRecord
100
AcDbLayerTableRecord
  2
204
 70
     0
 62
   204
  6
CONTINUOUS
  0
LAYER
  5
106
330
2
100
AcDbSymbolTableRecord
100
AcDbLayerTableRecord
  2
205
 70
     0
 62
   205
  6
CONTINUOUS
  0
LAYER
  5
107
330
2
100
AcDbSymbolTableRecord
100
AcDbLayerTableRecord
  2
206
 70
     0
 62
   206
  6
CONTINUOUS
  0
LAYER
  5
108
330
2
100
AcDbSymbolTableRecord
100
AcDbLayerTableRecord
  2
207
 70
     0
 62
   207
  6
CONTINUOUS
  0
LAYER
  5
109
330
2
100
AcDbSymbolTableRecord
100
AcDbLayerTableRecord
  2
208
 70
     0
 62
   208
  6
CONTINUOUS
  0
LAYER
  5
10A
330
2
100
AcDbSymbolTableRecord
100
AcDbLayerTableRecord
  2
209
 70
     0
 62
   209
  6
CONTINUOUS
  0
LAYER
  5
10B
330
2
100
AcDbSymbolTableRecord
100
AcDbLayerTableRecord
  2
210
 70
     0
 62
   210
  6
CONTINUOUS
  0
LAYER
  5
10C
330
2
100
AcDbSymbolTableRecord
100
AcDbLayerTableRecord
  2
211
 70
     0
 62
   211
  6
CONTINUOUS
  0
LAYER
  5
10D
330
2
100
AcDbSymbolTableRecord
100
AcDbLayerTableRecord
  2
212
 70
     0
 62
   212
  6
CONTINUOUS
  0
LAYER
  5
10E
330
2
100
AcDbSymbolTableRecord
100
AcDbLayerTableRecord
  2
213
 70
     0
 62
   213
  6
CONTINUOUS
  0
LAYER
  5
10F
330
2
100
AcDbSymbolTableRecord
100
AcDbLayerTableRecord
  2
214
 70
     0
 62
   214
  6
CONTINUOUS
  0
LAYER
  5
110
330
2
100
AcDbSymbolTableRecord
100
AcDbLayerTableRecord
  2
215
 70
     0
 62
   215
  6
CONTINUOUS
  0
LAYER
  5
111
330
2
100
AcDbSymbolTableRecord
100
AcDbLayerTableRecord
  2
216
 70
     0
 62
   216
  6
CONTINUOUS
  0
LAYER
  5
112
330
2
100
AcDbSymbolTableRecord
100
AcDbLayerTableRecord
  2
217
 70
     0
 62
   217
  6
CONTINUOUS
  0
LAYER
  5
113
330
2
100
AcDbSymbolTableRecord
100
AcDbLayerTableRecord
  2
218
 70
     0
 62
   218
  6
CONTINUOUS
  0
LAYER
  5
114
330
2
100
AcDbSymbolTableRecord
100
AcDbLayerTableRecord
  2
219
 70
     0
 62
   219
  6
CONTINUOUS
  0
LAYER
  5
115
330
2
100
AcDbSymbolTableRecord
100
AcDbLayerTableRecord
  2
220
 70
     0
 62
   220
  6
CONTINUOUS
  0
LAYER
  5
116
330
2
100
AcDbSymbolTableRecord
100
AcDbLayerTableRecord
  2
221
 70
     0
 62
   221
  6
CONTINUOUS
  0
LAYER
  5
117
330
2
100
AcDbSymbolTableRecord
100
AcDbLayerTableRecord
  2
222
 70
     0
 62
   222
  6
CONTINUOUS
  0
LAYER
  5
118
330
2
100
AcDbSymbolTableRecord
100
AcDbLayerTableRecord
  2
223
 70
     0
 62
   223
  6
CONTINUOUS
  0
LAYER
  5
119
330
2
100
AcDbSymbolTableRecord
100
AcDbLayerTableRecord
  2
224
 70
     0
 62
   224
  6
CONTINUOUS
  0
LAYER
  5
11A
330
2
100
AcDbSymbolTableRecord
100
AcDbLayerTableRecord
  2
225
 70
     0
 62
   225
  6
CONTINUOUS
  0
LAYER
  5
11B
330
2
100
AcDbSymbolTableRecord
100
AcDbLayerTableRecord
  2
226
 70
     0
 62
   226
  6
CONTINUOUS
  0
LAYER
  5
11C
330
2
100
AcDbSymbolTableRecord
100
AcDbLayerTableRecord
  2
227
 70
     0
 62
   227
  6
CONTINUOUS
  0
LAYER
  5
11D
330
2
100
AcDbSymbolTableRecord
100
AcDbLayerTableRecord
  2
228
 70
     0
 62
   228
  6
CONTINUOUS
  0
LAYER
  5
11E
330
2
100
AcDbSymbolTableRecord
100
AcDbLayerTableRecord
  2
229
 70
     0
 62
   229
  6
CONTINUOUS
  0
LAYER
  5
11F
330
2
100
AcDbSymbolTableRecord
100
AcDbLayerTableRecord
  2
230
 70
     0
 62
   230
  6
CONTINUOUS
  0
LAYER
  5
120
330
2
100
AcDbSymbolTableRecord
100
AcDbLayerTableRecord
  2
231
 70
     0
 62
   231
  6
CONTINUOUS
  0
LAYER
  5
121
330
2
100
AcDbSymbolTableRecord
100
AcDbLayerTableRecord
  2
232
 70
     0
 62
   232
  6
CONTINUOUS
  0
LAYER
  5
122
330
2
100
AcDbSymbolTableRecord
100
AcDbLayerTableRecord
  2
233
 70
     0
 62
   233
  6
CONTINUOUS
  0
LAYER
  5
123
330
2
100
AcDbSymbolTableRecord
100
AcDbLayerTableRecord
  2
234
 70
     0
 62
   234
  6
CONTINUOUS
  0
LAYER
  5
124
330
2
100
AcDbSymbolTableRecord
100
AcDbLayerTableRecord
  2
235
 70
     0
 62
   235
  6
CONTINUOUS
  0
LAYER
  5
125
330
2
100
AcDbSymbolTableRecord
100
AcDbLayerTableRecord
  2
236
 70
     0
 62
   236
  6
CONTINUOUS
  0
LAYER
  5
126
330
2
100
AcDbSymbolTableRecord
100
AcDbLayerTableRecord
  2
237
 70
     0
 62
   237
  6
CONTINUOUS
  0
LAYER
  5
127
330
2
100
AcDbSymbolTableRecord
100
AcDbLayerTableRecord
  2
238
 70
     0
 62
   238
  6
CONTINUOUS
  0
LAYER
  5
128
330
2
100
AcDbSymbolTableRecord
100
AcDbLayerTableRecord
  2
239
 70
     0
 62
   239
  6
CONTINUOUS
  0
LAYER
  5
129
330
2
100
AcDbSymbolTableRecord
100
AcDbLayerTableRecord
  2
240
 70
     0
 62
   240
  6
CONTINUOUS
  0
LAYER
  5
12A
330
2
100
AcDbSymbolTableRecord
100
AcDbLayerTableRecord
  2
241
 70
     0
 62
   241
  6
CONTINUOUS
  0
LAYER
  5
12B
330
2
100
AcDbSymbolTableRecord
100
AcDbLayerTableRecord
  2
242
 70
     0
 62
   242
  6
CONTINUOUS
  0
LAYER
  5
12C
330
2
100
AcDbSymbolTableRecord
100
AcDbLayerTableRecord
  2
243
 70
     0
 62
   243
  6
CONTINUOUS
  0
LAYER
  5
12D
330
2
100
AcDbSymbolTableRecord
100
AcDbLayerTableRecord
  2
244
 70
     0
 62
   244
  6
CONTINUOUS
  0
LAYER
  5
12E
330
2
100
AcDbSymbolTableRecord
100
AcDbLayerTableRecord
  2
245
 70
     0
 62
   245
  6
CONTINUOUS
  0
LAYER
  5
12F
330
2
100
AcDbSymbolTableRecord
100
AcDbLayerTableRecord
  2
246
 70
     0
 62
   246
  6
CONTINUOUS
  0
LAYER
  5
130
330
2
100
AcDbSymbolTableRecord
100
AcDbLayerTableRecord
  2
247
 70
     0
 62
   247
  6
CONTINUOUS
  0
LAYER
  5
131
330
2
100
AcDbSymbolTableRecord
100
AcDbLayerTableRecord
  2
248
 70
     0
 62
   248
  6
CONTINUOUS
  0
LAYER
  5
132
330
2
100
AcDbSymbolTableRecord
100
AcDbLayerTableRecord
  2
249
 70
     0
 62
   249
  6
CONTINUOUS
  0
LAYER
  5
133
330
2
100
AcDbSymbolTableRecord
100
AcDbLayerTableRecord
  2
250
 70
     0
 62
   250
  6
CONTINUOUS
  0
LAYER
  5
134
330
2
100
AcDbSymbolTableRecord
100
AcDbLayerTableRecord
  2
251
 70
     0
 62
   251
  6
CONTINUOUS
  0
LAYER
  5
135
330
2
100
AcDbSymbolTableRecord
100
AcDbLayerTableRecord
  2
252
 70
     0
 62
   252
  6
CONTINUOUS
  0
LAYER
  5
136
330
2
100
AcDbSymbolTableRecord
100
AcDbLayerTableRecord
  2
253
 70
     0
 62
   253
  6
CONTINUOUS
  0
LAYER
  5
137
330
2
100
AcDbSymbolTableRecord
100
AcDbLayerTableRecord
  2
254
 70
     0
 62
   254
  6
CONTINUOUS
  0
LAYER
  5
138
330
2
100
AcDbSymbolTableRecord
100
AcDbLayerTableRecord
  2
255
 70
     0
 62
   255
  6
CONTINUOUS
  0
LAYER
  5
561A
330
2
100
AcDbSymbolTableRecord
100
AcDbLayerTableRecord
  2
DEFPOINTS
 70
     0
 62
     7
  6
CONTINUOUS
  0
ENDTAB
  0
TABLE
  2
STYLE
  5
3
330
0
100
AcDbSymbolTable
 70
     1
  0
STYLE
  5
11
330
3
100
AcDbSymbolTableRecord
100
AcDbTextStyleTableRecord
  2
STANDARD
 70
     0
 40
0.0
 41
1.0
 50
0.0
 71
     0
 42
0.2
  3
monotxt
  4

  0
ENDTAB
  0
TABLE
  2
VIEW
  5
6
330
0
100
AcDbSymbolTable
 70
     0
  0
ENDTAB
  0
TABLE
  2
UCS
  5
7
330
0
100
AcDbSymbolTable
 70
     0
  0
ENDTAB
  0
TABLE
  2
APPID
  5
9
330
0
100
AcDbSymbolTable
 70
     1
  0
APPID
  5
12
330
9
100
AcDbSymbolTableRecord
100
AcDbRegAppTableRecord
  2
ACAD
 70
     0
  0
ENDTAB
  0
TABLE
  2
DIMSTYLE
  5
A
330
0
100
AcDbSymbolTable
 70
     1
  0
DIMSTYLE
105
2E17
330
A
100
AcDbSymbolTableRecord
100
AcDbDimStyleTableRecord
  2
STANDARD
 70
     0
  3

  4

  5

  6

  7

 40
1.0
 41
0.18
 42
0.0625
 43
0.38
 44
0.18
 45
0.0
 46
0.0
 47
0.0
 48
0.0
140
0.18
141
0.09
142
0.0
143
25.4
144
1.0
145
0.0
146
1.0
147
0.09
 71
     0
 72
     0
 73
     1
 74
     1
 75
     0
 76
     0
 77
     0
 78
     0
170
     0
171
     2
172
     0
173
     0
174
     0
175
     0
176
     0
177
     0
178
     0
270
     2
271
     4
272
     4
273
     2
274
     2
340
11
275
     0
280
     0
281
     0
282
     0
283
     1
284
     0
285
     0
286
     0
287
     3
288
     0
  0
ENDTAB
  0
TABLE
  2
BLOCK_RECORD
  5
1
330
0
100
AcDbSymbolTable
 70
     0
  0
BLOCK_RECORD
  5
1E
102
{ACAD_XDICTIONARY
360
5633
102
}
330
1
100
AcDbSymbolTableRecord
100
AcDbBlockTableRecord
  2
*MODEL_SPACE
  0
BLOCK_RECORD
  5
1A
102
{ACAD_XDICTIONARY
360
5635
102
}
330
1
100
AcDbSymbolTableRecord
100
AcDbBlockTableRecord
  2
*PAPER_SPACE
  0
ENDTAB
  0
ENDSEC
  0
SECTION
  2
BLOCKS
  0
BLOCK
  5
13B
330
1E
100
AcDbEntity
  8
0
100
AcDbBlockBegin
  2
*MODEL_SPACE
 70
     0
 10
0.0
 20
0.0
 30
0.0
  3
*MODEL_SPACE
  1

  0
ENDBLK
  5
13C
330
1E
100
AcDbEntity
  8
0
100
AcDbBlockEnd
  0
BLOCK
  5
139
330
1A
100
AcDbEntity
 67
     1
  8
0
100
AcDbBlockBegin
  2
*PAPER_SPACE
 70
     0
 10
0.0
 20
0.0
 30
0.0
  3
*PAPER_SPACE
  1

  0
ENDBLK
  5
13A
330
1A
100
AcDbEntity
 67
     1
  8
0
100
AcDbBlockEnd
  0
ENDSEC
  0
SECTION
  2
ENTITIES
  0
LINE
  5
2765
330
1E
100
AcDbEntity
  8
7
100
AcDbLine
 10
4.209056778991709
 20
7.421349663755298
 30
0.0
 11
3.859621452909031
 21
7.421349663755298
 31
0.0
  0
LINE
  5
276B
330
1E
100
AcDbEntity
  8
7
100
AcDbLine
 10
4.240227066294859
 20
5.577381088558446
 30
0.0
 11
4.240227066294859
 21
7.390179376452148
 31
0.0
  0
LINE
  5
2771
330
1E
100
AcDbEntity
  8
7
100
AcDbLine
 10
3.859621452909031
 20
5.546210801255297
 30
0.0
 11
4.209056778991709
 21
5.546210801255297
 31
0.0
  0
LINE
  5
2777
330
1E
100
AcDbEntity
  8
7
100
AcDbLine
 10
3.828451165605881
 20
7.390179376452148
 30
0.0
 11
3.828451165605881
 21
5.577381088558447
 31
0.0
  0
LINE
  5
27B7
330
1E
100
AcDbEntity
  8
7
100
AcDbLine
 10
4.643800259798796
 20
5.168886270743486
 30
0.0
 11
4.643800259798796
 21
7.798674194267109
 31
0.0
  0
LINE
  5
27CA
330
1E
100
AcDbEntity
  8
7
100
AcDbLine
 10
0.2044951312554883
 20
5.108186237574196
 30
0.0
 11
0.1733248439523387
 21
5.116388944759235
 31
0.0
  0
LINE
  5
2804
330
1E
100
AcDbEntity
  8
7
100
AcDbLine
 10
0.1470761809602128
 20
5.172167353617503
 30
0.0
 11
0.155278888145252
 21
5.177088977928526
 31
0.0
  0
LINE
  5
2838
330
1E
100
AcDbEntity
  8
7
100
AcDbLine
 10
4.640519176924779
 20
7.795393111393092
 30
0.0
 11
4.63231646973974
 21
7.824922857259235
 31
0.0
  0
LINE
  5
2858
330
1E
100
AcDbEntity
  8
7
100
AcDbLine
 10
0.905006324857851
 20
6.42390047005451
 30
0.0
 11
0.905006324857851
 21
6.543659994956086
 31
0.0
  0
LINE
  5
2866
330
1E
100
AcDbEntity
  8
7
100
AcDbLine
 10
0.6015061590113949
 20
6.543659994956086
 30
0.0
 11
0.6015061590113949
 21
6.42390047005451
 31
0.0
  0
LINE
  5
2873
330
1E
100
AcDbEntity
  8
7
100
AcDbLine
 10
0.6113494076334414
 20
6.589595155192306
 30
0.0
 11
0.6031467004484022
 21
6.543659994956086
 31
0.0
  0
LINE
  5
2874
330
1E
100
AcDbEntity
  8
7
100
AcDbLine
 10
0.9591441922791101
 20
5.610191917298605
 30
0.0
 11
0.5490088330271426
 21
5.610191917298605
 31
0.0
  0
LINE
  5
2875
330
1E
100
AcDbEntity
  8
7
100
AcDbLine
 10
0.9591441922791105
 20
7.355728006274983
 30
0.0
 11
0.9591441922791101
 21
5.610191917298605
 31
0.0
  0
LINE
  5
2876
330
1E
100
AcDbEntity
  8
7
100
AcDbLine
 10
0.9591441922791105
 20
7.355728006274983
 30
0.0
 11
0.549008833027143
 21
7.355728006274983
 31
0.0
  0
LINE
  5
2877
330
1E
100
AcDbEntity
  8
7
100
AcDbLine
 10
0.5490088330271426
 20
5.610191917298605
 30
0.0
 11
0.549008833027143
 21
7.355728006274983
 31
0.0
  0
LINE
  5
2878
330
1E
100
AcDbEntity
  8
7
100
AcDbLine
 10
0.9591441922791101
 20
5.610191917298605
 30
0.0
 11
0.9591441922791101
 21
5.608551375861597
 31
0.0
  0
LINE
  5
2879
330
1E
100
AcDbEntity
  8
7
100
AcDbLine
 10
0.5490088330271426
 20
5.610191917298605
 30
0.0
 11
0.5473682915901348
 21
5.608551375861597
 31
0.0
  0
LINE
  5
2887
330
1E
100
AcDbEntity
  8
7
100
AcDbLine
 10
0.9591441922791105
 20
7.355728006274983
 30
0.0
 11
0.9591441922791105
 21
7.359009089148998
 31
0.0
  0
LINE
  5
2888
330
1E
100
AcDbEntity
  8
7
100
AcDbLine
 10
0.549008833027143
 20
7.355728006274983
 30
0.0
 11
0.5473682915901353
 21
7.359009089148998
 31
0.0
  0
LINE
  5
2893
330
1E
100
AcDbEntity
  8
7
100
AcDbLine
 10
0.9279739049759605
 20
7.41970912231829
 30
0.0
 11
0.9279739049759605
 21
7.421349663755298
 31
0.0
  0
LINE
  5
2894
330
1E
100
AcDbEntity
  8
7
100
AcDbLine
 10
0.9591441922791105
 20
7.390179376452149
 30
0.0
 11
0.9591441922791105
 21
7.386898293578133
 31
0.0
  0
LINE
  5
2895
330
1E
100
AcDbEntity
  8
7
100
AcDbLine
 10
0.5473682915901353
 20
7.386898293578133
 30
0.0
 11
0.5473682915901353
 21
7.390179376452149
 31
0.0
  0
LINE
  5
2896
330
1E
100
AcDbEntity
  8
7
100
AcDbLine
 10
0.5785385788932836
 20
7.421349663755298
 30
0.0
 11
0.5785385788932836
 21
7.41970912231829
 31
0.0
  0
LINE
  5
2897
330
1E
100
AcDbEntity
  8
7
100
AcDbLine
 10
0.5785385788932831
 20
5.547851342692306
 30
0.0
 11
0.5785385788932831
 21
5.546210801255297
 31
0.0
  0
LINE
  5
2898
330
1E
100
AcDbEntity
  8
7
100
AcDbLine
 10
0.5473682915901348
 20
5.577381088558447
 30
0.0
 11
0.5473682915901348
 21
5.579021629995455
 31
0.0
  0
LINE
  5
2899
330
1E
100
AcDbEntity
  8
7
100
AcDbLine
 10
0.9591441922791101
 20
5.579021629995455
 30
0.0
 11
0.9591441922791101
 21
5.577381088558447
 31
0.0
  0
LINE
  5
289A
330
1E
100
AcDbEntity
  8
7
100
AcDbLine
 10
0.9279739049759601
 20
5.546210801255297
 30
0.0
 11
0.9279739049759601
 21
5.547851342692306
 31
0.0
  0
LINE
  5
289B
330
1E
100
AcDbEntity
  8
7
100
AcDbLine
 10
0.9033657834208419
 20
6.42390047005451
 30
0.0
 11
0.905006324857851
 21
6.42390047005451
 31
0.0
  0
LINE
  5
28A1
330
1E
100
AcDbEntity
  8
7
100
AcDbLine
 10
0.6031467004484022
 20
6.543659994956086
 30
0.0
 11
0.6015061590113949
 21
6.543659994956086
 31
0.0
  0
LINE
  5
28C1
330
1E
100
AcDbEntity
  8
7
100
AcDbLine
 10
0.8295414187554882
 20
6.42390047005451
 30
0.0
 11
0.8295414187554882
 21
6.543659994956086
 31
0.0
  0
LINE
  5
28CC
330
1E
100
AcDbEntity
  8
7
100
AcDbLine
 10
0.6769710651137562
 20
6.42390047005451
 30
0.0
 11
0.6769710651137562
 21
6.543659994956086
 31
0.0
  0
LINE
  5
28CD
330
1E
100
AcDbEntity
  8
7
100
AcDbLine
 10
0.8295414187554882
 20
6.543659994956086
 30
0.0
 11
0.8213387115704495
 21
6.576470823696243
 31
0.0
  0
LINE
  5
28D7
330
1E
100
AcDbEntity
  8
7
100
AcDbLine
 10
0.6769710651137562
 20
6.42390047005451
 30
0.0
 11
0.6769710651137562
 21
6.543659994956086
 31
0.0
  0
LINE
  5
28D8
330
1E
100
AcDbEntity
  8
7
100
AcDbLine
 10
0.8295414187554882
 20
6.42390047005451
 30
0.0
 11
0.8295414187554882
 21
6.543659994956086
 31
0.0
  0
LINE
  5
28D9
330
1E
100
AcDbEntity
  8
7
100
AcDbLine
 10
0.6933764794838356
 20
6.589595155192306
 30
0.0
 11
0.6868143137358041
 21
6.579751906570258
 31
0.0
  0
LINE
  5
28DA
330
1E
100
AcDbEntity
  8
7
100
AcDbLine
 10
0.8213387115704495
 20
6.579751906570258
 30
0.0
 11
0.813136004385409
 21
6.589595155192306
 31
0.0
  0
LINE
  5
28EA
330
1E
100
AcDbEntity
  8
7
100
AcDbLine
 10
0.813136004385409
 20
6.37796530981829
 30
0.0
 11
0.8213387115704495
 21
6.387808558440338
 31
0.0
  0
LINE
  5
28EB
330
1E
100
AcDbEntity
  8
7
100
AcDbLine
 10
0.6868143137358041
 20
6.387808558440338
 30
0.0
 11
0.6933764794838356
 21
6.37796530981829
 31
0.0
  0
LINE
  5
28F1
330
1E
100
AcDbEntity
  8
7
100
AcDbLine
 10
0.8213387115704495
 20
6.387808558440338
 30
0.0
 11
0.8213387115704495
 21
6.579751906570258
 31
0.0
  0
LINE
  5
28F2
330
1E
100
AcDbEntity
  8
7
100
AcDbLine
 10
0.813136004385409
 20
6.589595155192306
 30
0.0
 11
0.813136004385409
 21
6.37796530981829
 31
0.0
  0
LINE
  5
28F3
330
1E
100
AcDbEntity
  8
7
100
AcDbLine
 10
0.6868143137358041
 20
6.387808558440338
 30
0.0
 11
0.6868143137358041
 21
6.579751906570258
 31
0.0
  0
LINE
  5
28F4
330
1E
100
AcDbEntity
  8
7
100
AcDbLine
 10
0.6933764794838356
 20
6.589595155192306
 30
0.0
 11
0.6933764794838356
 21
6.37796530981829
 31
0.0
  0
LINE
  5
28F5
330
1E
100
AcDbEntity
  8
7
100
AcDbLine
 10
4.094218878401157
 20
6.589595155192306
 30
0.0
 11
4.067970215409031
 21
6.610922193873407
 31
0.0
  0
LINE
  5
2903
330
1E
100
AcDbEntity
  8
7
100
AcDbLine
 10
3.882589033027142
 20
6.42390047005451
 30
0.0
 11
3.882589033027142
 21
6.543659994956085
 31
0.0
  0
LINE
  5
2911
330
1E
100
AcDbEntity
  8
7
100
AcDbLine
 10
4.186089198873598
 20
6.543659994956085
 30
0.0
 11
4.186089198873598
 21
6.42390047005451
 31
0.0
  0
LINE
  5
2924
330
1E
100
AcDbEntity
  8
7
100
AcDbLine
 10
3.83009170704289
 20
7.355728006274983
 30
0.0
 11
4.240227066294859
 21
7.355728006274983
 31
0.0
  0
LINE
  5
292A
330
1E
100
AcDbEntity
  8
7
100
AcDbLine
 10
4.240227066294859
 20
5.610191917298604
 30
0.0
 11
4.240227066294859
 21
5.608551375861596
 31
0.0
  0
LINE
  5
2930
330
1E
100
AcDbEntity
  8
7
100
AcDbLine
 10
4.209056778991709
 20
5.547851342692305
 30
0.0
 11
3.859621452909031
 21
5.547851342692306
 31
0.0
  0
LINE
  5
2936
330
1E
100
AcDbEntity
  8
7
100
AcDbLine
 10
4.240227066294859
 20
5.608551375861596
 30
0.0
 11
4.240227066294859
 21
5.579021629995454
 31
0.0
  0
LINE
  5
2937
330
1E
100
AcDbEntity
  8
7
100
AcDbLine
 10
3.828451165605881
 20
5.579021629995454
 30
0.0
 11
3.828451165605881
 21
5.608551375861596
 31
0.0
  0
LINE
  5
2938
330
1E
100
AcDbEntity
  8
7
100
AcDbLine
 10
3.83009170704289
 20
7.355728006274983
 30
0.0
 11
3.828451165605881
 21
7.359009089148998
 31
0.0
  0
LINE
  5
2939
330
1E
100
AcDbEntity
  8
7
100
AcDbLine
 10
4.240227066294859
 20
7.355728006274983
 30
0.0
 11
4.240227066294859
 21
7.359009089148998
 31
0.0
  0
LINE
  5
293A
330
1E
100
AcDbEntity
  8
7
100
AcDbLine
 10
4.240227066294859
 20
7.386898293578132
 30
0.0
 11
4.240227066294859
 21
7.359009089148998
 31
0.0
  0
LINE
  5
2940
330
1E
100
AcDbEntity
  8
7
100
AcDbLine
 10
3.859621452909031
 20
7.41970912231829
 30
0.0
 11
4.209056778991709
 21
7.41970912231829
 31
0.0
  0
LINE
  5
2946
330
1E
100
AcDbEntity
  8
7
100
AcDbLine
 10
3.828451165605881
 20
7.359009089148998
 30
0.0
 11
3.828451165605881
 21
7.386898293578132
 31
0.0
  0
LINE
  5
2947
330
1E
100
AcDbEntity
  8
7
100
AcDbLine
 10
3.828451165605881
 20
7.390179376452148
 30
0.0
 11
3.828451165605881
 21
7.386898293578132
 31
0.0
  0
LINE
  5
2948
330
1E
100
AcDbEntity
  8
7
100
AcDbLine
 10
3.859621452909031
 20
7.41970912231829
 30
0.0
 11
3.859621452909031
 21
7.421349663755298
 31
0.0
  0
LINE
  5
2949
330
1E
100
AcDbEntity
  8
7
100
AcDbLine
 10
4.209056778991709
 20
7.421349663755298
 30
0.0
 11
4.209056778991709
 21
7.41970912231829
 31
0.0
  0
LINE
  5
294A
330
1E
100
AcDbEntity
  8
7
100
AcDbLine
 10
4.240227066294859
 20
7.386898293578132
 30
0.0
 11
4.240227066294859
 21
7.390179376452148
 31
0.0
  0
LINE
  5
294B
330
1E
100
AcDbEntity
  8
7
100
AcDbLine
 10
4.240227066294859
 20
5.577381088558446
 30
0.0
 11
4.240227066294859
 21
5.579021629995454
 31
0.0
  0
LINE
  5
294C
330
1E
100
AcDbEntity
  8
7
100
AcDbLine
 10
4.209056778991709
 20
5.547851342692305
 30
0.0
 11
4.209056778991709
 21
5.546210801255297
 31
0.0
  0
LINE
  5
294D
330
1E
100
AcDbEntity
  8
7
100
AcDbLine
 10
3.859621452909031
 20
5.546210801255297
 30
0.0
 11
3.859621452909031
 21
5.547851342692306
 31
0.0
  0
LINE
  5
294E
330
1E
100
AcDbEntity
  8
7
100
AcDbLine
 10
3.828451165605881
 20
5.579021629995454
 30
0.0
 11
3.828451165605881
 21
5.577381088558447
 31
0.0
  0
LINE
  5
294F
330
1E
100
AcDbEntity
  8
7
100
AcDbLine
 10
3.88422957446415
 20
6.42390047005451
 30
0.0
 11
3.882589033027142
 21
6.42390047005451
 31
0.0
  0
LINE
  5
2950
330
1E
100
AcDbEntity
  8
7
100
AcDbLine
 10
3.88422957446415
 20
6.543659994956085
 30
0.0
 11
3.88422957446415
 21
6.42390047005451
 31
0.0
  0
LINE
  5
2951
330
1E
100
AcDbEntity
  8
7
100
AcDbLine
 10
3.882589033027142
 20
6.543659994956085
 30
0.0
 11
3.88422957446415
 21
6.543659994956085
 31
0.0
  0
LINE
  5
2952
330
1E
100
AcDbEntity
  8
7
100
AcDbLine
 10
4.184448657436591
 20
6.543659994956085
 30
0.0
 11
4.186089198873598
 21
6.543659994956085
 31
0.0
  0
LINE
  5
2953
330
1E
100
AcDbEntity
  8
7
100
AcDbLine
 10
4.184448657436591
 20
6.42390047005451
 30
0.0
 11
4.184448657436591
 21
6.543659994956085
 31
0.0
  0
LINE
  5
2954
330
1E
100
AcDbEntity
  8
7
100
AcDbLine
 10
4.186089198873598
 20
6.42390047005451
 30
0.0
 11
4.184448657436591
 21
6.42390047005451
 31
0.0
  0
LINE
  5
2975
330
1E
100
AcDbEntity
  8
7
100
AcDbLine
 10
3.958053939129503
 20
6.42390047005451
 30
0.0
 11
3.958053939129503
 21
6.543659994956085
 31
0.0
  0
LINE
  5
2983
330
1E
100
AcDbEntity
  8
7
100
AcDbLine
 10
4.110624292771237
 20
6.42390047005451
 30
0.0
 11
4.110624292771237
 21
6.543659994956085
 31
0.0
  0
LINE
  5
2991
330
1E
100
AcDbEntity
  8
7
100
AcDbLine
 10
4.110624292771237
 20
6.42390047005451
 30
0.0
 11
4.110624292771237
 21
6.543659994956085
 31
0.0
  0
LINE
  5
2992
330
1E
100
AcDbEntity
  8
7
100
AcDbLine
 10
3.958053939129503
 20
6.42390047005451
 30
0.0
 11
3.958053939129503
 21
6.543659994956085
 31
0.0
  0
LINE
  5
2993
330
1E
100
AcDbEntity
  8
7
100
AcDbLine
 10
4.094218878401157
 20
6.589595155192306
 30
0.0
 11
4.102421585586197
 21
6.579751906570258
 31
0.0
  0
LINE
  5
299E
330
1E
100
AcDbEntity
  8
7
100
AcDbLine
 10
3.967897187751551
 20
6.579751906570258
 30
0.0
 11
3.974459353499583
 21
6.589595155192306
 31
0.0
  0
LINE
  5
29A4
330
1E
100
AcDbEntity
  8
7
100
AcDbLine
 10
4.102421585586197
 20
6.387808558440337
 30
0.0
 11
4.094218878401157
 21
6.377965309818289
 31
0.0
  0
LINE
  5
29A5
330
1E
100
AcDbEntity
  8
7
100
AcDbLine
 10
3.974459353499583
 20
6.377965309818289
 30
0.0
 11
3.967897187751551
 21
6.387808558440337
 31
0.0
  0
LINE
  5
29AB
330
1E
100
AcDbEntity
  8
7
100
AcDbLine
 10
3.967897187751551
 20
6.387808558440337
 30
0.0
 11
3.967897187751551
 21
6.579751906570258
 31
0.0
  0
LINE
  5
29AC
330
1E
100
AcDbEntity
  8
7
100
AcDbLine
 10
3.974459353499583
 20
6.589595155192306
 30
0.0
 11
3.974459353499583
 21
6.377965309818289
 31
0.0
  0
LINE
  5
29AD
330
1E
100
AcDbEntity
  8
7
100
AcDbLine
 10
4.102421585586197
 20
6.387808558440337
 30
0.0
 11
4.102421585586197
 21
6.579751906570258
 31
0.0
  0
LINE
  5
29AE
330
1E
100
AcDbEntity
  8
7
100
AcDbLine
 10
4.094218878401157
 20
6.589595155192306
 30
0.0
 11
4.094218878401157
 21
6.377965309818289
 31
0.0
  0
LINE
  5
29AF
330
1E
100
AcDbEntity
  8
7
100
AcDbLine
 10
2.145255651235803
 20
6.018686735113565
 30
0.0
 11
2.148536734109818
 21
6.03837323235766
 31
0.0
  0
LINE
  5
29B0
330
1E
100
AcDbEntity
  8
7
100
AcDbLine
 10
1.987763673283048
 20
6.018686735113565
 30
0.0
 11
2.145255651235803
 21
6.018686735113565
 31
0.0
  0
LINE
  5
29B1
330
1E
100
AcDbEntity
  8
7
100
AcDbLine
 10
1.987763673283048
 20
6.018686735113565
 30
0.0
 11
1.984482590409031
 21
6.03837323235766
 31
0.0
  0
LINE
  5
29B7
330
1E
100
AcDbEntity
  8
7
100
AcDbLine
 10
2.356885496609818
 20
6.002281320743486
 30
0.0
 11
1.77613382790903
 21
6.002281320743486
 31
0.0
  0
LINE
  5
29B8
330
1E
100
AcDbEntity
  8
7
100
AcDbLine
 10
2.356885496609818
 20
6.040013773794668
 30
0.0
 11
2.150177275546827
 21
6.040013773794668
 31
0.0
  0
LINE
  5
29B9
330
1E
100
AcDbEntity
  8
7
100
AcDbLine
 10
2.148536734109818
 20
6.03837323235766
 30
0.0
 11
2.150177275546827
 21
6.040013773794668
 31
0.0
  0
LINE
  5
29BA
330
1E
100
AcDbEntity
  8
7
100
AcDbLine
 10
2.639058623775174
 20
6.079386768282857
 30
0.0
 11
2.642339706649188
 21
6.079386768282857
 31
0.0
  0
LINE
  5
29BB
330
1E
100
AcDbEntity
  8
7
100
AcDbLine
 10
2.145255651235803
 20
6.079386768282857
 30
0.0
 11
2.148536734109818
 21
6.079386768282857
 31
0.0
  0
LINE
  5
29BC
330
1E
100
AcDbEntity
  8
7
100
AcDbLine
 10
2.148536734109818
 20
6.079386768282857
 30
0.0
 11
2.150177275546827
 21
6.079386768282857
 31
0.0
  0
LINE
  5
29BD
330
1E
100
AcDbEntity
  8
7
100
AcDbLine
 10
2.356885496609818
 20
6.079386768282857
 30
0.0
 11
2.150177275546827
 21
6.079386768282857
 31
0.0
  0
LINE
  5
29BE
330
1E
100
AcDbEntity
  8
7
100
AcDbLine
 10
2.639058623775174
 20
6.079386768282857
 30
0.0
 11
2.430709861275174
 21
6.079386768282857
 31
0.0
  0
LINE
  5
29BF
330
1E
100
AcDbEntity
  8
7
100
AcDbLine
 10
2.799831684601945
 20
6.079386768282857
 30
0.0
 11
2.804753308912968
 21
6.079386768282857
 31
0.0
  0
LINE
  5
29C0
330
1E
100
AcDbEntity
  8
7
100
AcDbLine
 10
3.013102071412968
 20
6.079386768282857
 30
0.0
 11
2.804753308912968
 21
6.079386768282857
 31
0.0
  0
LINE
  5
29C1
330
1E
100
AcDbEntity
  8
7
100
AcDbLine
 10
2.804753308912968
 20
6.051497563853722
 30
0.0
 11
2.804753308912968
 21
6.079386768282857
 31
0.0
  0
LINE
  5
29C2
330
1E
100
AcDbEntity
  8
7
100
AcDbLine
 10
2.804753308912968
 20
6.051497563853722
 30
0.0
 11
3.013102071412968
 21
6.051497563853722
 31
0.0
  0
LINE
  5
29C3
330
1E
100
AcDbEntity
  8
7
100
AcDbLine
 10
2.804753308912968
 20
6.040013773794667
 30
0.0
 11
2.804753308912968
 21
6.051497563853722
 31
0.0
  0
LINE
  5
29C4
330
1E
100
AcDbEntity
  8
7
100
AcDbLine
 10
3.013102071412968
 20
6.040013773794667
 30
0.0
 11
2.804753308912968
 21
6.040013773794667
 31
0.0
  0
LINE
  5
29C5
330
1E
100
AcDbEntity
  8
7
100
AcDbLine
 10
2.150177275546827
 20
6.051497563853723
 30
0.0
 11
2.150177275546827
 21
6.079386768282857
 31
0.0
  0
LINE
  5
29C6
330
1E
100
AcDbEntity
  8
7
100
AcDbLine
 10
2.150177275546827
 20
6.051497563853723
 30
0.0
 11
2.356885496609818
 21
6.051497563853723
 31
0.0
  0
LINE
  5
29C7
330
1E
100
AcDbEntity
  8
7
100
AcDbLine
 10
2.150177275546827
 20
6.040013773794668
 30
0.0
 11
2.150177275546827
 21
6.051497563853723
 31
0.0
  0
LINE
  5
29C8
330
1E
100
AcDbEntity
  8
7
100
AcDbLine
 10
1.77613382790903
 20
6.361559895448211
 30
0.0
 11
1.77613382790903
 21
5.903848834523014
 31
0.0
  0
LINE
  5
29C9
330
1E
100
AcDbEntity
  8
7
100
AcDbLine
 10
2.356885496609818
 20
6.361559895448211
 30
0.0
 11
2.356885496609818
 21
5.903848834523014
 31
0.0
  0
LINE
  5
29CA
330
1E
100
AcDbEntity
  8
7
100
AcDbLine
 10
2.430709861275174
 20
6.361559895448211
 30
0.0
 11
2.430709861275174
 21
5.903848834523014
 31
0.0
  0
LINE
  5
29CB
330
1E
100
AcDbEntity
  8
7
100
AcDbLine
 10
3.013102071412968
 20
6.361559895448211
 30
0.0
 11
3.013102071412968
 21
5.903848834523014
 31
0.0
  0
LINE
  5
29CC
330
1E
100
AcDbEntity
  8
7
100
AcDbLine
 10
3.047553441590134
 20
6.548581619267109
 30
0.0
 11
3.0820048117673
 21
7.06371163048758
 31
0.0
  0
LINE
  5
29D3
330
1E
100
AcDbEntity
  8
7
100
AcDbLine
 10
2.430709861275174
 20
5.903848834523014
 30
0.0
 11
3.013102071412968
 21
5.903848834523014
 31
0.0
  0
LINE
  5
29D4
330
1E
100
AcDbEntity
  8
7
100
AcDbLine
 10
2.430709861275174
 20
6.361559895448211
 30
0.0
 11
3.013102071412968
 21
6.361559895448211
 31
0.0
  0
LINE
  5
29D5
330
1E
100
AcDbEntity
  8
7
100
AcDbLine
 10
1.77613382790903
 20
5.903848834523014
 30
0.0
 11
2.356885496609818
 21
5.903848834523014
 31
0.0
  0
LINE
  5
29D6
330
1E
100
AcDbEntity
  8
7
100
AcDbLine
 10
1.77613382790903
 20
6.361559895448211
 30
0.0
 11
2.356885496609818
 21
6.361559895448211
 31
0.0
  0
LINE
  5
29EA
330
1E
100
AcDbEntity
  8
7
100
AcDbLine
 10
1.77613382790903
 20
5.925175873204117
 30
0.0
 11
2.356885496609818
 21
5.925175873204117
 31
0.0
  0
LINE
  5
29EB
330
1E
100
AcDbEntity
  8
7
100
AcDbLine
 10
2.356885496609818
 20
5.941581287574195
 30
0.0
 11
1.77613382790903
 21
5.941581287574195
 31
0.0
  0
LINE
  5
29EC
330
1E
100
AcDbEntity
  8
7
100
AcDbLine
 10
2.430709861275174
 20
5.925175873204117
 30
0.0
 11
3.013102071412968
 21
5.925175873204116
 31
0.0
  0
LINE
  5
29ED
330
1E
100
AcDbEntity
  8
7
100
AcDbLine
 10
3.013102071412968
 20
5.941581287574195
 30
0.0
 11
2.430709861275174
 21
5.941581287574195
 31
0.0
  0
LINE
  5
2A15
330
1E
100
AcDbEntity
  8
7
100
AcDbLine
 10
1.656374303007456
 20
6.458351840231675
 30
0.0
 11
1.648171595822417
 21
6.482959961786794
 31
0.0
  0
LINE
  5
2A27
330
1E
100
AcDbEntity
  8
7
100
AcDbLine
 10
3.165672425054701
 20
6.025248900861596
 30
0.0
 11
3.168953507928716
 21
6.067902978223802
 31
0.0
  0
LINE
  5
2A36
330
1E
100
AcDbEntity
  8
7
100
AcDbLine
 10
3.168953507928716
 20
6.898016945349786
 30
0.0
 11
3.165672425054701
 21
6.942311564148998
 31
0.0
  0
LINE
  5
2A7D
330
1E
100
AcDbEntity
  8
7
100
AcDbLine
 10
3.013102071412968
 20
6.002281320743486
 30
0.0
 11
2.430709861275174
 21
6.002281320743486
 31
0.0
  0
LINE
  5
2A7E
330
1E
100
AcDbEntity
  8
7
100
AcDbLine
 10
2.804753308912968
 20
6.03837323235766
 30
0.0
 11
2.804753308912968
 21
6.040013773794667
 31
0.0
  0
LINE
  5
2A7F
330
1E
100
AcDbEntity
  8
7
100
AcDbLine
 10
2.799831684601945
 20
6.018686735113565
 30
0.0
 11
2.804753308912968
 21
6.03837323235766
 31
0.0
  0
LINE
  5
2A85
330
1E
100
AcDbEntity
  8
7
100
AcDbLine
 10
2.643980248086197
 20
6.079386768282857
 30
0.0
 11
2.642339706649188
 21
6.079386768282857
 31
0.0
  0
LINE
  5
2A86
330
1E
100
AcDbEntity
  8
7
100
AcDbLine
 10
2.799831684601945
 20
6.079386768282857
 30
0.0
 11
2.643980248086197
 21
6.079386768282857
 31
0.0
  0
LINE
  5
2A87
330
1E
100
AcDbEntity
  8
7
100
AcDbLine
 10
1.989404214720055
 20
6.079386768282857
 30
0.0
 11
1.987763673283048
 21
6.079386768282857
 31
0.0
  0
LINE
  5
2A88
330
1E
100
AcDbEntity
  8
7
100
AcDbLine
 10
2.143615109798796
 20
6.079386768282857
 30
0.0
 11
1.989404214720055
 21
6.079386768282857
 31
0.0
  0
LINE
  5
2A89
330
1E
100
AcDbEntity
  8
7
100
AcDbLine
 10
2.145255651235803
 20
6.079386768282857
 30
0.0
 11
2.143615109798796
 21
6.079386768282857
 31
0.0
  0
LINE
  5
2A8A
330
1E
100
AcDbEntity
  8
7
100
AcDbLine
 10
2.639058623775174
 20
6.051497563853723
 30
0.0
 11
2.639058623775174
 21
6.040013773794668
 31
0.0
  0
LINE
  5
2A8B
330
1E
100
AcDbEntity
  8
7
100
AcDbLine
 10
1.982842048972023
 20
6.051497563853723
 30
0.0
 11
1.982842048972023
 21
6.040013773794668
 31
0.0
  0
LINE
  5
2A8C
330
1E
100
AcDbEntity
  8
7
100
AcDbLine
 10
2.148536734109818
 20
6.03837323235766
 30
0.0
 11
2.148536734109818
 21
6.079386768282857
 31
0.0
  0
LINE
  5
2A8D
330
1E
100
AcDbEntity
  8
7
100
AcDbLine
 10
1.984482590409031
 20
6.03837323235766
 30
0.0
 11
1.984482590409031
 21
6.079386768282857
 31
0.0
  0
LINE
  5
2A93
330
1E
100
AcDbEntity
  8
7
100
AcDbLine
 10
2.639058623775174
 20
6.036732690920652
 30
0.0
 11
2.639058623775174
 21
6.079386768282857
 31
0.0
  0
LINE
  5
2A94
330
1E
100
AcDbEntity
  8
7
100
AcDbLine
 10
2.143615109798796
 20
6.02196781798758
 30
0.0
 11
2.143615109798796
 21
6.079386768282857
 31
0.0
  0
LINE
  5
2A95
330
1E
100
AcDbEntity
  8
7
100
AcDbLine
 10
2.148536734109818
 20
6.03837323235766
 30
0.0
 11
2.143615109798796
 21
6.02196781798758
 31
0.0
  0
LINE
  5
2A9B
330
1E
100
AcDbEntity
  8
7
100
AcDbLine
 10
1.987763673283048
 20
6.018686735113565
 30
0.0
 11
1.989404214720055
 21
6.02196781798758
 31
0.0
  0
LINE
  5
2A9C
330
1E
100
AcDbEntity
  8
7
100
AcDbLine
 10
2.145255651235803
 20
6.018686735113565
 30
0.0
 11
2.143615109798796
 21
6.02196781798758
 31
0.0
  0
LINE
  5
2A9D
330
1E
100
AcDbEntity
  8
7
100
AcDbLine
 10
2.799831684601945
 20
6.079386768282857
 30
0.0
 11
2.799831684601945
 21
6.02196781798758
 31
0.0
  0
LINE
  5
2A9E
330
1E
100
AcDbEntity
  8
7
100
AcDbLine
 10
2.804753308912968
 20
6.03837323235766
 30
0.0
 11
2.799831684601945
 21
6.02196781798758
 31
0.0
  0
LINE
  5
2A9F
330
1E
100
AcDbEntity
  8
7
100
AcDbLine
 10
2.639058623775174
 20
6.036732690920652
 30
0.0
 11
2.643980248086197
 21
6.02196781798758
 31
0.0
  0
LINE
  5
2AA0
330
1E
100
AcDbEntity
  8
7
100
AcDbLine
 10
2.643980248086197
 20
6.079386768282857
 30
0.0
 11
2.643980248086197
 21
6.02196781798758
 31
0.0
  0
LINE
  5
2AA1
330
1E
100
AcDbEntity
  8
7
100
AcDbLine
 10
2.643980248086197
 20
6.018686735113565
 30
0.0
 11
2.643980248086197
 21
6.02196781798758
 31
0.0
  0
LINE
  5
2AA2
330
1E
100
AcDbEntity
  8
7
100
AcDbLine
 10
2.799831684601945
 20
6.018686735113565
 30
0.0
 11
2.799831684601945
 21
6.02196781798758
 31
0.0
  0
LINE
  5
2AA3
330
1E
100
AcDbEntity
  8
7
100
AcDbLine
 10
3.045912900153124
 20
2.977122910900967
 30
0.0
 11
1.740041916294858
 21
2.977122910900967
 31
0.0
  0
LINE
  5
2AC1
330
1E
100
AcDbEntity
  8
7
100
AcDbLine
 10
4.551929939326354
 20
2.37176312064506
 30
0.0
 11
4.550289397889345
 21
2.373403662082068
 31
0.0
  0
LINE
  5
2AC2
330
1E
100
AcDbEntity
  8
7
100
AcDbLine
 10
2.430709861275173
 20
2.63589029200333
 30
0.0
 11
2.471723397200369
 21
2.63589029200333
 31
0.0
  0
LINE
  5
2AC3
330
1E
100
AcDbEntity
  8
7
100
AcDbLine
 10
2.471723397200369
 20
2.662138954995456
 30
0.0
 11
2.471723397200369
 21
2.63589029200333
 31
0.0
  0
LINE
  5
2AC4
330
1E
100
AcDbEntity
  8
7
100
AcDbLine
 10
2.471723397200369
 20
2.662138954995456
 30
0.0
 11
2.430709861275173
 21
2.662138954995456
 31
0.0
  0
LINE
  5
2AC5
330
1E
100
AcDbEntity
  8
7
100
AcDbLine
 10
2.471723397200369
 20
2.632609209129314
 30
0.0
 11
2.430709861275173
 21
2.632609209129314
 31
0.0
  0
LINE
  5
2AD0
330
1E
100
AcDbEntity
  8
7
100
AcDbLine
 10
2.430709861275173
 20
2.67362274505451
 30
0.0
 11
2.471723397200369
 21
2.67362274505451
 31
0.0
  0
LINE
  5
2AD1
330
1E
100
AcDbEntity
  8
7
100
AcDbLine
 10
1.774493286472022
 20
2.63589029200333
 30
0.0
 11
1.815506822397219
 21
2.63589029200333
 31
0.0
  0
LINE
  5
2AD2
330
1E
100
AcDbEntity
  8
7
100
AcDbLine
 10
1.815506822397219
 20
2.662138954995456
 30
0.0
 11
1.815506822397219
 21
2.63589029200333
 31
0.0
  0
LINE
  5
2AD3
330
1E
100
AcDbEntity
  8
7
100
AcDbLine
 10
1.815506822397219
 20
2.662138954995456
 30
0.0
 11
1.774493286472022
 21
2.662138954995456
 31
0.0
  0
LINE
  5
2AD4
330
1E
100
AcDbEntity
  8
7
100
AcDbLine
 10
1.815506822397219
 20
2.632609209129314
 30
0.0
 11
1.774493286472022
 21
2.632609209129314
 31
0.0
  0
LINE
  5
2ADF
330
1E
100
AcDbEntity
  8
7
100
AcDbLine
 10
1.774493286472022
 20
2.67362274505451
 30
0.0
 11
1.815506822397219
 21
2.67362274505451
 31
0.0
  0
LINE
  5
2AE0
330
1E
100
AcDbEntity
  8
7
100
AcDbLine
 10
0.3718303578302917
 20
2.417698280881282
 30
0.0
 11
4.415765000054701
 21
2.417698280881282
 31
0.0
  0
LINE
  5
2AE8
330
1E
100
AcDbEntity
  8
7
100
AcDbLine
 10
0.1437950980861973
 20
2.14208731946396
 30
0.0
 11
0.1470761809602123
 21
2.204427894070257
 31
0.0
  0
LINE
  5
2AEF
330
1E
100
AcDbEntity
  8
7
100
AcDbLine
 10
4.614270513932653
 20
2.142087319463959
 30
0.0
 11
4.583100226629502
 21
2.142087319463959
 31
0.0
  0
LINE
  5
2AFD
330
1E
100
AcDbEntity
  8
7
100
AcDbLine
 10
0.1470761809602123
 20
2.204427894070257
 30
0.0
 11
0.1536383467082438
 21
2.252003595743487
 31
0.0
  0
LINE
  5
2B0E
330
1E
100
AcDbEntity
  8
7
100
AcDbLine
 10
4.579819143755488
 20
2.204427894070256
 30
0.0
 11
4.574897519444464
 21
2.252003595743486
 31
0.0
  0
LINE
  5
2B1E
330
1E
100
AcDbEntity
  8
7
100
AcDbLine
 10
4.579819143755488
 20
2.204427894070256
 30
0.0
 11
4.610989431058637
 21
2.206068435507265
 31
0.0
  0
LINE
  5
2B24
330
1E
100
AcDbEntity
  8
7
100
AcDbLine
 10
1.774493286472022
 20
2.893455297613566
 30
0.0
 11
1.774493286472022
 21
2.435744236688369
 31
0.0
  0
LINE
  5
2B25
330
1E
100
AcDbEntity
  8
7
100
AcDbLine
 10
2.356885496609817
 20
2.893455297613566
 30
0.0
 11
2.356885496609817
 21
2.435744236688369
 31
0.0
  0
LINE
  5
2B26
330
1E
100
AcDbEntity
  8
7
100
AcDbLine
 10
2.430709861275173
 20
2.893455297613566
 30
0.0
 11
2.430709861275173
 21
2.435744236688369
 31
0.0
  0
LINE
  5
2B27
330
1E
100
AcDbEntity
  8
7
100
AcDbLine
 10
3.01146152997596
 20
2.893455297613566
 30
0.0
 11
3.01146152997596
 21
2.435744236688369
 31
0.0
  0
LINE
  5
2B28
330
1E
100
AcDbEntity
  8
7
100
AcDbLine
 10
3.01146152997596
 20
2.86720663462144
 30
0.0
 11
2.430709861275173
 21
2.86720663462144
 31
0.0
  0
LINE
  5
2B29
330
1E
100
AcDbEntity
  8
7
100
AcDbLine
 10
3.01146152997596
 20
2.863925551747424
 30
0.0
 11
2.430709861275173
 21
2.863925551747424
 31
0.0
  0
LINE
  5
2B2A
330
1E
100
AcDbEntity
  8
7
100
AcDbLine
 10
3.01146152997596
 20
2.729401153912778
 30
0.0
 11
2.430709861275173
 21
2.729401153912778
 31
0.0
  0
LINE
  5
2B2B
330
1E
100
AcDbEntity
  8
7
100
AcDbLine
 10
3.01146152997596
 20
2.717917363853723
 30
0.0
 11
2.430709861275173
 21
2.717917363853723
 31
0.0
  0
LINE
  5
2B31
330
1E
100
AcDbEntity
  8
7
100
AcDbLine
 10
2.970447994050763
 20
2.67362274505451
 30
0.0
 11
2.970447994050763
 21
2.683465993676557
 31
0.0
  0
LINE
  5
2B32
330
1E
100
AcDbEntity
  8
7
100
AcDbLine
 10
2.970447994050763
 20
2.67362274505451
 30
0.0
 11
3.01146152997596
 21
2.67362274505451
 31
0.0
  0
LINE
  5
2B39
330
1E
100
AcDbEntity
  8
7
100
AcDbLine
 10
2.356885496609817
 20
2.86720663462144
 30
0.0
 11
1.774493286472022
 21
2.86720663462144
 31
0.0
  0
LINE
  5
2B3A
330
1E
100
AcDbEntity
  8
7
100
AcDbLine
 10
2.356885496609817
 20
2.863925551747424
 30
0.0
 11
1.774493286472022
 21
2.863925551747424
 31
0.0
  0
LINE
  5
2B3B
330
1E
100
AcDbEntity
  8
7
100
AcDbLine
 10
2.356885496609817
 20
2.729401153912778
 30
0.0
 11
1.774493286472022
 21
2.729401153912778
 31
0.0
  0
LINE
  5
2B3C
330
1E
100
AcDbEntity
  8
7
100
AcDbLine
 10
2.356885496609817
 20
2.717917363853723
 30
0.0
 11
1.774493286472022
 21
2.717917363853723
 31
0.0
  0
LINE
  5
2B42
330
1E
100
AcDbEntity
  8
7
100
AcDbLine
 10
2.315871960684621
 20
2.67362274505451
 30
0.0
 11
2.315871960684621
 21
2.683465993676557
 31
0.0
  0
LINE
  5
2B43
330
1E
100
AcDbEntity
  8
7
100
AcDbLine
 10
2.315871960684621
 20
2.67362274505451
 30
0.0
 11
2.356885496609817
 21
2.67362274505451
 31
0.0
  0
LINE
  5
2B4A
330
1E
100
AcDbEntity
  8
7
100
AcDbLine
 10
2.430709861275173
 20
2.435744236688369
 30
0.0
 11
3.01146152997596
 21
2.435744236688369
 31
0.0
  0
LINE
  5
2B4B
330
1E
100
AcDbEntity
  8
7
100
AcDbLine
 10
2.430709861275173
 20
2.893455297613566
 30
0.0
 11
3.01146152997596
 21
2.893455297613566
 31
0.0
  0
LINE
  5
2B4C
330
1E
100
AcDbEntity
  8
7
100
AcDbLine
 10
1.774493286472022
 20
2.435744236688369
 30
0.0
 11
2.356885496609817
 21
2.435744236688369
 31
0.0
  0
LINE
  5
2B4D
330
1E
100
AcDbEntity
  8
7
100
AcDbLine
 10
1.774493286472022
 20
2.893455297613566
 30
0.0
 11
2.356885496609817
 21
2.893455297613566
 31
0.0
  0
LINE
  5
2B58
330
1E
100
AcDbEntity
  8
7
100
AcDbLine
 10
3.139423762062574
 20
2.891814756176557
 30
0.0
 11
3.167312966491708
 21
2.475117231176557
 31
0.0
  0
LINE
  5
2B59
330
1E
100
AcDbEntity
  8
7
100
AcDbLine
 10
1.618641849956274
 20
2.475117231176557
 30
0.0
 11
1.648171595822416
 21
2.891814756176557
 31
0.0
  0
LINE
  5
2B5A
330
1E
100
AcDbEntity
  8
7
100
AcDbLine
 10
1.774493286472022
 20
2.870487717495456
 30
0.0
 11
2.356885496609817
 21
2.870487717495456
 31
0.0
  0
LINE
  5
2B5B
330
1E
100
AcDbEntity
  8
7
100
AcDbLine
 10
2.430709861275173
 20
2.870487717495456
 30
0.0
 11
3.01146152997596
 21
2.870487717495456
 31
0.0
  0
LINE
  5
2B5C
330
1E
100
AcDbEntity
  8
7
100
AcDbLine
 10
3.121377806255487
 20
2.040373750369471
 30
0.0
 11
3.121377806255487
 21
2.14208731946396
 31
0.0
  0
LINE
  5
2B62
330
1E
100
AcDbEntity
  8
7
100
AcDbLine
 10
3.121377806255487
 20
2.01084400450333
 30
0.0
 11
1.664577010192495
 21
2.01084400450333
 31
0.0
  0
LINE
  5
2B63
330
1E
100
AcDbEntity
  8
7
100
AcDbLine
 10
1.654733761570448
 20
2.040373750369471
 30
0.0
 11
1.654733761570448
 21
2.14208731946396
 31
0.0
  0
LINE
  5
2B6F
330
1E
100
AcDbEntity
  8
7
100
AcDbLine
 10
2.356885496609817
 20
2.632609209129314
 30
0.0
 11
2.315871960684621
 21
2.632609209129314
 31
0.0
  0
LINE
  5
2B70
330
1E
100
AcDbEntity
  8
7
100
AcDbLine
 10
2.315871960684621
 20
2.642452457751361
 30
0.0
 11
1.815506822397219
 21
2.642452457751361
 31
0.0
  0
LINE
  5
2B71
330
1E
100
AcDbEntity
  8
7
100
AcDbLine
 10
2.970447994050763
 20
2.642452457751361
 30
0.0
 11
2.471723397200369
 21
2.642452457751361
 31
0.0
  0
LINE
  5
2B72
330
1E
100
AcDbEntity
  8
7
100
AcDbLine
 10
3.01146152997596
 20
2.632609209129314
 30
0.0
 11
2.970447994050763
 21
2.632609209129314
 31
0.0
  0
LINE
  5
42FA
330
1E
100
AcDbEntity
  8
7
100
AcDbLine
 10
2.315871960684621
 20
2.662138954995456
 30
0.0
 11
2.315871960684621
 21
2.667060579306478
 31
0.0
  0
LINE
  5
42FB
330
1E
100
AcDbEntity
  8
7
100
AcDbLine
 10
2.315871960684621
 20
2.667060579306478
 30
0.0
 11
2.315871960684621
 21
2.67362274505451
 31
0.0
  0
LINE
  5
42FC
330
1E
100
AcDbEntity
  8
7
100
AcDbLine
 10
2.970447994050763
 20
2.662138954995456
 30
0.0
 11
2.970447994050763
 21
2.667060579306478
 31
0.0
  0
LINE
  5
42FD
330
1E
100
AcDbEntity
  8
7
100
AcDbLine
 10
2.970447994050763
 20
2.667060579306478
 30
0.0
 11
2.970447994050763
 21
2.67362274505451
 31
0.0
  0
LINE
  5
42FE
330
1E
100
AcDbEntity
  8
7
100
AcDbLine
 10
2.315871960684621
 20
2.632609209129314
 30
0.0
 11
2.315871960684621
 21
2.634249750566321
 31
0.0
  0
LINE
  5
42FF
330
1E
100
AcDbEntity
  8
7
100
AcDbLine
 10
2.315871960684621
 20
2.634249750566321
 30
0.0
 11
2.315871960684621
 21
2.63589029200333
 31
0.0
  0
LINE
  5
4300
330
1E
100
AcDbEntity
  8
7
100
AcDbLine
 10
2.970447994050763
 20
2.632609209129314
 30
0.0
 11
2.970447994050763
 21
2.634249750566321
 31
0.0
  0
LINE
  5
4301
330
1E
100
AcDbEntity
  8
7
100
AcDbLine
 10
2.970447994050763
 20
2.634249750566321
 30
0.0
 11
2.970447994050763
 21
2.63589029200333
 31
0.0
  0
LINE
  5
4302
330
1E
100
AcDbEntity
  8
7
100
AcDbLine
 10
1.654733761570448
 20
2.040373750369471
 30
0.0
 11
1.658014844444463
 21
2.040373750369471
 31
0.0
  0
LINE
  5
4303
330
1E
100
AcDbEntity
  8
7
100
AcDbLine
 10
1.658014844444463
 20
2.040373750369471
 30
0.0
 11
1.664577010192495
 21
2.040373750369471
 31
0.0
  0
LINE
  5
4304
330
1E
100
AcDbEntity
  8
7
100
AcDbLine
 10
1.654733761570448
 20
2.022327794562383
 30
0.0
 11
1.658014844444463
 21
2.015765628814352
 31
0.0
  0
LINE
  5
4305
330
1E
100
AcDbEntity
  8
7
100
AcDbLine
 10
1.658014844444463
 20
2.015765628814352
 30
0.0
 11
1.664577010192495
 21
2.012484545940337
 31
0.0
  0
LINE
  5
4306
330
1E
100
AcDbEntity
  8
7
100
AcDbLine
 10
3.121377806255487
 20
2.012484545940337
 30
0.0
 11
3.127939972003519
 21
2.015765628814352
 31
0.0
  0
LINE
  5
4307
330
1E
100
AcDbEntity
  8
7
100
AcDbLine
 10
3.127939972003519
 20
2.015765628814352
 30
0.0
 11
3.131221054877534
 21
2.022327794562383
 31
0.0
  0
LINE
  5
4308
330
1E
100
AcDbEntity
  8
7
100
AcDbLine
 10
3.132861596314543
 20
2.040373750369471
 30
0.0
 11
3.129580513440526
 21
2.040373750369471
 31
0.0
  0
LINE
  5
4309
330
1E
100
AcDbEntity
  8
7
100
AcDbLine
 10
3.129580513440526
 20
2.040373750369471
 30
0.0
 11
3.121377806255487
 21
2.040373750369471
 31
0.0
  0
LINE
  5
430A
330
1E
100
AcDbEntity
  8
7
100
AcDbLine
 10
1.664577010192495
 20
2.040373750369471
 30
0.0
 11
1.664577010192495
 21
2.019046711688369
 31
0.0
  0
LINE
  5
430B
330
1E
100
AcDbEntity
  8
7
100
AcDbLine
 10
1.664577010192495
 20
2.019046711688369
 30
0.0
 11
1.664577010192495
 21
2.01084400450333
 31
0.0
  0
LINE
  5
430C
330
1E
100
AcDbEntity
  8
7
100
AcDbLine
 10
3.121377806255487
 20
2.01084400450333
 30
0.0
 11
3.121377806255487
 21
2.019046711688369
 31
0.0
  0
LINE
  5
430D
330
1E
100
AcDbEntity
  8
7
100
AcDbLine
 10
3.121377806255487
 20
2.019046711688369
 30
0.0
 11
3.121377806255487
 21
2.040373750369471
 31
0.0
  0
LINE
  5
430E
330
1E
100
AcDbEntity
  8
7
100
AcDbLine
 10
3.082004811767299
 20
2.435744236688369
 30
0.0
 11
3.082004811767299
 21
2.422619905192306
 31
0.0
  0
LINE
  5
430F
330
1E
100
AcDbEntity
  8
7
100
AcDbLine
 10
3.082004811767299
 20
2.422619905192306
 30
0.0
 11
3.082004811767299
 21
2.417698280881282
 31
0.0
  0
LINE
  5
4310
330
1E
100
AcDbEntity
  8
7
100
AcDbLine
 10
3.167312966491708
 20
2.475117231176557
 30
0.0
 11
3.177156215113754
 21
2.445587485310415
 31
0.0
  0
LINE
  5
4311
330
1E
100
AcDbEntity
  8
7
100
AcDbLine
 10
3.177156215113754
 20
2.445587485310415
 30
0.0
 11
3.200123795231865
 21
2.425900988066321
 31
0.0
  0
LINE
  5
4312
330
1E
100
AcDbEntity
  8
7
100
AcDbLine
 10
3.200123795231865
 20
2.425900988066321
 30
0.0
 11
3.229653541098008
 21
2.417698280881282
 31
0.0
  0
LINE
  5
4313
330
1E
100
AcDbEntity
  8
7
100
AcDbLine
 10
1.703950004680684
 20
2.435744236688369
 30
0.0
 11
1.703950004680684
 21
2.422619905192306
 31
0.0
  0
LINE
  5
4314
330
1E
100
AcDbEntity
  8
7
100
AcDbLine
 10
1.703950004680684
 20
2.422619905192306
 30
0.0
 11
1.703950004680684
 21
2.417698280881282
 31
0.0
  0
LINE
  5
4315
330
1E
100
AcDbEntity
  8
7
100
AcDbLine
 10
1.556301275349976
 20
2.417698280881282
 30
0.0
 11
1.585831021216117
 21
2.425900988066321
 31
0.0
  0
LINE
  5
4316
330
1E
100
AcDbEntity
  8
7
100
AcDbLine
 10
1.585831021216117
 20
2.425900988066321
 30
0.0
 11
1.608798601334227
 21
2.445587485310415
 31
0.0
  0
LINE
  5
4317
330
1E
100
AcDbEntity
  8
7
100
AcDbLine
 10
1.608798601334227
 20
2.445587485310415
 30
0.0
 11
1.618641849956274
 21
2.475117231176557
 31
0.0
  0
LINE
  5
4318
330
1E
100
AcDbEntity
  8
7
100
AcDbLine
 10
3.045912900153124
 20
2.950874247908841
 30
0.0
 11
3.080364270330291
 21
2.947593165034827
 31
0.0
  0
LINE
  5
4319
330
1E
100
AcDbEntity
  8
7
100
AcDbLine
 10
3.080364270330291
 20
2.947593165034827
 30
0.0
 11
3.109894016196432
 21
2.934468833538763
 31
0.0
  0
LINE
  5
431A
330
1E
100
AcDbEntity
  8
7
100
AcDbLine
 10
3.109894016196432
 20
2.934468833538763
 30
0.0
 11
3.131221054877534
 21
2.914782336294669
 31
0.0
  0
LINE
  5
431B
330
1E
100
AcDbEntity
  8
7
100
AcDbLine
 10
3.131221054877534
 20
2.914782336294669
 30
0.0
 11
3.139423762062574
 21
2.891814756176557
 31
0.0
  0
LINE
  5
431C
330
1E
100
AcDbEntity
  8
7
100
AcDbLine
 10
3.082004811767299
 20
2.435744236688369
 30
0.0
 11
3.104972391885408
 21
2.437384778125376
 31
0.0
  0
LINE
  5
431D
330
1E
100
AcDbEntity
  8
7
100
AcDbLine
 10
3.104972391885408
 20
2.437384778125376
 30
0.0
 11
3.126299430566511
 21
2.440665860999392
 31
0.0
  0
LINE
  5
431E
330
1E
100
AcDbEntity
  8
7
100
AcDbLine
 10
3.126299430566511
 20
2.440665860999392
 30
0.0
 11
3.144345386373597
 21
2.447228026747424
 31
0.0
  0
LINE
  5
431F
330
1E
100
AcDbEntity
  8
7
100
AcDbLine
 10
3.144345386373597
 20
2.447228026747424
 30
0.0
 11
3.15746971786966
 21
2.455430733932463
 31
0.0
  0
LINE
  5
4320
330
1E
100
AcDbEntity
  8
7
100
AcDbLine
 10
3.15746971786966
 20
2.455430733932463
 30
0.0
 11
3.1656724250547
 21
2.465273982554509
 31
0.0
  0
LINE
  5
4321
330
1E
100
AcDbEntity
  8
7
100
AcDbLine
 10
3.1656724250547
 20
2.465273982554509
 30
0.0
 11
3.167312966491708
 21
2.475117231176557
 31
0.0
  0
LINE
  5
4322
330
1E
100
AcDbEntity
  8
7
100
AcDbLine
 10
1.659655385881471
 20
2.440665860999392
 30
0.0
 11
1.680982424562574
 21
2.437384778125376
 31
0.0
  0
LINE
  5
4323
330
1E
100
AcDbEntity
  8
7
100
AcDbLine
 10
1.680982424562574
 20
2.437384778125376
 30
0.0
 11
1.703950004680684
 21
2.435744236688369
 31
0.0
  0
LINE
  5
4324
330
1E
100
AcDbEntity
  8
7
100
AcDbLine
 10
1.618641849956274
 20
2.475117231176557
 30
0.0
 11
1.62192293283029
 21
2.465273982554509
 31
0.0
  0
LINE
  5
4325
330
1E
100
AcDbEntity
  8
7
100
AcDbLine
 10
1.62192293283029
 20
2.465273982554509
 30
0.0
 11
1.628485098578322
 21
2.455430733932463
 31
0.0
  0
LINE
  5
4326
330
1E
100
AcDbEntity
  8
7
100
AcDbLine
 10
1.628485098578322
 20
2.455430733932463
 30
0.0
 11
1.643249971511393
 21
2.447228026747424
 31
0.0
  0
LINE
  5
4327
330
1E
100
AcDbEntity
  8
7
100
AcDbLine
 10
1.643249971511393
 20
2.447228026747424
 30
0.0
 11
1.659655385881471
 21
2.440665860999392
 31
0.0
  0
LINE
  5
4328
330
1E
100
AcDbEntity
  8
7
100
AcDbLine
 10
1.740041916294858
 20
2.950874247908841
 30
0.0
 11
1.705590546117691
 21
2.947593165034827
 31
0.0
  0
LINE
  5
4329
330
1E
100
AcDbEntity
  8
7
100
AcDbLine
 10
1.705590546117691
 20
2.947593165034827
 30
0.0
 11
1.67606080025155
 21
2.934468833538763
 31
0.0
  0
LINE
  5
432A
330
1E
100
AcDbEntity
  8
7
100
AcDbLine
 10
1.67606080025155
 20
2.934468833538763
 30
0.0
 11
1.656374303007456
 21
2.914782336294669
 31
0.0
  0
LINE
  5
432B
330
1E
100
AcDbEntity
  8
7
100
AcDbLine
 10
1.656374303007456
 20
2.914782336294669
 30
0.0
 11
1.648171595822416
 21
2.891814756176557
 31
0.0
  0
LINE
  5
432C
330
1E
100
AcDbEntity
  8
7
100
AcDbLine
 10
3.045912900153124
 20
2.950874247908841
 30
0.0
 11
3.045912900153124
 21
2.970560745152935
 31
0.0
  0
LINE
  5
432D
330
1E
100
AcDbEntity
  8
7
100
AcDbLine
 10
3.045912900153124
 20
2.970560745152935
 30
0.0
 11
3.045912900153124
 21
2.977122910900967
 31
0.0
  0
LINE
  5
432E
330
1E
100
AcDbEntity
  8
7
100
AcDbLine
 10
1.740041916294858
 20
2.977122910900967
 30
0.0
 11
1.740041916294858
 21
2.970560745152935
 31
0.0
  0
LINE
  5
432F
330
1E
100
AcDbEntity
  8
7
100
AcDbLine
 10
1.740041916294858
 20
2.970560745152935
 30
0.0
 11
1.740041916294858
 21
2.950874247908841
 31
0.0
  0
LINE
  5
4330
330
1E
100
AcDbEntity
  8
7
100
AcDbLine
 10
3.132861596314543
 20
2.14208731946396
 30
0.0
 11
3.132861596314543
 21
2.040373750369471
 31
0.0
  0
LINE
  5
4331
330
1E
100
AcDbEntity
  8
7
100
AcDbLine
 10
3.132861596314543
 20
2.040373750369471
 30
0.0
 11
3.132861596314543
 21
2.027249418873408
 31
0.0
  0
LINE
  5
4332
330
1E
100
AcDbEntity
  8
7
100
AcDbLine
 10
3.132861596314543
 20
2.027249418873408
 30
0.0
 11
3.132861596314543
 21
2.022327794562383
 31
0.0
  0
LINE
  5
4333
330
1E
100
AcDbEntity
  8
7
100
AcDbLine
 10
1.654733761570448
 20
2.022327794562383
 30
0.0
 11
1.654733761570448
 21
2.027249418873408
 31
0.0
  0
LINE
  5
4334
330
1E
100
AcDbEntity
  8
7
100
AcDbLine
 10
1.654733761570448
 20
2.027249418873408
 30
0.0
 11
1.654733761570448
 21
2.040373750369471
 31
0.0
  0
LINE
  5
4335
330
1E
100
AcDbEntity
  8
7
100
AcDbLine
 10
1.664577010192495
 20
2.14208731946396
 30
0.0
 11
1.664577010192495
 21
2.040373750369471
 31
0.0
  0
LINE
  5
4336
330
1E
100
AcDbEntity
  8
7
100
AcDbLine
 10
1.664577010192495
 20
2.040373750369471
 30
0.0
 11
3.121377806255487
 21
2.040373750369471
 31
0.0
  0
LINE
  5
4337
330
1E
100
AcDbEntity
  8
7
100
AcDbLine
 10
3.082004811767299
 20
2.435744236688369
 30
0.0
 11
3.045912900153124
 21
2.950874247908841
 31
0.0
  0
LINE
  5
4338
330
1E
100
AcDbEntity
  8
7
100
AcDbLine
 10
3.045912900153124
 20
2.950874247908841
 30
0.0
 11
1.740041916294858
 21
2.950874247908841
 31
0.0
  0
LINE
  5
4339
330
1E
100
AcDbEntity
  8
7
100
AcDbLine
 10
1.740041916294858
 20
2.950874247908841
 30
0.0
 11
1.703950004680684
 21
2.435744236688369
 31
0.0
  0
LINE
  5
433A
330
1E
100
AcDbEntity
  8
7
100
AcDbLine
 10
1.703950004680684
 20
2.435744236688369
 30
0.0
 11
3.082004811767299
 21
2.435744236688369
 31
0.0
  0
LINE
  5
433B
330
1E
100
AcDbEntity
  8
7
100
AcDbLine
 10
2.356885496609817
 20
2.662138954995456
 30
0.0
 11
2.315871960684621
 21
2.662138954995456
 31
0.0
  0
LINE
  5
433C
330
1E
100
AcDbEntity
  8
7
100
AcDbLine
 10
2.315871960684621
 20
2.662138954995456
 30
0.0
 11
2.315871960684621
 21
2.63589029200333
 31
0.0
  0
LINE
  5
433D
330
1E
100
AcDbEntity
  8
7
100
AcDbLine
 10
2.315871960684621
 20
2.63589029200333
 30
0.0
 11
2.356885496609817
 21
2.63589029200333
 31
0.0
  0
LINE
  5
433E
330
1E
100
AcDbEntity
  8
7
100
AcDbLine
 10
1.815506822397219
 20
2.67362274505451
 30
0.0
 11
1.815506822397219
 21
2.683465993676557
 31
0.0
  0
LINE
  5
433F
330
1E
100
AcDbEntity
  8
7
100
AcDbLine
 10
1.815506822397219
 20
2.683465993676557
 30
0.0
 11
2.315871960684621
 21
2.683465993676557
 31
0.0
  0
LINE
  5
4340
330
1E
100
AcDbEntity
  8
7
100
AcDbLine
 10
3.01146152997596
 20
2.662138954995456
 30
0.0
 11
2.970447994050763
 21
2.662138954995456
 31
0.0
  0
LINE
  5
4341
330
1E
100
AcDbEntity
  8
7
100
AcDbLine
 10
2.970447994050763
 20
2.662138954995456
 30
0.0
 11
2.970447994050763
 21
2.63589029200333
 31
0.0
  0
LINE
  5
4342
330
1E
100
AcDbEntity
  8
7
100
AcDbLine
 10
2.970447994050763
 20
2.63589029200333
 30
0.0
 11
3.01146152997596
 21
2.63589029200333
 31
0.0
  0
LINE
  5
4343
330
1E
100
AcDbEntity
  8
7
100
AcDbLine
 10
2.471723397200369
 20
2.67362274505451
 30
0.0
 11
2.471723397200369
 21
2.683465993676557
 31
0.0
  0
LINE
  5
4344
330
1E
100
AcDbEntity
  8
7
100
AcDbLine
 10
2.471723397200369
 20
2.683465993676557
 30
0.0
 11
2.970447994050763
 21
2.683465993676557
 31
0.0
  0
LINE
  5
4345
330
1E
100
AcDbEntity
  8
7
100
AcDbLine
 10
4.610989431058637
 20
2.206068435507265
 30
0.0
 11
4.632316469739739
 21
2.206068435507265
 31
0.0
  0
LINE
  5
4346
330
1E
100
AcDbEntity
  8
7
100
AcDbLine
 10
4.632316469739739
 20
2.206068435507265
 30
0.0
 11
4.640519176924779
 21
2.204427894070256
 31
0.0
  0
LINE
  5
4347
330
1E
100
AcDbEntity
  8
7
100
AcDbLine
 10
0.1470761809602123
 20
2.204427894070257
 30
0.0
 11
0.1552788881452516
 21
2.206068435507266
 31
0.0
  0
LINE
  5
4348
330
1E
100
AcDbEntity
  8
7
100
AcDbLine
 10
0.1552788881452516
 20
2.206068435507266
 30
0.0
 11
0.1766059268263547
 21
2.206068435507266
 31
0.0
  0
LINE
  5
4349
330
1E
100
AcDbEntity
  8
7
100
AcDbLine
 10
0.1766059268263547
 20
2.206068435507266
 30
0.0
 11
0.2061356726924957
 21
2.204427894070257
 31
0.0
  0
LINE
  5
434A
330
1E
100
AcDbEntity
  8
7
100
AcDbLine
 10
4.574897519444464
 20
2.252003595743486
 30
0.0
 11
4.561773187948401
 21
2.297938755979707
 31
0.0
  0
LINE
  5
434B
330
1E
100
AcDbEntity
  8
7
100
AcDbLine
 10
4.561773187948401
 20
2.297938755979707
 30
0.0
 11
4.542086690704307
 21
2.338952291904903
 31
0.0
  0
LINE
  5
434C
330
1E
100
AcDbEntity
  8
7
100
AcDbLine
 10
4.542086690704307
 20
2.338952291904903
 30
0.0
 11
4.51583802771218
 21
2.371763120645061
 31
0.0
  0
LINE
  5
434D
330
1E
100
AcDbEntity
  8
7
100
AcDbLine
 10
4.51583802771218
 20
2.371763120645061
 30
0.0
 11
4.48466774040903
 21
2.39637124220018
 31
0.0
  0
LINE
  5
434E
330
1E
100
AcDbEntity
  8
7
100
AcDbLine
 10
4.48466774040903
 20
2.39637124220018
 30
0.0
 11
4.451856911668873
 21
2.412776656570257
 31
0.0
  0
LINE
  5
434F
330
1E
100
AcDbEntity
  8
7
100
AcDbLine
 10
4.451856911668873
 20
2.412776656570257
 30
0.0
 11
4.415765000054701
 21
2.417698280881282
 31
0.0
  0
LINE
  5
4350
330
1E
100
AcDbEntity
  8
7
100
AcDbLine
 10
0.3718303578302917
 20
2.417698280881282
 30
0.0
 11
0.3357384462161179
 21
2.412776656570257
 31
0.0
  0
LINE
  5
4351
330
1E
100
AcDbEntity
  8
7
100
AcDbLine
 10
0.3357384462161179
 20
2.412776656570257
 30
0.0
 11
0.3012870760389532
 21
2.39637124220018
 31
0.0
  0
LINE
  5
4352
330
1E
100
AcDbEntity
  8
7
100
AcDbLine
 10
0.3012870760389532
 20
2.39637124220018
 30
0.0
 11
0.2717573301728104
 21
2.371763120645061
 31
0.0
  0
LINE
  5
4353
330
1E
100
AcDbEntity
  8
7
100
AcDbLine
 10
0.2717573301728104
 20
2.371763120645061
 30
0.0
 11
0.2455086671806845
 21
2.338952291904904
 31
0.0
  0
LINE
  5
4354
330
1E
100
AcDbEntity
  8
7
100
AcDbLine
 10
0.2455086671806845
 20
2.338952291904904
 30
0.0
 11
0.2258221699365901
 21
2.297938755979708
 31
0.0
  0
LINE
  5
4355
330
1E
100
AcDbEntity
  8
7
100
AcDbLine
 10
0.2258221699365901
 20
2.297938755979708
 30
0.0
 11
0.2126978384405271
 21
2.252003595743487
 31
0.0
  0
LINE
  5
4356
330
1E
100
AcDbEntity
  8
7
100
AcDbLine
 10
0.2126978384405271
 20
2.252003595743487
 30
0.0
 11
0.2061356726924957
 21
2.204427894070257
 31
0.0
  0
LINE
  5
4357
330
1E
100
AcDbEntity
  8
7
100
AcDbLine
 10
0.1536383467082438
 20
2.252003595743487
 30
0.0
 11
0.1716843025153309
 21
2.297938755979708
 31
0.0
  0
LINE
  5
4358
330
1E
100
AcDbEntity
  8
7
100
AcDbLine
 10
0.1716843025153309
 20
2.297938755979708
 30
0.0
 11
0.1995735069444642
 21
2.337311750467896
 31
0.0
  0
LINE
  5
4359
330
1E
100
AcDbEntity
  8
7
100
AcDbLine
 10
0.1995735069444642
 20
2.337311750467896
 30
0.0
 11
0.2340248771216293
 21
2.371763120645061
 31
0.0
  0
LINE
  5
435A
330
1E
100
AcDbEntity
  8
7
100
AcDbLine
 10
4.553570480763362
 20
2.37176312064506
 30
0.0
 11
4.588021850940527
 21
2.337311750467895
 31
0.0
  0
LINE
  5
435B
330
1E
100
AcDbEntity
  8
7
100
AcDbLine
 10
4.588021850940527
 20
2.337311750467895
 30
0.0
 11
4.614270513932653
 21
2.297938755979707
 31
0.0
  0
LINE
  5
435C
330
1E
100
AcDbEntity
  8
7
100
AcDbLine
 10
4.614270513932653
 20
2.297938755979707
 30
0.0
 11
4.632316469739739
 21
2.252003595743486
 31
0.0
  0
LINE
  5
435D
330
1E
100
AcDbEntity
  8
7
100
AcDbLine
 10
4.632316469739739
 20
2.252003595743486
 30
0.0
 11
4.640519176924779
 21
2.204427894070256
 31
0.0
  0
LINE
  5
435E
330
1E
100
AcDbEntity
  8
7
100
AcDbLine
 10
0.2028545898184806
 20
2.14208731946396
 30
0.0
 11
0.1733248439523383
 21
2.14208731946396
 31
0.0
  0
LINE
  5
435F
330
1E
100
AcDbEntity
  8
7
100
AcDbLine
 10
0.1733248439523383
 20
2.14208731946396
 30
0.0
 11
0.1519978052712361
 21
2.14208731946396
 31
0.0
  0
LINE
  5
4360
330
1E
100
AcDbEntity
  8
7
100
AcDbLine
 10
0.1519978052712361
 20
2.14208731946396
 30
0.0
 11
0.1437950980861973
 21
2.14208731946396
 31
0.0
  0
LINE
  5
4361
330
1E
100
AcDbEntity
  8
7
100
AcDbLine
 10
4.640519176924779
 20
2.204427894070256
 30
0.0
 11
4.643800259798795
 21
2.142087319463959
 31
0.0
  0
LINE
  5
4362
330
1E
100
AcDbEntity
  8
7
100
AcDbLine
 10
4.643800259798795
 20
2.142087319463959
 30
0.0
 11
4.635597552613754
 21
2.142087319463959
 31
0.0
  0
LINE
  5
4363
330
1E
100
AcDbEntity
  8
7
100
AcDbLine
 10
4.635597552613754
 20
2.142087319463959
 30
0.0
 11
4.614270513932653
 21
2.142087319463959
 31
0.0
  0
LINE
  5
4364
330
1E
100
AcDbEntity
  8
7
100
AcDbLine
 10
4.579819143755488
 20
2.204427894070256
 30
0.0
 11
0.2061356726924957
 21
2.204427894070257
 31
0.0
  0
LINE
  5
4365
330
1E
100
AcDbEntity
  8
7
100
AcDbLine
 10
0.2061356726924957
 20
2.204427894070257
 30
0.0
 11
0.2028545898184806
 21
2.14208731946396
 31
0.0
  0
LINE
  5
4366
330
1E
100
AcDbEntity
  8
7
100
AcDbLine
 10
0.2028545898184806
 20
2.14208731946396
 30
0.0
 11
4.583100226629502
 21
2.142087319463959
 31
0.0
  0
LINE
  5
4367
330
1E
100
AcDbEntity
  8
7
100
AcDbLine
 10
4.583100226629502
 20
2.142087319463959
 30
0.0
 11
4.579819143755488
 21
2.204427894070256
 31
0.0
  0
LINE
  5
4368
330
1E
100
AcDbEntity
  8
7
100
AcDbLine
 10
1.815506822397219
 20
2.67362274505451
 30
0.0
 11
1.815506822397219
 21
2.667060579306478
 31
0.0
  0
LINE
  5
4369
330
1E
100
AcDbEntity
  8
7
100
AcDbLine
 10
1.815506822397219
 20
2.667060579306478
 30
0.0
 11
1.815506822397219
 21
2.662138954995456
 31
0.0
  0
LINE
  5
436A
330
1E
100
AcDbEntity
  8
7
100
AcDbLine
 10
1.815506822397219
 20
2.63589029200333
 30
0.0
 11
1.815506822397219
 21
2.634249750566321
 31
0.0
  0
LINE
  5
436B
330
1E
100
AcDbEntity
  8
7
100
AcDbLine
 10
1.815506822397219
 20
2.634249750566321
 30
0.0
 11
1.815506822397219
 21
2.632609209129314
 31
0.0
  0
LINE
  5
436C
330
1E
100
AcDbEntity
  8
7
100
AcDbLine
 10
2.471723397200369
 20
2.67362274505451
 30
0.0
 11
2.471723397200369
 21
2.667060579306478
 31
0.0
  0
LINE
  5
436D
330
1E
100
AcDbEntity
  8
7
100
AcDbLine
 10
2.471723397200369
 20
2.667060579306478
 30
0.0
 11
2.471723397200369
 21
2.662138954995456
 31
0.0
  0
LINE
  5
436E
330
1E
100
AcDbEntity
  8
7
100
AcDbLine
 10
2.471723397200369
 20
2.63589029200333
 30
0.0
 11
2.471723397200369
 21
2.634249750566321
 31
0.0
  0
LINE
  5
436F
330
1E
100
AcDbEntity
  8
7
100
AcDbLine
 10
2.471723397200369
 20
2.634249750566321
 30
0.0
 11
2.471723397200369
 21
2.632609209129314
 31
0.0
  0
LINE
  5
4370
330
1E
100
AcDbEntity
  8
7
100
AcDbLine
 10
0.3012870760389532
 20
2.406214490822226
 30
0.0
 11
0.2668357058617881
 21
2.391449617889156
 31
0.0
  0
LINE
  5
4371
330
1E
100
AcDbEntity
  8
7
100
AcDbLine
 10
0.2668357058617881
 20
2.391449617889156
 30
0.0
 11
0.2340248771216293
 21
2.371763120645061
 31
0.0
  0
LINE
  5
4372
330
1E
100
AcDbEntity
  8
7
100
AcDbLine
 10
0.3718303578302917
 20
2.417698280881282
 30
0.0
 11
0.3357384462161179
 21
2.414417198007266
 31
0.0
  0
LINE
  5
4373
330
1E
100
AcDbEntity
  8
7
100
AcDbLine
 10
0.3357384462161179
 20
2.414417198007266
 30
0.0
 11
0.3012870760389532
 21
2.406214490822226
 31
0.0
  0
LINE
  5
4374
330
1E
100
AcDbEntity
  8
7
100
AcDbLine
 10
4.548648856452338
 20
2.375044203519077
 30
0.0
 11
4.520759652023205
 21
2.391449617889156
 31
0.0
  0
LINE
  5
4375
330
1E
100
AcDbEntity
  8
7
100
AcDbLine
 10
4.520759652023205
 20
2.391449617889156
 30
0.0
 11
4.48630828184604
 21
2.406214490822226
 31
0.0
  0
LINE
  5
4376
330
1E
100
AcDbEntity
  8
7
100
AcDbLine
 10
4.48630828184604
 20
2.406214490822226
 30
0.0
 11
4.450216370231865
 21
2.414417198007266
 31
0.0
  0
LINE
  5
4377
330
1E
100
AcDbEntity
  8
7
100
AcDbLine
 10
4.450216370231865
 20
2.414417198007266
 30
0.0
 11
4.415765000054701
 21
2.417698280881282
 31
0.0
  0
LINE
  5
4378
330
1E
100
AcDbEntity
  8
7
100
AcDbLine
 10
1.740041916294858
 20
2.977122910900967
 30
0.0
 11
1.695747297495644
 21
2.965639120841911
 31
0.0
  0
LINE
  5
4379
330
1E
100
AcDbEntity
  8
7
100
AcDbLine
 10
1.695747297495644
 20
2.965639120841911
 30
0.0
 11
1.662936468755487
 21
2.934468833538763
 31
0.0
  0
LINE
  5
437A
330
1E
100
AcDbEntity
  8
7
100
AcDbLine
 10
1.662936468755487
 20
2.934468833538763
 30
0.0
 11
1.648171595822416
 21
2.891814756176557
 31
0.0
  0
LINE
  5
437B
330
1E
100
AcDbEntity
  8
7
100
AcDbLine
 10
3.137783220625565
 20
2.891814756176557
 30
0.0
 11
3.123018347692495
 21
2.934468833538763
 31
0.0
  0
LINE
  5
437C
330
1E
100
AcDbEntity
  8
7
100
AcDbLine
 10
3.123018347692495
 20
2.934468833538763
 30
0.0
 11
3.090207518952338
 21
2.965639120841911
 31
0.0
  0
LINE
  5
437D
330
1E
100
AcDbEntity
  8
7
100
AcDbLine
 10
3.090207518952338
 20
2.965639120841911
 30
0.0
 11
3.045912900153124
 21
2.977122910900967
 31
0.0
  0
LINE
  5
437E
330
1E
100
AcDbEntity
  8
7
100
AcDbLine
 10
1.984482590409031
 20
6.03837323235766
 30
0.0
 11
1.989404214720055
 21
6.02196781798758
 31
0.0
  0
LINE
  5
437F
330
1E
100
AcDbEntity
  8
7
100
AcDbLine
 10
1.989404214720055
 20
6.02196781798758
 30
0.0
 11
1.989404214720055
 21
6.079386768282857
 31
0.0
  0
LINE
  5
4380
330
1E
100
AcDbEntity
  8
7
100
AcDbLine
 10
2.804753308912968
 20
6.079386768282857
 30
0.0
 11
2.804753308912968
 21
6.03837323235766
 31
0.0
  0
LINE
  5
4381
330
1E
100
AcDbEntity
  8
7
100
AcDbLine
 10
2.804753308912968
 20
6.03837323235766
 30
0.0
 11
2.804753308912968
 21
6.079386768282857
 31
0.0
  0
LINE
  5
4382
330
1E
100
AcDbEntity
  8
7
100
AcDbLine
 10
1.982842048972023
 20
6.079386768282857
 30
0.0
 11
1.984482590409031
 21
6.079386768282857
 31
0.0
  0
LINE
  5
4383
330
1E
100
AcDbEntity
  8
7
100
AcDbLine
 10
1.984482590409031
 20
6.079386768282857
 30
0.0
 11
1.987763673283048
 21
6.079386768282857
 31
0.0
  0
LINE
  5
4384
330
1E
100
AcDbEntity
  8
7
100
AcDbLine
 10
2.799831684601945
 20
6.018686735113565
 30
0.0
 11
2.643980248086197
 21
6.018686735113565
 31
0.0
  0
LINE
  5
4385
330
1E
100
AcDbEntity
  8
7
100
AcDbLine
 10
2.643980248086197
 20
6.018686735113565
 30
0.0
 11
2.639058623775174
 21
6.036732690920652
 31
0.0
  0
LINE
  5
4386
330
1E
100
AcDbEntity
  8
7
100
AcDbLine
 10
2.639058623775174
 20
6.036732690920652
 30
0.0
 11
2.639058623775174
 21
6.040013773794668
 31
0.0
  0
LINE
  5
4387
330
1E
100
AcDbEntity
  8
7
100
AcDbLine
 10
2.639058623775174
 20
6.040013773794668
 30
0.0
 11
2.430709861275174
 21
6.040013773794668
 31
0.0
  0
LINE
  5
4388
330
1E
100
AcDbEntity
  8
7
100
AcDbLine
 10
2.430709861275174
 20
6.051497563853723
 30
0.0
 11
2.639058623775174
 21
6.051497563853723
 31
0.0
  0
LINE
  5
4389
330
1E
100
AcDbEntity
  8
7
100
AcDbLine
 10
2.639058623775174
 20
6.051497563853723
 30
0.0
 11
2.639058623775174
 21
6.079386768282857
 31
0.0
  0
LINE
  5
438A
330
1E
100
AcDbEntity
  8
7
100
AcDbLine
 10
1.77613382790903
 20
6.051497563853723
 30
0.0
 11
1.982842048972023
 21
6.051497563853723
 31
0.0
  0
LINE
  5
438B
330
1E
100
AcDbEntity
  8
7
100
AcDbLine
 10
1.982842048972023
 20
6.051497563853723
 30
0.0
 11
1.982842048972023
 21
6.079386768282857
 31
0.0
  0
LINE
  5
438C
330
1E
100
AcDbEntity
  8
7
100
AcDbLine
 10
1.982842048972023
 20
6.079386768282857
 30
0.0
 11
1.77613382790903
 21
6.079386768282857
 31
0.0
  0
LINE
  5
438D
330
1E
100
AcDbEntity
  8
7
100
AcDbLine
 10
3.0820048117673
 20
5.903848834523014
 30
0.0
 11
3.0820048117673
 21
5.882521795841912
 31
0.0
  0
LINE
  5
438E
330
1E
100
AcDbEntity
  8
7
100
AcDbLine
 10
3.0820048117673
 20
5.882521795841912
 30
0.0
 11
3.0820048117673
 21
5.859554215723802
 31
0.0
  0
LINE
  5
438F
330
1E
100
AcDbEntity
  8
7
100
AcDbLine
 10
3.231294082535016
 20
6.067902978223802
 30
0.0
 11
3.201764336668873
 21
6.067902978223802
 31
0.0
  0
LINE
  5
4390
330
1E
100
AcDbEntity
  8
7
100
AcDbLine
 10
3.201764336668873
 20
6.067902978223802
 30
0.0
 11
3.178796756550764
 21
6.067902978223802
 31
0.0
  0
LINE
  5
4391
330
1E
100
AcDbEntity
  8
7
100
AcDbLine
 10
3.178796756550764
 20
6.067902978223802
 30
0.0
 11
3.168953507928716
 21
6.067902978223802
 31
0.0
  0
LINE
  5
4392
330
1E
100
AcDbEntity
  8
7
100
AcDbLine
 10
1.705590546117692
 20
5.903848834523014
 30
0.0
 11
1.705590546117692
 21
5.882521795841912
 31
0.0
  0
LINE
  5
4393
330
1E
100
AcDbEntity
  8
7
100
AcDbLine
 10
1.705590546117692
 20
5.882521795841912
 30
0.0
 11
1.705590546117692
 21
5.859554215723802
 31
0.0
  0
LINE
  5
4394
330
1E
100
AcDbEntity
  8
7
100
AcDbLine
 10
3.231294082535016
 20
6.898016945349786
 30
0.0
 11
3.201764336668873
 21
6.898016945349786
 31
0.0
  0
LINE
  5
4395
330
1E
100
AcDbEntity
  8
7
100
AcDbLine
 10
3.201764336668873
 20
6.898016945349786
 30
0.0
 11
3.178796756550764
 21
6.898016945349786
 31
0.0
  0
LINE
  5
4396
330
1E
100
AcDbEntity
  8
7
100
AcDbLine
 10
3.178796756550764
 20
6.898016945349786
 30
0.0
 11
3.168953507928716
 21
6.898016945349786
 31
0.0
  0
LINE
  5
4397
330
1E
100
AcDbEntity
  8
7
100
AcDbLine
 10
1.618641849956275
 20
6.067902978223802
 30
0.0
 11
1.610439142771237
 21
6.067902978223802
 31
0.0
  0
LINE
  5
4398
330
1E
100
AcDbEntity
  8
7
100
AcDbLine
 10
1.610439142771237
 20
6.067902978223802
 30
0.0
 11
1.587471562653125
 21
6.067902978223802
 31
0.0
  0
LINE
  5
4399
330
1E
100
AcDbEntity
  8
7
100
AcDbLine
 10
1.587471562653125
 20
6.067902978223802
 30
0.0
 11
1.556301275349976
 21
6.067902978223802
 31
0.0
  0
LINE
  5
439A
330
1E
100
AcDbEntity
  8
7
100
AcDbLine
 10
3.0820048117673
 20
7.108006249286794
 30
0.0
 11
3.0820048117673
 21
7.083398127731675
 31
0.0
  0
LINE
  5
439B
330
1E
100
AcDbEntity
  8
7
100
AcDbLine
 10
3.0820048117673
 20
7.083398127731675
 30
0.0
 11
3.0820048117673
 21
7.06371163048758
 31
0.0
  0
LINE
  5
439C
330
1E
100
AcDbEntity
  8
7
100
AcDbLine
 10
1.705590546117692
 20
7.108006249286794
 30
0.0
 11
1.705590546117692
 21
7.083398127731675
 31
0.0
  0
LINE
  5
439D
330
1E
100
AcDbEntity
  8
7
100
AcDbLine
 10
1.705590546117692
 20
7.083398127731675
 30
0.0
 11
1.705590546117692
 21
7.063711630487581
 31
0.0
  0
LINE
  5
439E
330
1E
100
AcDbEntity
  8
7
100
AcDbLine
 10
1.618641849956275
 20
6.898016945349786
 30
0.0
 11
1.610439142771237
 21
6.898016945349786
 31
0.0
  0
LINE
  5
439F
330
1E
100
AcDbEntity
  8
7
100
AcDbLine
 10
1.610439142771237
 20
6.898016945349786
 30
0.0
 11
1.587471562653125
 21
6.898016945349786
 31
0.0
  0
LINE
  5
43A0
330
1E
100
AcDbEntity
  8
7
100
AcDbLine
 10
1.587471562653125
 20
6.898016945349786
 30
0.0
 11
1.556301275349976
 21
6.898016945349786
 31
0.0
  0
LINE
  5
43A1
330
1E
100
AcDbEntity
  8
7
100
AcDbLine
 10
3.165672425054701
 20
6.942311564148998
 30
0.0
 11
3.15911025930667
 21
6.981684558637187
 31
0.0
  0
LINE
  5
43A2
330
1E
100
AcDbEntity
  8
7
100
AcDbLine
 10
3.15911025930667
 20
6.981684558637187
 30
0.0
 11
3.144345386373598
 21
7.016135928814353
 31
0.0
  0
LINE
  5
43A3
330
1E
100
AcDbEntity
  8
7
100
AcDbLine
 10
3.144345386373598
 20
7.016135928814353
 30
0.0
 11
3.127939972003519
 21
7.042384591806479
 31
0.0
  0
LINE
  5
43A4
330
1E
100
AcDbEntity
  8
7
100
AcDbLine
 10
3.127939972003519
 20
7.042384591806479
 30
0.0
 11
3.106612933322418
 21
7.058790006176558
 31
0.0
  0
LINE
  5
43A5
330
1E
100
AcDbEntity
  8
7
100
AcDbLine
 10
3.106612933322418
 20
7.058790006176558
 30
0.0
 11
3.0820048117673
 21
7.06371163048758
 31
0.0
  0
LINE
  5
43A6
330
1E
100
AcDbEntity
  8
7
100
AcDbLine
 10
3.047553441590134
 20
6.548581619267109
 30
0.0
 11
3.0820048117673
 21
6.543659994956085
 31
0.0
  0
LINE
  5
43A7
330
1E
100
AcDbEntity
  8
7
100
AcDbLine
 10
3.0820048117673
 20
6.543659994956085
 30
0.0
 11
3.11153455763344
 21
6.528895122023014
 31
0.0
  0
LINE
  5
43A8
330
1E
100
AcDbEntity
  8
7
100
AcDbLine
 10
3.11153455763344
 20
6.528895122023014
 30
0.0
 11
3.131221054877535
 21
6.507568083341912
 31
0.0
  0
LINE
  5
43A9
330
1E
100
AcDbEntity
  8
7
100
AcDbLine
 10
3.131221054877535
 20
6.507568083341912
 30
0.0
 11
3.139423762062575
 21
6.482959961786794
 31
0.0
  0
LINE
  5
43AA
330
1E
100
AcDbEntity
  8
7
100
AcDbLine
 10
3.047553441590134
 20
6.417338304306478
 30
0.0
 11
3.0820048117673
 21
6.42390047005451
 31
0.0
  0
LINE
  5
43AB
330
1E
100
AcDbEntity
  8
7
100
AcDbLine
 10
3.0820048117673
 20
6.42390047005451
 30
0.0
 11
3.11153455763344
 21
6.43866534298758
 31
0.0
  0
LINE
  5
43AC
330
1E
100
AcDbEntity
  8
7
100
AcDbLine
 10
3.11153455763344
 20
6.43866534298758
 30
0.0
 11
3.131221054877535
 21
6.458351840231675
 31
0.0
  0
LINE
  5
43AD
330
1E
100
AcDbEntity
  8
7
100
AcDbLine
 10
3.131221054877535
 20
6.458351840231675
 30
0.0
 11
3.139423762062575
 21
6.482959961786794
 31
0.0
  0
LINE
  5
43AE
330
1E
100
AcDbEntity
  8
7
100
AcDbLine
 10
3.0820048117673
 20
5.903848834523014
 30
0.0
 11
3.106612933322418
 21
5.908770458834037
 31
0.0
  0
LINE
  5
43AF
330
1E
100
AcDbEntity
  8
7
100
AcDbLine
 10
3.106612933322418
 20
5.908770458834037
 30
0.0
 11
3.127939972003519
 21
5.925175873204116
 31
0.0
  0
LINE
  5
43B0
330
1E
100
AcDbEntity
  8
7
100
AcDbLine
 10
3.127939972003519
 20
5.925175873204116
 30
0.0
 11
3.144345386373598
 21
5.949783994759235
 31
0.0
  0
LINE
  5
43B1
330
1E
100
AcDbEntity
  8
7
100
AcDbLine
 10
3.144345386373598
 20
5.949783994759235
 30
0.0
 11
3.15911025930667
 21
5.9842353649364
 31
0.0
  0
LINE
  5
43B2
330
1E
100
AcDbEntity
  8
7
100
AcDbLine
 10
3.15911025930667
 20
5.9842353649364
 30
0.0
 11
3.165672425054701
 21
6.025248900861596
 31
0.0
  0
LINE
  5
43B3
330
1E
100
AcDbEntity
  8
7
100
AcDbLine
 10
1.618641849956275
 20
6.067902978223802
 30
0.0
 11
1.621922932830291
 21
6.025248900861596
 31
0.0
  0
LINE
  5
43B4
330
1E
100
AcDbEntity
  8
7
100
AcDbLine
 10
1.621922932830291
 20
6.025248900861596
 30
0.0
 11
1.630125640015331
 21
5.9842353649364
 31
0.0
  0
LINE
  5
43B5
330
1E
100
AcDbEntity
  8
7
100
AcDbLine
 10
1.630125640015331
 20
5.9842353649364
 30
0.0
 11
1.643249971511393
 21
5.949783994759235
 31
0.0
  0
LINE
  5
43B6
330
1E
100
AcDbEntity
  8
7
100
AcDbLine
 10
1.643249971511393
 20
5.949783994759235
 30
0.0
 11
1.66129592731848
 21
5.925175873204117
 31
0.0
  0
LINE
  5
43B7
330
1E
100
AcDbEntity
  8
7
100
AcDbLine
 10
1.66129592731848
 20
5.925175873204117
 30
0.0
 11
1.682622965999582
 21
5.908770458834037
 31
0.0
  0
LINE
  5
43B8
330
1E
100
AcDbEntity
  8
7
100
AcDbLine
 10
1.682622965999582
 20
5.908770458834037
 30
0.0
 11
1.705590546117692
 21
5.903848834523014
 31
0.0
  0
LINE
  5
43B9
330
1E
100
AcDbEntity
  8
7
100
AcDbLine
 10
1.741682457731866
 20
6.417338304306479
 30
0.0
 11
1.707231087554701
 21
6.42390047005451
 31
0.0
  0
LINE
  5
43BA
330
1E
100
AcDbEntity
  8
7
100
AcDbLine
 10
1.707231087554701
 20
6.42390047005451
 30
0.0
 11
1.677701341688559
 21
6.438665342987581
 31
0.0
  0
LINE
  5
43BB
330
1E
100
AcDbEntity
  8
7
100
AcDbLine
 10
1.677701341688559
 20
6.438665342987581
 30
0.0
 11
1.656374303007456
 21
6.458351840231675
 31
0.0
  0
LINE
  5
43BC
330
1E
100
AcDbEntity
  8
7
100
AcDbLine
 10
1.741682457731866
 20
6.548581619267109
 30
0.0
 11
1.707231087554701
 21
6.543659994956086
 31
0.0
  0
LINE
  5
43BD
330
1E
100
AcDbEntity
  8
7
100
AcDbLine
 10
1.707231087554701
 20
6.543659994956086
 30
0.0
 11
1.677701341688559
 21
6.528895122023015
 31
0.0
  0
LINE
  5
43BE
330
1E
100
AcDbEntity
  8
7
100
AcDbLine
 10
1.677701341688559
 20
6.528895122023015
 30
0.0
 11
1.656374303007456
 21
6.507568083341912
 31
0.0
  0
LINE
  5
43BF
330
1E
100
AcDbEntity
  8
7
100
AcDbLine
 10
1.656374303007456
 20
6.507568083341912
 30
0.0
 11
1.648171595822417
 21
6.482959961786794
 31
0.0
  0
LINE
  5
43C0
330
1E
100
AcDbEntity
  8
7
100
AcDbLine
 10
1.66129592731848
 20
7.042384591806479
 30
0.0
 11
1.643249971511393
 21
7.016135928814353
 31
0.0
  0
LINE
  5
43C1
330
1E
100
AcDbEntity
  8
7
100
AcDbLine
 10
1.643249971511393
 20
7.016135928814353
 30
0.0
 11
1.630125640015331
 21
6.981684558637187
 31
0.0
  0
LINE
  5
43C2
330
1E
100
AcDbEntity
  8
7
100
AcDbLine
 10
1.630125640015331
 20
6.981684558637187
 30
0.0
 11
1.621922932830291
 21
6.942311564148998
 31
0.0
  0
LINE
  5
43C3
330
1E
100
AcDbEntity
  8
7
100
AcDbLine
 10
1.621922932830291
 20
6.942311564148998
 30
0.0
 11
1.618641849956275
 21
6.898016945349786
 31
0.0
  0
LINE
  5
43C4
330
1E
100
AcDbEntity
  8
7
100
AcDbLine
 10
1.705590546117692
 20
7.063711630487581
 30
0.0
 11
1.682622965999582
 21
7.058790006176558
 31
0.0
  0
LINE
  5
43C5
330
1E
100
AcDbEntity
  8
7
100
AcDbLine
 10
1.682622965999582
 20
7.058790006176558
 30
0.0
 11
1.66129592731848
 21
7.042384591806479
 31
0.0
  0
LINE
  5
43C6
330
1E
100
AcDbEntity
  8
7
100
AcDbLine
 10
3.047553441590134
 20
6.417338304306478
 30
0.0
 11
3.047553441590134
 21
6.448508591609628
 31
0.0
  0
LINE
  5
43C7
330
1E
100
AcDbEntity
  8
7
100
AcDbLine
 10
3.047553441590134
 20
6.448508591609628
 30
0.0
 11
3.047553441590134
 21
6.482959961786794
 31
0.0
  0
LINE
  5
43C8
330
1E
100
AcDbEntity
  8
7
100
AcDbLine
 10
3.047553441590134
 20
6.482959961786794
 30
0.0
 11
3.047553441590134
 21
6.519051873400966
 31
0.0
  0
LINE
  5
43C9
330
1E
100
AcDbEntity
  8
7
100
AcDbLine
 10
3.047553441590134
 20
6.519051873400966
 30
0.0
 11
3.047553441590134
 21
6.548581619267109
 31
0.0
  0
LINE
  5
43CA
330
1E
100
AcDbEntity
  8
7
100
AcDbLine
 10
1.741682457731866
 20
6.548581619267109
 30
0.0
 11
1.741682457731866
 21
6.519051873400967
 31
0.0
  0
LINE
  5
43CB
330
1E
100
AcDbEntity
  8
7
100
AcDbLine
 10
1.741682457731866
 20
6.519051873400967
 30
0.0
 11
1.741682457731866
 21
6.482959961786794
 31
0.0
  0
LINE
  5
43CC
330
1E
100
AcDbEntity
  8
7
100
AcDbLine
 10
1.741682457731866
 20
6.482959961786794
 30
0.0
 11
1.741682457731866
 21
6.448508591609628
 31
0.0
  0
LINE
  5
43CD
330
1E
100
AcDbEntity
  8
7
100
AcDbLine
 10
1.741682457731866
 20
6.448508591609628
 30
0.0
 11
1.741682457731866
 21
6.417338304306479
 31
0.0
  0
LINE
  5
43CE
330
1E
100
AcDbEntity
  8
7
100
AcDbLine
 10
1.648171595822417
 20
6.482959961786794
 30
0.0
 11
1.618641849956275
 21
6.898016945349786
 31
0.0
  0
LINE
  5
43CF
330
1E
100
AcDbEntity
  8
7
100
AcDbLine
 10
1.618641849956275
 20
6.898016945349786
 30
0.0
 11
1.618641849956275
 21
6.067902978223802
 31
0.0
  0
LINE
  5
43D0
330
1E
100
AcDbEntity
  8
7
100
AcDbLine
 10
1.618641849956275
 20
6.067902978223802
 30
0.0
 11
1.648171595822417
 21
6.482959961786794
 31
0.0
  0
LINE
  5
43D1
330
1E
100
AcDbEntity
  8
7
100
AcDbLine
 10
3.139423762062575
 20
6.482959961786794
 30
0.0
 11
3.168953507928716
 21
6.067902978223802
 31
0.0
  0
LINE
  5
43D2
330
1E
100
AcDbEntity
  8
7
100
AcDbLine
 10
3.168953507928716
 20
6.067902978223802
 30
0.0
 11
3.168953507928716
 21
6.898016945349786
 31
0.0
  0
LINE
  5
43D3
330
1E
100
AcDbEntity
  8
7
100
AcDbLine
 10
3.168953507928716
 20
6.898016945349786
 30
0.0
 11
3.139423762062575
 21
6.482959961786794
 31
0.0
  0
LINE
  5
43D4
330
1E
100
AcDbEntity
  8
7
100
AcDbLine
 10
1.741682457731866
 20
6.417338304306479
 30
0.0
 11
1.705590546117692
 21
5.903848834523014
 31
0.0
  0
LINE
  5
43D5
330
1E
100
AcDbEntity
  8
7
100
AcDbLine
 10
1.705590546117692
 20
5.903848834523014
 30
0.0
 11
3.0820048117673
 21
5.903848834523014
 31
0.0
  0
LINE
  5
43D6
330
1E
100
AcDbEntity
  8
7
100
AcDbLine
 10
3.0820048117673
 20
5.903848834523014
 30
0.0
 11
3.047553441590134
 21
6.417338304306478
 31
0.0
  0
LINE
  5
43D7
330
1E
100
AcDbEntity
  8
7
100
AcDbLine
 10
3.047553441590134
 20
6.417338304306478
 30
0.0
 11
1.741682457731866
 21
6.417338304306479
 31
0.0
  0
LINE
  5
43D8
330
1E
100
AcDbEntity
  8
7
100
AcDbLine
 10
3.0820048117673
 20
7.06371163048758
 30
0.0
 11
1.705590546117692
 21
7.063711630487581
 31
0.0
  0
LINE
  5
43D9
330
1E
100
AcDbEntity
  8
7
100
AcDbLine
 10
1.705590546117692
 20
7.063711630487581
 30
0.0
 11
1.741682457731866
 21
6.548581619267109
 31
0.0
  0
LINE
  5
43DA
330
1E
100
AcDbEntity
  8
7
100
AcDbLine
 10
1.741682457731866
 20
6.548581619267109
 30
0.0
 11
3.047553441590134
 21
6.548581619267109
 31
0.0
  0
LINE
  5
43DB
330
1E
100
AcDbEntity
  8
7
100
AcDbLine
 10
1.984482590409031
 20
6.03837323235766
 30
0.0
 11
1.982842048972023
 21
6.040013773794668
 31
0.0
  0
LINE
  5
43DC
330
1E
100
AcDbEntity
  8
7
100
AcDbLine
 10
1.982842048972023
 20
6.040013773794668
 30
0.0
 11
1.77613382790903
 21
6.040013773794668
 31
0.0
  0
LINE
  5
43DD
330
1E
100
AcDbEntity
  8
7
100
AcDbLine
 10
3.959694480566512
 20
6.42390047005451
 30
0.0
 11
3.961335022003519
 21
6.405854514247423
 31
0.0
  0
LINE
  5
43DE
330
1E
100
AcDbEntity
  8
7
100
AcDbLine
 10
3.961335022003519
 20
6.405854514247423
 30
0.0
 11
3.967897187751551
 21
6.387808558440337
 31
0.0
  0
LINE
  5
43DF
330
1E
100
AcDbEntity
  8
7
100
AcDbLine
 10
4.102421585586197
 20
6.387808558440337
 30
0.0
 11
4.108983751334229
 21
6.405854514247423
 31
0.0
  0
LINE
  5
43E0
330
1E
100
AcDbEntity
  8
7
100
AcDbLine
 10
4.108983751334229
 20
6.405854514247423
 30
0.0
 11
4.110624292771237
 21
6.42390047005451
 31
0.0
  0
LINE
  5
43E1
330
1E
100
AcDbEntity
  8
7
100
AcDbLine
 10
3.967897187751551
 20
6.579751906570258
 30
0.0
 11
3.961335022003519
 21
6.561705950763172
 31
0.0
  0
LINE
  5
43E2
330
1E
100
AcDbEntity
  8
7
100
AcDbLine
 10
3.961335022003519
 20
6.561705950763172
 30
0.0
 11
3.959694480566512
 21
6.543659994956085
 31
0.0
  0
LINE
  5
43E3
330
1E
100
AcDbEntity
  8
7
100
AcDbLine
 10
4.110624292771237
 20
6.543659994956085
 30
0.0
 11
4.108983751334229
 21
6.561705950763172
 31
0.0
  0
LINE
  5
43E4
330
1E
100
AcDbEntity
  8
7
100
AcDbLine
 10
4.108983751334229
 20
6.561705950763172
 30
0.0
 11
4.102421585586197
 21
6.579751906570258
 31
0.0
  0
LINE
  5
43E5
330
1E
100
AcDbEntity
  8
7
100
AcDbLine
 10
4.082735088342103
 20
6.364840978322226
 30
0.0
 11
4.102421585586197
 21
6.391089641314352
 31
0.0
  0
LINE
  5
43E6
330
1E
100
AcDbEntity
  8
7
100
AcDbLine
 10
4.102421585586197
 20
6.391089641314352
 30
0.0
 11
4.110624292771237
 21
6.42390047005451
 31
0.0
  0
LINE
  5
43E7
330
1E
100
AcDbEntity
  8
7
100
AcDbLine
 10
3.959694480566512
 20
6.42390047005451
 30
0.0
 11
3.967897187751551
 21
6.391089641314352
 31
0.0
  0
LINE
  5
43E8
330
1E
100
AcDbEntity
  8
7
100
AcDbLine
 10
3.967897187751551
 20
6.391089641314352
 30
0.0
 11
3.987583684995645
 21
6.364840978322226
 31
0.0
  0
LINE
  5
43E9
330
1E
100
AcDbEntity
  8
7
100
AcDbLine
 10
3.987583684995645
 20
6.364840978322226
 30
0.0
 11
4.018753972298796
 21
6.350076105389155
 31
0.0
  0
LINE
  5
43EA
330
1E
100
AcDbEntity
  8
7
100
AcDbLine
 10
4.018753972298796
 20
6.350076105389155
 30
0.0
 11
4.051564801038954
 21
6.350076105389155
 31
0.0
  0
LINE
  5
43EB
330
1E
100
AcDbEntity
  8
7
100
AcDbLine
 10
4.051564801038954
 20
6.350076105389155
 30
0.0
 11
4.082735088342103
 21
6.364840978322226
 31
0.0
  0
LINE
  5
43EC
330
1E
100
AcDbEntity
  8
7
100
AcDbLine
 10
4.051564801038954
 20
6.617484359621439
 30
0.0
 11
4.018753972298796
 21
6.617484359621439
 31
0.0
  0
LINE
  5
43ED
330
1E
100
AcDbEntity
  8
7
100
AcDbLine
 10
4.018753972298796
 20
6.617484359621439
 30
0.0
 11
3.987583684995645
 21
6.602719486688369
 31
0.0
  0
LINE
  5
43EE
330
1E
100
AcDbEntity
  8
7
100
AcDbLine
 10
3.987583684995645
 20
6.602719486688369
 30
0.0
 11
3.967897187751551
 21
6.576470823696243
 31
0.0
  0
LINE
  5
43EF
330
1E
100
AcDbEntity
  8
7
100
AcDbLine
 10
3.967897187751551
 20
6.576470823696243
 30
0.0
 11
3.959694480566512
 21
6.543659994956085
 31
0.0
  0
LINE
  5
43F0
330
1E
100
AcDbEntity
  8
7
100
AcDbLine
 10
4.110624292771237
 20
6.543659994956085
 30
0.0
 11
4.102421585586197
 21
6.576470823696243
 31
0.0
  0
LINE
  5
43F1
330
1E
100
AcDbEntity
  8
7
100
AcDbLine
 10
4.102421585586197
 20
6.576470823696243
 30
0.0
 11
4.082735088342103
 21
6.602719486688369
 31
0.0
  0
LINE
  5
43F2
330
1E
100
AcDbEntity
  8
7
100
AcDbLine
 10
4.082735088342103
 20
6.602719486688369
 30
0.0
 11
4.051564801038954
 21
6.617484359621439
 31
0.0
  0
LINE
  5
43F3
330
1E
100
AcDbEntity
  8
7
100
AcDbLine
 10
4.035159386668873
 20
6.274611199286793
 30
0.0
 11
4.081094546905094
 21
6.281173365034824
 31
0.0
  0
LINE
  5
43F4
330
1E
100
AcDbEntity
  8
7
100
AcDbLine
 10
4.081094546905094
 20
6.281173365034824
 30
0.0
 11
4.122108082830292
 21
6.302500403715928
 31
0.0
  0
LINE
  5
43F5
330
1E
100
AcDbEntity
  8
7
100
AcDbLine
 10
4.122108082830292
 20
6.302500403715928
 30
0.0
 11
4.156559453007457
 21
6.336951773893092
 31
0.0
  0
LINE
  5
43F6
330
1E
100
AcDbEntity
  8
7
100
AcDbLine
 10
4.156559453007457
 20
6.336951773893092
 30
0.0
 11
4.17788649168856
 21
6.377965309818289
 31
0.0
  0
LINE
  5
43F7
330
1E
100
AcDbEntity
  8
7
100
AcDbLine
 10
4.17788649168856
 20
6.377965309818289
 30
0.0
 11
4.184448657436591
 21
6.42390047005451
 31
0.0
  0
LINE
  5
43F8
330
1E
100
AcDbEntity
  8
7
100
AcDbLine
 10
3.885870115901157
 20
6.42390047005451
 30
0.0
 11
3.892432281649188
 21
6.377965309818289
 31
0.0
  0
LINE
  5
43F9
330
1E
100
AcDbEntity
  8
7
100
AcDbLine
 10
3.892432281649188
 20
6.377965309818289
 30
0.0
 11
3.913759320330292
 21
6.336951773893092
 31
0.0
  0
LINE
  5
43FA
330
1E
100
AcDbEntity
  8
7
100
AcDbLine
 10
3.913759320330292
 20
6.336951773893092
 30
0.0
 11
3.948210690507457
 21
6.302500403715928
 31
0.0
  0
LINE
  5
43FB
330
1E
100
AcDbEntity
  8
7
100
AcDbLine
 10
3.948210690507457
 20
6.302500403715928
 30
0.0
 11
3.989224226432654
 21
6.281173365034824
 31
0.0
  0
LINE
  5
43FC
330
1E
100
AcDbEntity
  8
7
100
AcDbLine
 10
3.989224226432654
 20
6.281173365034824
 30
0.0
 11
4.035159386668873
 21
6.274611199286793
 31
0.0
  0
LINE
  5
43FD
330
1E
100
AcDbEntity
  8
7
100
AcDbLine
 10
4.122108082830292
 20
6.665060061294668
 30
0.0
 11
4.081094546905094
 21
6.686387099975769
 31
0.0
  0
LINE
  5
43FE
330
1E
100
AcDbEntity
  8
7
100
AcDbLine
 10
4.081094546905094
 20
6.686387099975769
 30
0.0
 11
4.035159386668873
 21
6.692949265723802
 31
0.0
  0
LINE
  5
43FF
330
1E
100
AcDbEntity
  8
7
100
AcDbLine
 10
4.035159386668873
 20
6.692949265723802
 30
0.0
 11
3.989224226432654
 21
6.686387099975769
 31
0.0
  0
LINE
  5
4400
330
1E
100
AcDbEntity
  8
7
100
AcDbLine
 10
3.989224226432654
 20
6.686387099975769
 30
0.0
 11
3.948210690507457
 21
6.665060061294668
 31
0.0
  0
LINE
  5
4401
330
1E
100
AcDbEntity
  8
7
100
AcDbLine
 10
3.948210690507457
 20
6.665060061294668
 30
0.0
 11
3.913759320330292
 21
6.630608691117502
 31
0.0
  0
LINE
  5
4402
330
1E
100
AcDbEntity
  8
7
100
AcDbLine
 10
3.913759320330292
 20
6.630608691117502
 30
0.0
 11
3.892432281649188
 21
6.589595155192306
 31
0.0
  0
LINE
  5
4403
330
1E
100
AcDbEntity
  8
7
100
AcDbLine
 10
3.892432281649188
 20
6.589595155192306
 30
0.0
 11
3.885870115901157
 21
6.543659994956085
 31
0.0
  0
LINE
  5
4404
330
1E
100
AcDbEntity
  8
7
100
AcDbLine
 10
4.184448657436591
 20
6.543659994956085
 30
0.0
 11
4.17788649168856
 21
6.589595155192306
 31
0.0
  0
LINE
  5
4405
330
1E
100
AcDbEntity
  8
7
100
AcDbLine
 10
4.17788649168856
 20
6.589595155192306
 30
0.0
 11
4.156559453007457
 21
6.630608691117502
 31
0.0
  0
LINE
  5
4406
330
1E
100
AcDbEntity
  8
7
100
AcDbLine
 10
4.156559453007457
 20
6.630608691117502
 30
0.0
 11
4.122108082830292
 21
6.665060061294668
 31
0.0
  0
LINE
  5
4407
330
1E
100
AcDbEntity
  8
7
100
AcDbLine
 10
3.828451165605881
 20
7.386898293578132
 30
0.0
 11
3.838294414227929
 21
7.409865873696243
 31
0.0
  0
LINE
  5
4408
330
1E
100
AcDbEntity
  8
7
100
AcDbLine
 10
3.838294414227929
 20
7.409865873696243
 30
0.0
 11
3.859621452909031
 21
7.41970912231829
 31
0.0
  0
LINE
  5
4409
330
1E
100
AcDbEntity
  8
7
100
AcDbLine
 10
4.209056778991709
 20
7.41970912231829
 30
0.0
 11
4.230383817672811
 21
7.409865873696243
 31
0.0
  0
LINE
  5
440A
330
1E
100
AcDbEntity
  8
7
100
AcDbLine
 10
4.230383817672811
 20
7.409865873696243
 30
0.0
 11
4.240227066294859
 21
7.386898293578132
 31
0.0
  0
LINE
  5
440B
330
1E
100
AcDbEntity
  8
7
100
AcDbLine
 10
4.240227066294859
 20
5.579021629995454
 30
0.0
 11
4.230383817672811
 21
5.557694591314352
 31
0.0
  0
LINE
  5
440C
330
1E
100
AcDbEntity
  8
7
100
AcDbLine
 10
4.230383817672811
 20
5.557694591314352
 30
0.0
 11
4.209056778991709
 21
5.547851342692305
 31
0.0
  0
LINE
  5
440D
330
1E
100
AcDbEntity
  8
7
100
AcDbLine
 10
3.859621452909031
 20
5.547851342692306
 30
0.0
 11
3.838294414227929
 21
5.557694591314352
 31
0.0
  0
LINE
  5
440E
330
1E
100
AcDbEntity
  8
7
100
AcDbLine
 10
3.838294414227929
 20
5.557694591314352
 30
0.0
 11
3.828451165605881
 21
5.579021629995454
 31
0.0
  0
LINE
  5
440F
330
1E
100
AcDbEntity
  8
7
100
AcDbLine
 10
3.83009170704289
 20
7.355728006274983
 30
0.0
 11
3.83009170704289
 21
5.610191917298604
 31
0.0
  0
LINE
  5
4410
330
1E
100
AcDbEntity
  8
7
100
AcDbLine
 10
3.83009170704289
 20
5.610191917298604
 30
0.0
 11
3.828451165605881
 21
5.608551375861596
 31
0.0
  0
LINE
  5
4411
330
1E
100
AcDbEntity
  8
7
100
AcDbLine
 10
3.83009170704289
 20
5.610191917298604
 30
0.0
 11
4.240227066294859
 21
5.610191917298604
 31
0.0
  0
LINE
  5
4412
330
1E
100
AcDbEntity
  8
7
100
AcDbLine
 10
4.240227066294859
 20
5.610191917298604
 30
0.0
 11
4.240227066294859
 21
7.355728006274983
 31
0.0
  0
LINE
  5
4413
330
1E
100
AcDbEntity
  8
7
100
AcDbLine
 10
3.88422957446415
 20
6.42390047005451
 30
0.0
 11
3.892432281649188
 21
6.377965309818289
 31
0.0
  0
LINE
  5
4414
330
1E
100
AcDbEntity
  8
7
100
AcDbLine
 10
3.892432281649188
 20
6.377965309818289
 30
0.0
 11
3.913759320330292
 21
6.335311232456085
 31
0.0
  0
LINE
  5
4415
330
1E
100
AcDbEntity
  8
7
100
AcDbLine
 10
3.913759320330292
 20
6.335311232456085
 30
0.0
 11
3.946570149070449
 21
6.302500403715928
 31
0.0
  0
LINE
  5
4416
330
1E
100
AcDbEntity
  8
7
100
AcDbLine
 10
3.946570149070449
 20
6.302500403715928
 30
0.0
 11
3.989224226432654
 21
6.281173365034824
 31
0.0
  0
LINE
  5
4417
330
1E
100
AcDbEntity
  8
7
100
AcDbLine
 10
3.989224226432654
 20
6.281173365034824
 30
0.0
 11
4.035159386668873
 21
6.272970657849785
 31
0.0
  0
LINE
  5
4418
330
1E
100
AcDbEntity
  8
7
100
AcDbLine
 10
4.035159386668873
 20
6.272970657849785
 30
0.0
 11
4.081094546905094
 21
6.281173365034824
 31
0.0
  0
LINE
  5
4419
330
1E
100
AcDbEntity
  8
7
100
AcDbLine
 10
4.081094546905094
 20
6.281173365034824
 30
0.0
 11
4.1237486242673
 21
6.302500403715928
 31
0.0
  0
LINE
  5
441A
330
1E
100
AcDbEntity
  8
7
100
AcDbLine
 10
4.1237486242673
 20
6.302500403715928
 30
0.0
 11
4.156559453007457
 21
6.335311232456085
 31
0.0
  0
LINE
  5
441B
330
1E
100
AcDbEntity
  8
7
100
AcDbLine
 10
4.156559453007457
 20
6.335311232456085
 30
0.0
 11
4.17788649168856
 21
6.377965309818289
 31
0.0
  0
LINE
  5
441C
330
1E
100
AcDbEntity
  8
7
100
AcDbLine
 10
4.17788649168856
 20
6.377965309818289
 30
0.0
 11
4.186089198873598
 21
6.42390047005451
 31
0.0
  0
LINE
  5
441D
330
1E
100
AcDbEntity
  8
7
100
AcDbLine
 10
4.186089198873598
 20
6.543659994956085
 30
0.0
 11
4.17788649168856
 21
6.589595155192306
 31
0.0
  0
LINE
  5
441E
330
1E
100
AcDbEntity
  8
7
100
AcDbLine
 10
4.17788649168856
 20
6.589595155192306
 30
0.0
 11
4.156559453007457
 21
6.63224923255451
 31
0.0
  0
LINE
  5
441F
330
1E
100
AcDbEntity
  8
7
100
AcDbLine
 10
4.156559453007457
 20
6.63224923255451
 30
0.0
 11
4.1237486242673
 21
6.665060061294668
 31
0.0
  0
LINE
  5
4420
330
1E
100
AcDbEntity
  8
7
100
AcDbLine
 10
4.1237486242673
 20
6.665060061294668
 30
0.0
 11
4.081094546905094
 21
6.686387099975769
 31
0.0
  0
LINE
  5
4421
330
1E
100
AcDbEntity
  8
7
100
AcDbLine
 10
4.081094546905094
 20
6.686387099975769
 30
0.0
 11
4.035159386668873
 21
6.694589807160809
 31
0.0
  0
LINE
  5
4422
330
1E
100
AcDbEntity
  8
7
100
AcDbLine
 10
4.035159386668873
 20
6.694589807160809
 30
0.0
 11
3.989224226432654
 21
6.686387099975769
 31
0.0
  0
LINE
  5
4423
330
1E
100
AcDbEntity
  8
7
100
AcDbLine
 10
3.989224226432654
 20
6.686387099975769
 30
0.0
 11
3.946570149070449
 21
6.665060061294668
 31
0.0
  0
LINE
  5
4424
330
1E
100
AcDbEntity
  8
7
100
AcDbLine
 10
3.946570149070449
 20
6.665060061294668
 30
0.0
 11
3.913759320330292
 21
6.63224923255451
 31
0.0
  0
LINE
  5
4425
330
1E
100
AcDbEntity
  8
7
100
AcDbLine
 10
3.913759320330292
 20
6.63224923255451
 30
0.0
 11
3.892432281649188
 21
6.589595155192306
 31
0.0
  0
LINE
  5
4426
330
1E
100
AcDbEntity
  8
7
100
AcDbLine
 10
3.892432281649188
 20
6.589595155192306
 30
0.0
 11
3.88422957446415
 21
6.543659994956085
 31
0.0
  0
LINE
  5
4427
330
1E
100
AcDbEntity
  8
7
100
AcDbLine
 10
3.976099894936591
 20
6.377965309818289
 30
0.0
 11
4.002348557928717
 21
6.356638271137187
 31
0.0
  0
LINE
  5
4428
330
1E
100
AcDbEntity
  8
7
100
AcDbLine
 10
4.002348557928717
 20
6.356638271137187
 30
0.0
 11
4.035159386668873
 21
6.348435563952148
 31
0.0
  0
LINE
  5
4429
330
1E
100
AcDbEntity
  8
7
100
AcDbLine
 10
4.035159386668873
 20
6.348435563952148
 30
0.0
 11
4.067970215409031
 21
6.356638271137187
 31
0.0
  0
LINE
  5
442A
330
1E
100
AcDbEntity
  8
7
100
AcDbLine
 10
4.067970215409031
 20
6.356638271137187
 30
0.0
 11
4.094218878401157
 21
6.377965309818289
 31
0.0
  0
LINE
  5
442B
330
1E
100
AcDbEntity
  8
7
100
AcDbLine
 10
4.067970215409031
 20
6.610922193873407
 30
0.0
 11
4.035159386668873
 21
6.619124901058447
 31
0.0
  0
LINE
  5
442C
330
1E
100
AcDbEntity
  8
7
100
AcDbLine
 10
4.035159386668873
 20
6.619124901058447
 30
0.0
 11
4.002348557928717
 21
6.610922193873407
 31
0.0
  0
LINE
  5
442D
330
1E
100
AcDbEntity
  8
7
100
AcDbLine
 10
4.002348557928717
 20
6.610922193873407
 30
0.0
 11
3.976099894936591
 21
6.589595155192306
 31
0.0
  0
LINE
  5
442E
330
1E
100
AcDbEntity
  8
7
100
AcDbLine
 10
0.6786116065507653
 20
6.42390047005451
 30
0.0
 11
0.6802521479877726
 21
6.405854514247423
 31
0.0
  0
LINE
  5
442F
330
1E
100
AcDbEntity
  8
7
100
AcDbLine
 10
0.6802521479877726
 20
6.405854514247423
 30
0.0
 11
0.6868143137358041
 21
6.387808558440338
 31
0.0
  0
LINE
  5
4430
330
1E
100
AcDbEntity
  8
7
100
AcDbLine
 10
0.8213387115704495
 20
6.387808558440338
 30
0.0
 11
0.8279008773184806
 21
6.405854514247423
 31
0.0
  0
LINE
  5
4431
330
1E
100
AcDbEntity
  8
7
100
AcDbLine
 10
0.8279008773184806
 20
6.405854514247423
 30
0.0
 11
0.8295414187554882
 21
6.42390047005451
 31
0.0
  0
LINE
  5
4432
330
1E
100
AcDbEntity
  8
7
100
AcDbLine
 10
0.6868143137358041
 20
6.579751906570258
 30
0.0
 11
0.6802521479877726
 21
6.561705950763172
 31
0.0
  0
LINE
  5
4433
330
1E
100
AcDbEntity
  8
7
100
AcDbLine
 10
0.6802521479877726
 20
6.561705950763172
 30
0.0
 11
0.6786116065507653
 21
6.543659994956086
 31
0.0
  0
LINE
  5
4434
330
1E
100
AcDbEntity
  8
7
100
AcDbLine
 10
0.8295414187554882
 20
6.543659994956086
 30
0.0
 11
0.8279008773184806
 21
6.561705950763172
 31
0.0
  0
LINE
  5
4435
330
1E
100
AcDbEntity
  8
7
100
AcDbLine
 10
0.8279008773184806
 20
6.561705950763172
 30
0.0
 11
0.8213387115704495
 21
6.579751906570258
 31
0.0
  0
LINE
  5
4436
330
1E
100
AcDbEntity
  8
7
100
AcDbLine
 10
0.8213387115704495
 20
6.576470823696243
 30
0.0
 11
0.8016522143263546
 21
6.602719486688369
 31
0.0
  0
LINE
  5
4437
330
1E
100
AcDbEntity
  8
7
100
AcDbLine
 10
0.8016522143263546
 20
6.602719486688369
 30
0.0
 11
0.7704819270232051
 21
6.617484359621439
 31
0.0
  0
LINE
  5
4438
330
1E
100
AcDbEntity
  8
7
100
AcDbLine
 10
0.7704819270232051
 20
6.617484359621439
 30
0.0
 11
0.7376710982830477
 21
6.617484359621439
 31
0.0
  0
LINE
  5
4439
330
1E
100
AcDbEntity
  8
7
100
AcDbLine
 10
0.7376710982830477
 20
6.617484359621439
 30
0.0
 11
0.7065008109798985
 21
6.602719486688369
 31
0.0
  0
LINE
  5
443A
330
1E
100
AcDbEntity
  8
7
100
AcDbLine
 10
0.7065008109798985
 20
6.602719486688369
 30
0.0
 11
0.6868143137358041
 21
6.576470823696243
 31
0.0
  0
LINE
  5
443B
330
1E
100
AcDbEntity
  8
7
100
AcDbLine
 10
0.6868143137358041
 20
6.576470823696243
 30
0.0
 11
0.6786116065507653
 21
6.543659994956086
 31
0.0
  0
LINE
  5
443C
330
1E
100
AcDbEntity
  8
7
100
AcDbLine
 10
0.6786116065507653
 20
6.42390047005451
 30
0.0
 11
0.6868143137358041
 21
6.391089641314353
 31
0.0
  0
LINE
  5
443D
330
1E
100
AcDbEntity
  8
7
100
AcDbLine
 10
0.6868143137358041
 20
6.391089641314353
 30
0.0
 11
0.7065008109798985
 21
6.364840978322227
 31
0.0
  0
LINE
  5
443E
330
1E
100
AcDbEntity
  8
7
100
AcDbLine
 10
0.7065008109798985
 20
6.364840978322227
 30
0.0
 11
0.7376710982830477
 21
6.350076105389156
 31
0.0
  0
LINE
  5
443F
330
1E
100
AcDbEntity
  8
7
100
AcDbLine
 10
0.7376710982830477
 20
6.350076105389156
 30
0.0
 11
0.7704819270232051
 21
6.350076105389156
 31
0.0
  0
LINE
  5
4440
330
1E
100
AcDbEntity
  8
7
100
AcDbLine
 10
0.7704819270232051
 20
6.350076105389156
 30
0.0
 11
0.8016522143263546
 21
6.364840978322227
 31
0.0
  0
LINE
  5
4441
330
1E
100
AcDbEntity
  8
7
100
AcDbLine
 10
0.8016522143263546
 20
6.364840978322227
 30
0.0
 11
0.8213387115704495
 21
6.391089641314353
 31
0.0
  0
LINE
  5
4442
330
1E
100
AcDbEntity
  8
7
100
AcDbLine
 10
0.8213387115704495
 20
6.391089641314353
 30
0.0
 11
0.8295414187554882
 21
6.42390047005451
 31
0.0
  0
LINE
  5
4443
330
1E
100
AcDbEntity
  8
7
100
AcDbLine
 10
0.6047872418854095
 20
6.42390047005451
 30
0.0
 11
0.6113494076334414
 21
6.37796530981829
 31
0.0
  0
LINE
  5
4444
330
1E
100
AcDbEntity
  8
7
100
AcDbLine
 10
0.6113494076334414
 20
6.37796530981829
 30
0.0
 11
0.6326764463145445
 21
6.336951773893093
 31
0.0
  0
LINE
  5
4445
330
1E
100
AcDbEntity
  8
7
100
AcDbLine
 10
0.6326764463145445
 20
6.336951773893093
 30
0.0
 11
0.6671278164917096
 21
6.302500403715928
 31
0.0
  0
LINE
  5
4446
330
1E
100
AcDbEntity
  8
7
100
AcDbLine
 10
0.6671278164917096
 20
6.302500403715928
 30
0.0
 11
0.7081413524169054
 21
6.281173365034825
 31
0.0
  0
LINE
  5
4447
330
1E
100
AcDbEntity
  8
7
100
AcDbLine
 10
0.7081413524169054
 20
6.281173365034825
 30
0.0
 11
0.7540765126531253
 21
6.274611199286794
 31
0.0
  0
LINE
  5
4448
330
1E
100
AcDbEntity
  8
7
100
AcDbLine
 10
0.7540765126531253
 20
6.274611199286794
 30
0.0
 11
0.8000116728893456
 21
6.281173365034825
 31
0.0
  0
LINE
  5
4449
330
1E
100
AcDbEntity
  8
7
100
AcDbLine
 10
0.8000116728893456
 20
6.281173365034825
 30
0.0
 11
0.8410252088145435
 21
6.302500403715928
 31
0.0
  0
LINE
  5
444A
330
1E
100
AcDbEntity
  8
7
100
AcDbLine
 10
0.8410252088145435
 20
6.302500403715928
 30
0.0
 11
0.8754765789917087
 21
6.336951773893093
 31
0.0
  0
LINE
  5
444B
330
1E
100
AcDbEntity
  8
7
100
AcDbLine
 10
0.8754765789917087
 20
6.336951773893093
 30
0.0
 11
0.8968036176728109
 21
6.37796530981829
 31
0.0
  0
LINE
  5
444C
330
1E
100
AcDbEntity
  8
7
100
AcDbLine
 10
0.8968036176728109
 20
6.37796530981829
 30
0.0
 11
0.9033657834208419
 21
6.42390047005451
 31
0.0
  0
LINE
  5
444D
330
1E
100
AcDbEntity
  8
7
100
AcDbLine
 10
0.9033657834208419
 20
6.543659994956086
 30
0.0
 11
0.8968036176728109
 21
6.589595155192306
 31
0.0
  0
LINE
  5
444E
330
1E
100
AcDbEntity
  8
7
100
AcDbLine
 10
0.8968036176728109
 20
6.589595155192306
 30
0.0
 11
0.8754765789917087
 21
6.630608691117502
 31
0.0
  0
LINE
  5
444F
330
1E
100
AcDbEntity
  8
7
100
AcDbLine
 10
0.8754765789917087
 20
6.630608691117502
 30
0.0
 11
0.8410252088145435
 21
6.665060061294668
 31
0.0
  0
LINE
  5
4450
330
1E
100
AcDbEntity
  8
7
100
AcDbLine
 10
0.8410252088145435
 20
6.665060061294668
 30
0.0
 11
0.8000116728893459
 21
6.68638709997577
 31
0.0
  0
LINE
  5
4451
330
1E
100
AcDbEntity
  8
7
100
AcDbLine
 10
0.8000116728893459
 20
6.68638709997577
 30
0.0
 11
0.7540765126531257
 21
6.692949265723802
 31
0.0
  0
LINE
  5
4452
330
1E
100
AcDbEntity
  8
7
100
AcDbLine
 10
0.7540765126531257
 20
6.692949265723802
 30
0.0
 11
0.7081413524169058
 21
6.68638709997577
 31
0.0
  0
LINE
  5
4453
330
1E
100
AcDbEntity
  8
7
100
AcDbLine
 10
0.7081413524169058
 20
6.68638709997577
 30
0.0
 11
0.6671278164917096
 21
6.665060061294668
 31
0.0
  0
LINE
  5
4454
330
1E
100
AcDbEntity
  8
7
100
AcDbLine
 10
0.6671278164917096
 20
6.665060061294668
 30
0.0
 11
0.6326764463145445
 21
6.630608691117502
 31
0.0
  0
LINE
  5
4455
330
1E
100
AcDbEntity
  8
7
100
AcDbLine
 10
0.6326764463145445
 20
6.630608691117502
 30
0.0
 11
0.6113494076334414
 21
6.589595155192306
 31
0.0
  0
LINE
  5
4456
330
1E
100
AcDbEntity
  8
7
100
AcDbLine
 10
0.6113494076334414
 20
6.589595155192306
 30
0.0
 11
0.6047872418854095
 21
6.543659994956086
 31
0.0
  0
LINE
  5
4457
330
1E
100
AcDbEntity
  8
7
100
AcDbLine
 10
0.6015061590113949
 20
6.42390047005451
 30
0.0
 11
0.6031467004484022
 21
6.42390047005451
 31
0.0
  0
LINE
  5
4458
330
1E
100
AcDbEntity
  8
7
100
AcDbLine
 10
0.6031467004484022
 20
6.42390047005451
 30
0.0
 11
0.6031467004484022
 21
6.543659994956086
 31
0.0
  0
LINE
  5
4459
330
1E
100
AcDbEntity
  8
7
100
AcDbLine
 10
0.905006324857851
 20
6.543659994956086
 30
0.0
 11
0.9033657834208419
 21
6.543659994956086
 31
0.0
  0
LINE
  5
445A
330
1E
100
AcDbEntity
  8
7
100
AcDbLine
 10
0.9033657834208419
 20
6.543659994956086
 30
0.0
 11
0.9033657834208419
 21
6.42390047005451
 31
0.0
  0
LINE
  5
445B
330
1E
100
AcDbEntity
  8
7
100
AcDbLine
 10
0.9591441922791105
 20
7.359009089148998
 30
0.0
 11
0.9591441922791105
 21
7.386898293578133
 31
0.0
  0
LINE
  5
445C
330
1E
100
AcDbEntity
  8
7
100
AcDbLine
 10
0.9591441922791105
 20
7.386898293578133
 30
0.0
 11
0.9493009436570627
 21
7.409865873696243
 31
0.0
  0
LINE
  5
445D
330
1E
100
AcDbEntity
  8
7
100
AcDbLine
 10
0.9493009436570627
 20
7.409865873696243
 30
0.0
 11
0.9279739049759605
 21
7.41970912231829
 31
0.0
  0
LINE
  5
445E
330
1E
100
AcDbEntity
  8
7
100
AcDbLine
 10
0.9279739049759605
 20
7.41970912231829
 30
0.0
 11
0.5785385788932836
 21
7.41970912231829
 31
0.0
  0
LINE
  5
445F
330
1E
100
AcDbEntity
  8
7
100
AcDbLine
 10
0.5785385788932836
 20
7.41970912231829
 30
0.0
 11
0.5572115402121818
 21
7.409865873696243
 31
0.0
  0
LINE
  5
4460
330
1E
100
AcDbEntity
  8
7
100
AcDbLine
 10
0.5572115402121818
 20
7.409865873696243
 30
0.0
 11
0.5473682915901353
 21
7.386898293578133
 31
0.0
  0
LINE
  5
4461
330
1E
100
AcDbEntity
  8
7
100
AcDbLine
 10
0.5473682915901353
 20
7.386898293578133
 30
0.0
 11
0.5473682915901353
 21
7.359009089148998
 31
0.0
  0
LINE
  5
4462
330
1E
100
AcDbEntity
  8
7
100
AcDbLine
 10
0.5473682915901348
 20
5.608551375861597
 30
0.0
 11
0.5473682915901348
 21
5.579021629995455
 31
0.0
  0
LINE
  5
4463
330
1E
100
AcDbEntity
  8
7
100
AcDbLine
 10
0.5473682915901348
 20
5.579021629995455
 30
0.0
 11
0.5572115402121814
 21
5.557694591314353
 31
0.0
  0
LINE
  5
4464
330
1E
100
AcDbEntity
  8
7
100
AcDbLine
 10
0.5572115402121814
 20
5.557694591314353
 30
0.0
 11
0.5785385788932831
 21
5.547851342692306
 31
0.0
  0
LINE
  5
4465
330
1E
100
AcDbEntity
  8
7
100
AcDbLine
 10
0.5785385788932831
 20
5.547851342692306
 30
0.0
 11
0.9279739049759601
 21
5.547851342692306
 31
0.0
  0
LINE
  5
4466
330
1E
100
AcDbEntity
  8
7
100
AcDbLine
 10
0.9279739049759601
 20
5.547851342692306
 30
0.0
 11
0.9493009436570623
 21
5.557694591314353
 31
0.0
  0
LINE
  5
4467
330
1E
100
AcDbEntity
  8
7
100
AcDbLine
 10
0.9493009436570623
 20
5.557694591314353
 30
0.0
 11
0.9591441922791101
 21
5.579021629995455
 31
0.0
  0
LINE
  5
4468
330
1E
100
AcDbEntity
  8
7
100
AcDbLine
 10
0.9591441922791101
 20
5.579021629995455
 30
0.0
 11
0.9591441922791101
 21
5.608551375861597
 31
0.0
  0
LINE
  5
4469
330
1E
100
AcDbEntity
  8
7
100
AcDbLine
 10
0.905006324857851
 20
6.543659994956086
 30
0.0
 11
0.8968036176728109
 21
6.589595155192306
 31
0.0
  0
LINE
  5
446A
330
1E
100
AcDbEntity
  8
7
100
AcDbLine
 10
0.8968036176728109
 20
6.589595155192306
 30
0.0
 11
0.8754765789917087
 21
6.63224923255451
 31
0.0
  0
LINE
  5
446B
330
1E
100
AcDbEntity
  8
7
100
AcDbLine
 10
0.8754765789917087
 20
6.63224923255451
 30
0.0
 11
0.8426657502515514
 21
6.665060061294668
 31
0.0
  0
LINE
  5
446C
330
1E
100
AcDbEntity
  8
7
100
AcDbLine
 10
0.8426657502515514
 20
6.665060061294668
 30
0.0
 11
0.8000116728893459
 21
6.68638709997577
 31
0.0
  0
LINE
  5
446D
330
1E
100
AcDbEntity
  8
7
100
AcDbLine
 10
0.8000116728893459
 20
6.68638709997577
 30
0.0
 11
0.7540765126531257
 21
6.694589807160809
 31
0.0
  0
LINE
  5
446E
330
1E
100
AcDbEntity
  8
7
100
AcDbLine
 10
0.7540765126531257
 20
6.694589807160809
 30
0.0
 11
0.7081413524169058
 21
6.68638709997577
 31
0.0
  0
LINE
  5
446F
330
1E
100
AcDbEntity
  8
7
100
AcDbLine
 10
0.7081413524169058
 20
6.68638709997577
 30
0.0
 11
0.6654872750547023
 21
6.665060061294668
 31
0.0
  0
LINE
  5
4470
330
1E
100
AcDbEntity
  8
7
100
AcDbLine
 10
0.6654872750547023
 20
6.665060061294668
 30
0.0
 11
0.6326764463145445
 21
6.63224923255451
 31
0.0
  0
LINE
  5
4471
330
1E
100
AcDbEntity
  8
7
100
AcDbLine
 10
0.6326764463145445
 20
6.63224923255451
 30
0.0
 11
0.6113494076334414
 21
6.589595155192306
 31
0.0
  0
LINE
  5
4472
330
1E
100
AcDbEntity
  8
7
100
AcDbLine
 10
0.6031467004484022
 20
6.42390047005451
 30
0.0
 11
0.6113494076334414
 21
6.37796530981829
 31
0.0
  0
LINE
  5
4473
330
1E
100
AcDbEntity
  8
7
100
AcDbLine
 10
0.6113494076334414
 20
6.37796530981829
 30
0.0
 11
0.6326764463145445
 21
6.335311232456086
 31
0.0
  0
LINE
  5
4474
330
1E
100
AcDbEntity
  8
7
100
AcDbLine
 10
0.6326764463145445
 20
6.335311232456086
 30
0.0
 11
0.6654872750547023
 21
6.302500403715928
 31
0.0
  0
LINE
  5
4475
330
1E
100
AcDbEntity
  8
7
100
AcDbLine
 10
0.6654872750547023
 20
6.302500403715928
 30
0.0
 11
0.7081413524169054
 21
6.281173365034825
 31
0.0
  0
LINE
  5
4476
330
1E
100
AcDbEntity
  8
7
100
AcDbLine
 10
0.7081413524169054
 20
6.281173365034825
 30
0.0
 11
0.7540765126531253
 21
6.272970657849786
 31
0.0
  0
LINE
  5
4477
330
1E
100
AcDbEntity
  8
7
100
AcDbLine
 10
0.7540765126531253
 20
6.272970657849786
 30
0.0
 11
0.8000116728893456
 21
6.281173365034825
 31
0.0
  0
LINE
  5
4478
330
1E
100
AcDbEntity
  8
7
100
AcDbLine
 10
0.8000116728893456
 20
6.281173365034825
 30
0.0
 11
0.8426657502515514
 21
6.302500403715928
 31
0.0
  0
LINE
  5
4479
330
1E
100
AcDbEntity
  8
7
100
AcDbLine
 10
0.8426657502515514
 20
6.302500403715928
 30
0.0
 11
0.8754765789917087
 21
6.335311232456086
 31
0.0
  0
LINE
  5
447A
330
1E
100
AcDbEntity
  8
7
100
AcDbLine
 10
0.8754765789917087
 20
6.335311232456086
 30
0.0
 11
0.8968036176728109
 21
6.37796530981829
 31
0.0
  0
LINE
  5
447B
330
1E
100
AcDbEntity
  8
7
100
AcDbLine
 10
0.8968036176728109
 20
6.37796530981829
 30
0.0
 11
0.905006324857851
 21
6.42390047005451
 31
0.0
  0
LINE
  5
447C
330
1E
100
AcDbEntity
  8
7
100
AcDbLine
 10
0.6950170209208429
 20
6.37796530981829
 30
0.0
 11
0.7212656839129688
 21
6.356638271137187
 31
0.0
  0
LINE
  5
447D
330
1E
100
AcDbEntity
  8
7
100
AcDbLine
 10
0.7212656839129688
 20
6.356638271137187
 30
0.0
 11
0.7540765126531257
 21
6.348435563952149
 31
0.0
  0
LINE
  5
447E
330
1E
100
AcDbEntity
  8
7
100
AcDbLine
 10
0.7540765126531257
 20
6.348435563952149
 30
0.0
 11
0.7868873413932831
 21
6.356638271137187
 31
0.0
  0
LINE
  5
447F
330
1E
100
AcDbEntity
  8
7
100
AcDbLine
 10
0.7868873413932831
 20
6.356638271137187
 30
0.0
 11
0.813136004385409
 21
6.37796530981829
 31
0.0
  0
LINE
  5
4480
330
1E
100
AcDbEntity
  8
7
100
AcDbLine
 10
0.813136004385409
 20
6.589595155192306
 30
0.0
 11
0.7868873413932831
 21
6.610922193873408
 31
0.0
  0
LINE
  5
4481
330
1E
100
AcDbEntity
  8
7
100
AcDbLine
 10
0.7868873413932831
 20
6.610922193873408
 30
0.0
 11
0.7540765126531257
 21
6.619124901058447
 31
0.0
  0
LINE
  5
4482
330
1E
100
AcDbEntity
  8
7
100
AcDbLine
 10
0.7540765126531257
 20
6.619124901058447
 30
0.0
 11
0.7212656839129688
 21
6.610922193873408
 31
0.0
  0
LINE
  5
4483
330
1E
100
AcDbEntity
  8
7
100
AcDbLine
 10
0.7212656839129688
 20
6.610922193873408
 30
0.0
 11
0.6950170209208429
 21
6.589595155192306
 31
0.0
  0
LINE
  5
4484
330
1E
100
AcDbEntity
  8
7
100
AcDbLine
 10
4.581459685192496
 20
5.111467320448211
 30
0.0
 11
4.610989431058638
 21
5.119670027633249
 31
0.0
  0
LINE
  5
4485
330
1E
100
AcDbEntity
  8
7
100
AcDbLine
 10
4.610989431058638
 20
5.119670027633249
 30
0.0
 11
4.63231646973974
 21
5.140997066314352
 31
0.0
  0
LINE
  5
4486
330
1E
100
AcDbEntity
  8
7
100
AcDbLine
 10
4.63231646973974
 20
5.140997066314352
 30
0.0
 11
4.640519176924779
 21
5.172167353617501
 31
0.0
  0
LINE
  5
4487
330
1E
100
AcDbEntity
  8
7
100
AcDbLine
 10
0.1470761809602128
 20
5.172167353617503
 30
0.0
 11
0.155278888145252
 21
5.140997066314353
 31
0.0
  0
LINE
  5
4488
330
1E
100
AcDbEntity
  8
7
100
AcDbLine
 10
0.155278888145252
 20
5.140997066314353
 30
0.0
 11
0.1766059268263551
 21
5.119670027633251
 31
0.0
  0
LINE
  5
4489
330
1E
100
AcDbEntity
  8
7
100
AcDbLine
 10
0.1766059268263551
 20
5.119670027633251
 30
0.0
 11
0.2077762141295039
 21
5.111467320448211
 31
0.0
  0
LINE
  5
448A
330
1E
100
AcDbEntity
  8
7
100
AcDbLine
 10
4.63231646973974
 20
7.824922857259235
 30
0.0
 11
4.610989431058638
 21
7.847890437377344
 31
0.0
  0
LINE
  5
448B
330
1E
100
AcDbEntity
  8
7
100
AcDbLine
 10
4.610989431058638
 20
7.847890437377344
 30
0.0
 11
4.581459685192496
 21
7.856093144562384
 31
0.0
  0
LINE
  5
448C
330
1E
100
AcDbEntity
  8
7
100
AcDbLine
 10
0.2077762141295043
 20
7.856093144562385
 30
0.0
 11
0.1766059268263556
 21
7.847890437377345
 31
0.0
  0
LINE
  5
448D
330
1E
100
AcDbEntity
  8
7
100
AcDbLine
 10
0.1766059268263556
 20
7.847890437377345
 30
0.0
 11
0.1552788881452525
 21
7.824922857259235
 31
0.0
  0
LINE
  5
448E
330
1E
100
AcDbEntity
  8
7
100
AcDbLine
 10
0.1552788881452525
 20
7.824922857259235
 30
0.0
 11
0.1470761809602132
 21
7.795393111393093
 31
0.0
  0
LINE
  5
448F
330
1E
100
AcDbEntity
  8
7
100
AcDbLine
 10
4.561773187948402
 20
5.137715983440337
 30
0.0
 11
4.542086690704308
 21
5.163964646432463
 31
0.0
  0
LINE
  5
4490
330
1E
100
AcDbEntity
  8
7
100
AcDbLine
 10
4.542086690704308
 20
5.163964646432463
 30
0.0
 11
4.515838027712181
 21
5.200056558046636
 31
0.0
  0
LINE
  5
4491
330
1E
100
AcDbEntity
  8
7
100
AcDbLine
 10
4.515838027712181
 20
5.200056558046636
 30
0.0
 11
4.48630828184604
 21
5.241070093971833
 31
0.0
  0
LINE
  5
4492
330
1E
100
AcDbEntity
  8
7
100
AcDbLine
 10
4.48630828184604
 20
5.241070093971833
 30
0.0
 11
4.451856911668873
 21
5.288645795645061
 31
0.0
  0
LINE
  5
4493
330
1E
100
AcDbEntity
  8
7
100
AcDbLine
 10
4.451856911668873
 20
5.288645795645061
 30
0.0
 11
4.415765000054702
 21
5.336221497318289
 31
0.0
  0
LINE
  5
4494
330
1E
100
AcDbEntity
  8
7
100
AcDbLine
 10
4.581459685192496
 20
5.111467320448211
 30
0.0
 11
4.574897519444465
 21
5.119670027633249
 31
0.0
  0
LINE
  5
4495
330
1E
100
AcDbEntity
  8
7
100
AcDbLine
 10
4.574897519444465
 20
5.119670027633249
 30
0.0
 11
4.561773187948402
 21
5.137715983440337
 31
0.0
  0
LINE
  5
4496
330
1E
100
AcDbEntity
  8
7
100
AcDbLine
 10
0.3718303578302922
 20
5.33622149731829
 30
0.0
 11
0.3357384462161184
 21
5.288645795645061
 31
0.0
  0
LINE
  5
4497
330
1E
100
AcDbEntity
  8
7
100
AcDbLine
 10
0.3357384462161184
 20
5.288645795645061
 30
0.0
 11
0.302927617475961
 21
5.241070093971833
 31
0.0
  0
LINE
  5
4498
330
1E
100
AcDbEntity
  8
7
100
AcDbLine
 10
0.302927617475961
 20
5.241070093971833
 30
0.0
 11
0.2717573301728109
 21
5.200056558046636
 31
0.0
  0
LINE
  5
4499
330
1E
100
AcDbEntity
  8
7
100
AcDbLine
 10
0.2717573301728109
 20
5.200056558046636
 30
0.0
 11
0.245508667180685
 21
5.163964646432463
 31
0.0
  0
LINE
  5
449A
330
1E
100
AcDbEntity
  8
7
100
AcDbLine
 10
0.245508667180685
 20
5.163964646432463
 30
0.0
 11
0.2258221699365905
 21
5.137715983440337
 31
0.0
  0
LINE
  5
449B
330
1E
100
AcDbEntity
  8
7
100
AcDbLine
 10
0.2258221699365905
 20
5.137715983440337
 30
0.0
 11
0.2126978384405276
 21
5.119670027633251
 31
0.0
  0
LINE
  5
449C
330
1E
100
AcDbEntity
  8
7
100
AcDbLine
 10
0.2126978384405276
 20
5.119670027633251
 30
0.0
 11
0.2077762141295039
 21
5.111467320448211
 31
0.0
  0
LINE
  5
449D
330
1E
100
AcDbEntity
  8
7
100
AcDbLine
 10
0.1733248439523392
 20
7.775706614148998
 30
0.0
 11
0.1552788881452525
 21
7.79047148708207
 31
0.0
  0
LINE
  5
449E
330
1E
100
AcDbEntity
  8
7
100
AcDbLine
 10
0.1552788881452525
 20
7.79047148708207
 30
0.0
 11
0.1470761809602132
 21
7.795393111393093
 31
0.0
  0
LINE
  5
449F
330
1E
100
AcDbEntity
  8
7
100
AcDbLine
 10
0.3718303578302926
 20
7.631338967692306
 30
0.0
 11
0.3226141147200559
 21
7.665790337869471
 31
0.0
  0
LINE
  5
44A0
330
1E
100
AcDbEntity
  8
7
100
AcDbLine
 10
0.3226141147200559
 20
7.665790337869471
 30
0.0
 11
0.2766789544838355
 21
7.700241708046637
 31
0.0
  0
LINE
  5
44A1
330
1E
100
AcDbEntity
  8
7
100
AcDbLine
 10
0.2766789544838355
 20
7.700241708046637
 30
0.0
 11
0.2356654185586389
 21
7.729771453912778
 31
0.0
  0
LINE
  5
44A2
330
1E
100
AcDbEntity
  8
7
100
AcDbLine
 10
0.2356654185586389
 20
7.729771453912778
 30
0.0
 11
0.1995735069444651
 21
7.756020116904904
 31
0.0
  0
LINE
  5
44A3
330
1E
100
AcDbEntity
  8
7
100
AcDbLine
 10
0.1995735069444651
 20
7.756020116904904
 30
0.0
 11
0.1733248439523392
 21
7.775706614148998
 31
0.0
  0
LINE
  5
44A4
330
1E
100
AcDbEntity
  8
7
100
AcDbLine
 10
0.155278888145252
 20
5.177088977928526
 30
0.0
 11
0.1733248439523387
 21
5.190213309424589
 31
0.0
  0
LINE
  5
44A5
330
1E
100
AcDbEntity
  8
7
100
AcDbLine
 10
0.1733248439523387
 20
5.190213309424589
 30
0.0
 11
0.1995735069444646
 21
5.209899806668683
 31
0.0
  0
LINE
  5
44A6
330
1E
100
AcDbEntity
  8
7
100
AcDbLine
 10
0.1995735069444646
 20
5.209899806668683
 30
0.0
 11
0.2356654185586384
 21
5.236148469660809
 31
0.0
  0
LINE
  5
44A7
330
1E
100
AcDbEntity
  8
7
100
AcDbLine
 10
0.2356654185586384
 20
5.236148469660809
 30
0.0
 11
0.2766789544838351
 21
5.267318756963959
 31
0.0
  0
LINE
  5
44A8
330
1E
100
AcDbEntity
  8
7
100
AcDbLine
 10
0.2766789544838351
 20
5.267318756963959
 30
0.0
 11
0.3226141147200554
 21
5.300129585704118
 31
0.0
  0
LINE
  5
44A9
330
1E
100
AcDbEntity
  8
7
100
AcDbLine
 10
0.3226141147200554
 20
5.300129585704118
 30
0.0
 11
0.3718303578302922
 21
5.33622149731829
 31
0.0
  0
LINE
  5
44AA
330
1E
100
AcDbEntity
  8
7
100
AcDbLine
 10
4.415765000054702
 20
5.336221497318289
 30
0.0
 11
4.464981243164937
 21
5.300129585704116
 31
0.0
  0
LINE
  5
44AB
330
1E
100
AcDbEntity
  8
7
100
AcDbLine
 10
4.464981243164937
 20
5.300129585704116
 30
0.0
 11
4.510916403401157
 21
5.267318756963959
 31
0.0
  0
LINE
  5
44AC
330
1E
100
AcDbEntity
  8
7
100
AcDbLine
 10
4.510916403401157
 20
5.267318756963959
 30
0.0
 11
4.551929939326355
 21
5.236148469660809
 31
0.0
  0
LINE
  5
44AD
330
1E
100
AcDbEntity
  8
7
100
AcDbLine
 10
4.551929939326355
 20
5.236148469660809
 30
0.0
 11
4.588021850940528
 21
5.209899806668683
 31
0.0
  0
LINE
  5
44AE
330
1E
100
AcDbEntity
  8
7
100
AcDbLine
 10
4.588021850940528
 20
5.209899806668683
 30
0.0
 11
4.615911055369661
 21
5.190213309424589
 31
0.0
  0
LINE
  5
44AF
330
1E
100
AcDbEntity
  8
7
100
AcDbLine
 10
4.615911055369661
 20
5.190213309424589
 30
0.0
 11
4.633957011176748
 21
5.177088977928525
 31
0.0
  0
LINE
  5
44B0
330
1E
100
AcDbEntity
  8
7
100
AcDbLine
 10
4.633957011176748
 20
5.177088977928525
 30
0.0
 11
4.640519176924779
 21
5.172167353617501
 31
0.0
  0
LINE
  5
44B1
330
1E
100
AcDbEntity
  8
7
100
AcDbLine
 10
4.588021850940528
 20
7.756020116904903
 30
0.0
 11
4.551929939326355
 21
7.729771453912777
 31
0.0
  0
LINE
  5
44B2
330
1E
100
AcDbEntity
  8
7
100
AcDbLine
 10
4.551929939326355
 20
7.729771453912777
 30
0.0
 11
4.510916403401157
 21
7.700241708046636
 31
0.0
  0
LINE
  5
44B3
330
1E
100
AcDbEntity
  8
7
100
AcDbLine
 10
4.510916403401157
 20
7.700241708046636
 30
0.0
 11
4.464981243164937
 21
7.66579033786947
 31
0.0
  0
LINE
  5
44B4
330
1E
100
AcDbEntity
  8
7
100
AcDbLine
 10
4.464981243164937
 20
7.66579033786947
 30
0.0
 11
4.415765000054702
 21
7.631338967692306
 31
0.0
  0
LINE
  5
44B5
330
1E
100
AcDbEntity
  8
7
100
AcDbLine
 10
4.640519176924779
 20
7.795393111393092
 30
0.0
 11
4.633957011176748
 21
7.790471487082069
 31
0.0
  0
LINE
  5
44B6
330
1E
100
AcDbEntity
  8
7
100
AcDbLine
 10
4.633957011176748
 20
7.790471487082069
 30
0.0
 11
4.615911055369661
 21
7.775706614148997
 31
0.0
  0
LINE
  5
44B7
330
1E
100
AcDbEntity
  8
7
100
AcDbLine
 10
4.615911055369661
 20
7.775706614148997
 30
0.0
 11
4.588021850940528
 21
7.756020116904903
 31
0.0
  0
LINE
  5
44B8
330
1E
100
AcDbEntity
  8
7
100
AcDbLine
 10
0.2077762141295043
 20
7.856093144562385
 30
0.0
 11
0.212697838440528
 21
7.847890437377345
 31
0.0
  0
LINE
  5
44B9
330
1E
100
AcDbEntity
  8
7
100
AcDbLine
 10
0.212697838440528
 20
7.847890437377345
 30
0.0
 11
0.225822169936591
 21
7.829844481570259
 31
0.0
  0
LINE
  5
44BA
330
1E
100
AcDbEntity
  8
7
100
AcDbLine
 10
0.225822169936591
 20
7.829844481570259
 30
0.0
 11
0.2455086671806854
 21
7.801955277141125
 31
0.0
  0
LINE
  5
44BB
330
1E
100
AcDbEntity
  8
7
100
AcDbLine
 10
0.2455086671806854
 20
7.801955277141125
 30
0.0
 11
0.2717573301728113
 21
7.76750390696396
 31
0.0
  0
LINE
  5
44BC
330
1E
100
AcDbEntity
  8
7
100
AcDbLine
 10
0.2717573301728113
 20
7.76750390696396
 30
0.0
 11
0.3029276174759614
 21
7.724849829601755
 31
0.0
  0
LINE
  5
44BD
330
1E
100
AcDbEntity
  8
7
100
AcDbLine
 10
0.3029276174759614
 20
7.724849829601755
 30
0.0
 11
0.3357384462161188
 21
7.678914669365534
 31
0.0
  0
LINE
  5
44BE
330
1E
100
AcDbEntity
  8
7
100
AcDbLine
 10
0.3357384462161188
 20
7.678914669365534
 30
0.0
 11
0.3718303578302926
 21
7.631338967692306
 31
0.0
  0
LINE
  5
44BF
330
1E
100
AcDbEntity
  8
7
100
AcDbLine
 10
4.561773187948402
 20
7.829844481570258
 30
0.0
 11
4.574897519444465
 21
7.847890437377344
 31
0.0
  0
LINE
  5
44C0
330
1E
100
AcDbEntity
  8
7
100
AcDbLine
 10
4.574897519444465
 20
7.847890437377344
 30
0.0
 11
4.581459685192496
 21
7.856093144562384
 31
0.0
  0
LINE
  5
44C1
330
1E
100
AcDbEntity
  8
7
100
AcDbLine
 10
4.415765000054702
 20
7.631338967692306
 30
0.0
 11
4.451856911668873
 21
7.678914669365534
 31
0.0
  0
LINE
  5
44C2
330
1E
100
AcDbEntity
  8
7
100
AcDbLine
 10
4.451856911668873
 20
7.678914669365534
 30
0.0
 11
4.48630828184604
 21
7.724849829601754
 31
0.0
  0
LINE
  5
44C3
330
1E
100
AcDbEntity
  8
7
100
AcDbLine
 10
4.48630828184604
 20
7.724849829601754
 30
0.0
 11
4.515838027712181
 21
7.767503906963959
 31
0.0
  0
LINE
  5
44C4
330
1E
100
AcDbEntity
  8
7
100
AcDbLine
 10
4.515838027712181
 20
7.767503906963959
 30
0.0
 11
4.542086690704308
 21
7.801955277141124
 31
0.0
  0
LINE
  5
44C5
330
1E
100
AcDbEntity
  8
7
100
AcDbLine
 10
4.542086690704308
 20
7.801955277141124
 30
0.0
 11
4.561773187948402
 21
7.829844481570258
 31
0.0
  0
LINE
  5
44C6
330
1E
100
AcDbEntity
  8
7
100
AcDbLine
 10
0.1437950980861982
 20
7.798674194267109
 30
0.0
 11
0.151997805271237
 21
7.828203940133251
 31
0.0
  0
LINE
  5
44C7
330
1E
100
AcDbEntity
  8
7
100
AcDbLine
 10
0.151997805271237
 20
7.828203940133251
 30
0.0
 11
0.1733248439523392
 21
7.851171520251361
 31
0.0
  0
LINE
  5
44C8
330
1E
100
AcDbEntity
  8
7
100
AcDbLine
 10
0.1733248439523392
 20
7.851171520251361
 30
0.0
 11
0.2044951312554888
 21
7.857733685999393
 31
0.0
  0
LINE
  5
44C9
330
1E
100
AcDbEntity
  8
7
100
AcDbLine
 10
0.1733248439523387
 20
5.116388944759235
 30
0.0
 11
0.1519978052712365
 21
5.137715983440337
 31
0.0
  0
LINE
  5
44CA
330
1E
100
AcDbEntity
  8
7
100
AcDbLine
 10
0.1519978052712365
 20
5.137715983440337
 30
0.0
 11
0.1437950980861977
 21
5.168886270743486
 31
0.0
  0
LINE
  5
44CB
330
1E
100
AcDbEntity
  8
7
100
AcDbLine
 10
4.643800259798796
 20
5.168886270743486
 30
0.0
 11
4.635597552613755
 21
5.137715983440337
 31
0.0
  0
LINE
  5
44CC
330
1E
100
AcDbEntity
  8
7
100
AcDbLine
 10
4.635597552613755
 20
5.137715983440337
 30
0.0
 11
4.614270513932654
 21
5.116388944759234
 31
0.0
  0
LINE
  5
44CD
330
1E
100
AcDbEntity
  8
7
100
AcDbLine
 10
4.614270513932654
 20
5.116388944759234
 30
0.0
 11
4.584740768066512
 21
5.108186237574194
 31
0.0
  0
LINE
  5
44CE
330
1E
100
AcDbEntity
  8
7
100
AcDbLine
 10
4.584740768066512
 20
7.857733685999392
 30
0.0
 11
4.614270513932654
 21
7.851171520251361
 31
0.0
  0
LINE
  5
44CF
330
1E
100
AcDbEntity
  8
7
100
AcDbLine
 10
4.614270513932654
 20
7.851171520251361
 30
0.0
 11
4.635597552613755
 21
7.82820394013325
 31
0.0
  0
LINE
  5
44D0
330
1E
100
AcDbEntity
  8
7
100
AcDbLine
 10
4.635597552613755
 20
7.82820394013325
 30
0.0
 11
4.643800259798796
 21
7.798674194267109
 31
0.0
  0
LINE
  5
44D1
330
1E
100
AcDbEntity
  8
7
100
AcDbLine
 10
4.643800259798796
 20
7.798674194267109
 30
0.0
 11
4.640519176924779
 21
7.795393111393092
 31
0.0
  0
LINE
  5
44D2
330
1E
100
AcDbEntity
  8
7
100
AcDbLine
 10
4.640519176924779
 20
7.795393111393092
 30
0.0
 11
4.640519176924779
 21
5.172167353617501
 31
0.0
  0
LINE
  5
44D3
330
1E
100
AcDbEntity
  8
7
100
AcDbLine
 10
4.640519176924779
 20
5.172167353617501
 30
0.0
 11
4.643800259798796
 21
5.168886270743486
 31
0.0
  0
LINE
  5
44D4
330
1E
100
AcDbEntity
  8
7
100
AcDbLine
 10
0.2077762141295043
 20
7.856093144562385
 30
0.0
 11
4.581459685192496
 21
7.856093144562384
 31
0.0
  0
LINE
  5
44D5
330
1E
100
AcDbEntity
  8
7
100
AcDbLine
 10
4.581459685192496
 20
7.856093144562384
 30
0.0
 11
4.584740768066512
 21
7.857733685999392
 31
0.0
  0
LINE
  5
44D6
330
1E
100
AcDbEntity
  8
7
100
AcDbLine
 10
4.584740768066512
 20
7.857733685999392
 30
0.0
 11
0.2044951312554888
 21
7.857733685999393
 31
0.0
  0
LINE
  5
44D7
330
1E
100
AcDbEntity
  8
7
100
AcDbLine
 10
0.2044951312554888
 20
7.857733685999393
 30
0.0
 11
0.2077762141295043
 21
7.856093144562385
 31
0.0
  0
LINE
  5
44D8
330
1E
100
AcDbEntity
  8
7
100
AcDbLine
 10
0.1437950980861982
 20
7.798674194267109
 30
0.0
 11
0.1437950980861977
 21
5.168886270743486
 31
0.0
  0
LINE
  5
44D9
330
1E
100
AcDbEntity
  8
7
100
AcDbLine
 10
0.1437950980861977
 20
5.168886270743486
 30
0.0
 11
0.1470761809602128
 21
5.172167353617503
 31
0.0
  0
LINE
  5
44DA
330
1E
100
AcDbEntity
  8
7
100
AcDbLine
 10
0.1470761809602128
 20
5.172167353617503
 30
0.0
 11
0.1470761809602132
 21
7.795393111393093
 31
0.0
  0
LINE
  5
44DB
330
1E
100
AcDbEntity
  8
7
100
AcDbLine
 10
0.1470761809602132
 20
7.795393111393093
 30
0.0
 11
0.1437950980861982
 21
7.798674194267109
 31
0.0
  0
LINE
  5
44DC
330
1E
100
AcDbEntity
  8
7
100
AcDbLine
 10
4.581459685192496
 20
5.111467320448211
 30
0.0
 11
0.2077762141295039
 21
5.111467320448211
 31
0.0
  0
LINE
  5
44DD
330
1E
100
AcDbEntity
  8
7
100
AcDbLine
 10
0.2077762141295039
 20
5.111467320448211
 30
0.0
 11
0.2044951312554883
 21
5.108186237574196
 31
0.0
  0
LINE
  5
44DE
330
1E
100
AcDbEntity
  8
7
100
AcDbLine
 10
0.2044951312554883
 20
5.108186237574196
 30
0.0
 11
4.584740768066512
 21
5.108186237574194
 31
0.0
  0
LINE
  5
44DF
330
1E
100
AcDbEntity
  8
7
100
AcDbLine
 10
4.584740768066512
 20
5.108186237574194
 30
0.0
 11
4.581459685192496
 21
5.111467320448211
 31
0.0
  0
LINE
  5
44E0
330
1E
100
AcDbEntity
  8
7
100
AcDbLine
 10
1.556301275349976
 20
6.067902978223802
 30
0.0
 11
1.556301275349976
 21
6.898016945349786
 31
0.0
  0
LINE
  5
44E1
330
1E
100
AcDbEntity
  8
7
100
AcDbLine
 10
1.556301275349976
 20
6.898016945349786
 30
0.0
 11
1.561222899660999
 21
6.953795354208054
 31
0.0
  0
LINE
  5
44E2
330
1E
100
AcDbEntity
  8
7
100
AcDbLine
 10
1.561222899660999
 20
6.953795354208054
 30
0.0
 11
1.575987772594071
 21
7.004652138755298
 31
0.0
  0
LINE
  5
44E3
330
1E
100
AcDbEntity
  8
7
100
AcDbLine
 10
1.575987772594071
 20
7.004652138755298
 30
0.0
 11
1.600595894149188
 21
7.047306216117502
 31
0.0
  0
LINE
  5
44E4
330
1E
100
AcDbEntity
  8
7
100
AcDbLine
 10
1.600595894149188
 20
7.047306216117502
 30
0.0
 11
1.630125640015331
 21
7.08011704485766
 31
0.0
  0
LINE
  5
44E5
330
1E
100
AcDbEntity
  8
7
100
AcDbLine
 10
1.630125640015331
 20
7.08011704485766
 30
0.0
 11
1.666217551629503
 21
7.101444083538763
 31
0.0
  0
LINE
  5
44E6
330
1E
100
AcDbEntity
  8
7
100
AcDbLine
 10
1.666217551629503
 20
7.101444083538763
 30
0.0
 11
1.705590546117692
 21
7.108006249286794
 31
0.0
  0
LINE
  5
44E7
330
1E
100
AcDbEntity
  8
7
100
AcDbLine
 10
3.231294082535016
 20
6.067902978223802
 30
0.0
 11
3.226372458223992
 21
6.013765110802541
 31
0.0
  0
LINE
  5
44E8
330
1E
100
AcDbEntity
  8
7
100
AcDbLine
 10
3.226372458223992
 20
6.013765110802541
 30
0.0
 11
3.211607585290922
 21
5.962908326255297
 31
0.0
  0
LINE
  5
44E9
330
1E
100
AcDbEntity
  8
7
100
AcDbLine
 10
3.211607585290922
 20
5.962908326255297
 30
0.0
 11
3.18864000517281
 21
5.920254248893092
 31
0.0
  0
LINE
  5
44EA
330
1E
100
AcDbEntity
  8
7
100
AcDbLine
 10
3.18864000517281
 20
5.920254248893092
 30
0.0
 11
3.157469717869661
 21
5.887443420152935
 31
0.0
  0
LINE
  5
44EB
330
1E
100
AcDbEntity
  8
7
100
AcDbLine
 10
3.157469717869661
 20
5.887443420152935
 30
0.0
 11
3.121377806255488
 21
5.866116381471833
 31
0.0
  0
LINE
  5
44EC
330
1E
100
AcDbEntity
  8
7
100
AcDbLine
 10
3.121377806255488
 20
5.866116381471833
 30
0.0
 11
3.0820048117673
 21
5.859554215723802
 31
0.0
  0
LINE
  5
44ED
330
1E
100
AcDbEntity
  8
7
100
AcDbLine
 10
3.0820048117673
 20
5.859554215723802
 30
0.0
 11
1.705590546117692
 21
5.859554215723802
 31
0.0
  0
LINE
  5
44EE
330
1E
100
AcDbEntity
  8
7
100
AcDbLine
 10
1.705590546117692
 20
5.859554215723802
 30
0.0
 11
1.666217551629503
 21
5.866116381471833
 31
0.0
  0
LINE
  5
44EF
330
1E
100
AcDbEntity
  8
7
100
AcDbLine
 10
1.666217551629503
 20
5.866116381471833
 30
0.0
 11
1.630125640015331
 21
5.887443420152935
 31
0.0
  0
LINE
  5
44F0
330
1E
100
AcDbEntity
  8
7
100
AcDbLine
 10
1.630125640015331
 20
5.887443420152935
 30
0.0
 11
1.600595894149188
 21
5.920254248893092
 31
0.0
  0
LINE
  5
44F1
330
1E
100
AcDbEntity
  8
7
100
AcDbLine
 10
1.600595894149188
 20
5.920254248893092
 30
0.0
 11
1.575987772594071
 21
5.962908326255297
 31
0.0
  0
LINE
  5
44F2
330
1E
100
AcDbEntity
  8
7
100
AcDbLine
 10
1.575987772594071
 20
5.962908326255297
 30
0.0
 11
1.561222899660999
 21
6.013765110802542
 31
0.0
  0
LINE
  5
44F3
330
1E
100
AcDbEntity
  8
7
100
AcDbLine
 10
1.561222899660999
 20
6.013765110802542
 30
0.0
 11
1.556301275349976
 21
6.067902978223802
 31
0.0
  0
LINE
  5
44F4
330
1E
100
AcDbEntity
  8
7
100
AcDbLine
 10
1.705590546117692
 20
7.108006249286794
 30
0.0
 11
3.0820048117673
 21
7.108006249286794
 31
0.0
  0
LINE
  5
44F5
330
1E
100
AcDbEntity
  8
7
100
AcDbLine
 10
3.0820048117673
 20
7.108006249286794
 30
0.0
 11
3.121377806255488
 21
7.101444083538762
 31
0.0
  0
LINE
  5
44F6
330
1E
100
AcDbEntity
  8
7
100
AcDbLine
 10
3.121377806255488
 20
7.101444083538762
 30
0.0
 11
3.157469717869661
 21
7.08011704485766
 31
0.0
  0
LINE
  5
44F7
330
1E
100
AcDbEntity
  8
7
100
AcDbLine
 10
3.157469717869661
 20
7.08011704485766
 30
0.0
 11
3.18864000517281
 21
7.047306216117502
 31
0.0
  0
LINE
  5
44F8
330
1E
100
AcDbEntity
  8
7
100
AcDbLine
 10
3.18864000517281
 20
7.047306216117502
 30
0.0
 11
3.211607585290922
 21
7.004652138755298
 31
0.0
  0
LINE
  5
44F9
330
1E
100
AcDbEntity
  8
7
100
AcDbLine
 10
3.211607585290922
 20
7.004652138755298
 30
0.0
 11
3.226372458223992
 21
6.953795354208054
 31
0.0
  0
LINE
  5
44FA
330
1E
100
AcDbEntity
  8
7
100
AcDbLine
 10
3.226372458223992
 20
6.953795354208054
 30
0.0
 11
3.231294082535016
 21
6.898016945349786
 31
0.0
  0
LINE
  5
44FB
330
1E
100
AcDbEntity
  8
7
100
AcDbLine
 10
3.231294082535016
 20
6.898016945349786
 30
0.0
 11
3.231294082535016
 21
6.067902978223802
 31
0.0
  0
LINE
  5
44FC
330
1E
100
AcDbEntity
  8
7
100
AcDbLine
 10
3.859621452909031
 20
7.421349663755298
 30
0.0
 11
3.838294414227929
 21
7.41150641513325
 31
0.0
  0
LINE
  5
44FD
330
1E
100
AcDbEntity
  8
7
100
AcDbLine
 10
3.838294414227929
 20
7.41150641513325
 30
0.0
 11
3.828451165605881
 21
7.390179376452148
 31
0.0
  0
LINE
  5
44FE
330
1E
100
AcDbEntity
  8
7
100
AcDbLine
 10
3.828451165605881
 20
5.577381088558447
 30
0.0
 11
3.838294414227929
 21
5.554413508440337
 31
0.0
  0
LINE
  5
44FF
330
1E
100
AcDbEntity
  8
7
100
AcDbLine
 10
3.838294414227929
 20
5.554413508440337
 30
0.0
 11
3.859621452909031
 21
5.546210801255297
 31
0.0
  0
LINE
  5
4500
330
1E
100
AcDbEntity
  8
7
100
AcDbLine
 10
4.209056778991709
 20
5.546210801255297
 30
0.0
 11
4.232024359109819
 21
5.554413508440337
 31
0.0
  0
LINE
  5
4501
330
1E
100
AcDbEntity
  8
7
100
AcDbLine
 10
4.232024359109819
 20
5.554413508440337
 30
0.0
 11
4.240227066294859
 21
5.577381088558446
 31
0.0
  0
LINE
  5
4502
330
1E
100
AcDbEntity
  8
7
100
AcDbLine
 10
4.240227066294859
 20
7.390179376452148
 30
0.0
 11
4.232024359109819
 21
7.41150641513325
 31
0.0
  0
LINE
  5
4503
330
1E
100
AcDbEntity
  8
7
100
AcDbLine
 10
4.232024359109819
 20
7.41150641513325
 30
0.0
 11
4.209056778991709
 21
7.421349663755298
 31
0.0
  0
LINE
  5
4504
330
1E
100
AcDbEntity
  8
7
100
AcDbLine
 10
0.9509414850940714
 20
5.554413508440337
 30
0.0
 11
0.9279739049759601
 21
5.546210801255297
 31
0.0
  0
LINE
  5
4505
330
1E
100
AcDbEntity
  8
7
100
AcDbLine
 10
0.9279739049759601
 20
5.546210801255297
 30
0.0
 11
0.5785385788932831
 21
5.546210801255297
 31
0.0
  0
LINE
  5
4506
330
1E
100
AcDbEntity
  8
7
100
AcDbLine
 10
0.5785385788932831
 20
5.546210801255297
 30
0.0
 11
0.5572115402121814
 21
5.554413508440337
 31
0.0
  0
LINE
  5
4507
330
1E
100
AcDbEntity
  8
7
100
AcDbLine
 10
0.5572115402121814
 20
5.554413508440337
 30
0.0
 11
0.5473682915901348
 21
5.577381088558447
 31
0.0
  0
LINE
  5
4508
330
1E
100
AcDbEntity
  8
7
100
AcDbLine
 10
0.5473682915901348
 20
5.577381088558447
 30
0.0
 11
0.5473682915901353
 21
7.390179376452149
 31
0.0
  0
LINE
  5
4509
330
1E
100
AcDbEntity
  8
7
100
AcDbLine
 10
0.5473682915901353
 20
7.390179376452149
 30
0.0
 11
0.5572115402121818
 21
7.41150641513325
 31
0.0
  0
LINE
  5
450A
330
1E
100
AcDbEntity
  8
7
100
AcDbLine
 10
0.5572115402121818
 20
7.41150641513325
 30
0.0
 11
0.5785385788932836
 21
7.421349663755298
 31
0.0
  0
LINE
  5
450B
330
1E
100
AcDbEntity
  8
7
100
AcDbLine
 10
0.5785385788932836
 20
7.421349663755298
 30
0.0
 11
0.9279739049759605
 21
7.421349663755298
 31
0.0
  0
LINE
  5
450C
330
1E
100
AcDbEntity
  8
7
100
AcDbLine
 10
0.9279739049759605
 20
7.421349663755298
 30
0.0
 11
0.9509414850940718
 21
7.41150641513325
 31
0.0
  0
LINE
  5
450D
330
1E
100
AcDbEntity
  8
7
100
AcDbLine
 10
0.9509414850940718
 20
7.41150641513325
 30
0.0
 11
0.9591441922791105
 21
7.390179376452149
 31
0.0
  0
LINE
  5
450E
330
1E
100
AcDbEntity
  8
7
100
AcDbLine
 10
0.9591441922791105
 20
7.390179376452149
 30
0.0
 11
0.9591441922791101
 21
5.577381088558447
 31
0.0
  0
LINE
  5
450F
330
1E
100
AcDbEntity
  8
7
100
AcDbLine
 10
0.9591441922791101
 20
5.577381088558447
 30
0.0
 11
0.9509414850940714
 21
5.554413508440337
 31
0.0
  0
LINE
  5
4510
330
1E
100
AcDbEntity
  8
7
100
AcDbLine
 10
0.3718303578302926
 20
7.631338967692306
 30
0.0
 11
0.3718303578302922
 21
5.33622149731829
 31
0.0
  0
LINE
  5
4511
330
1E
100
AcDbEntity
  8
7
100
AcDbLine
 10
0.3718303578302922
 20
5.33622149731829
 30
0.0
 11
4.415765000054702
 21
5.336221497318289
 31
0.0
  0
LINE
  5
4512
330
1E
100
AcDbEntity
  8
7
100
AcDbLine
 10
4.415765000054702
 20
5.336221497318289
 30
0.0
 11
4.415765000054702
 21
7.631338967692306
 31
0.0
  0
LINE
  5
4513
330
1E
100
AcDbEntity
  8
7
100
AcDbLine
 10
4.415765000054702
 20
7.631338967692306
 30
0.0
 11
0.3718303578302926
 21
7.631338967692306
 31
0.0
  0
ENDSEC
  0
SECTION
  2
OBJECTS
  0
DICTIONARY
  5
C
330
0
100
AcDbDictionary
  3
ACAD_GROUP
350
D
  3
ACAD_LAYOUT
350
19
  3
ACAD_MLINESTYLE
350
16
  3
ACAD_PLOTSETTINGS
350
18
1001
ACAD
1000
TREAT_AS_HARD
1070
     0
  0
DICTIONARY
  5
5633
330
1E
100
AcDbDictionary
  3
ACAD_LAYOUTSELFREF
350
5673
1001
ACAD
1000
TREAT_AS_HARD
1070
     1
  0
DICTIONARY
  5
5635
330
1A
100
AcDbDictionary
  3
ACAD_LAYOUTSELFREF
350
5672
1001
ACAD
1000
TREAT_AS_HARD
1070
     1
  0
DICTIONARY
  5
D
102
{ACAD_REACTORS
330
C
102
}
330
C
100
AcDbDictionary
1001
ACAD
1000
TREAT_AS_HARD
1070
     0
  0
DICTIONARY
  5
19
102
{ACAD_REACTORS
330
C
102
}
330
C
100
AcDbDictionary
1001
ACAD
1000
TREAT_AS_HARD
1070
     0
  0
DICTIONARY
  5
16
102
{ACAD_REACTORS
330
C
102
}
330
C
100
AcDbDictionary
  3
STANDARD
350
17
1001
ACAD
1000
TREAT_AS_HARD
1070
     0
  0
DICTIONARY
  5
18
102
{ACAD_REACTORS
330
C
102
}
330
C
100
AcDbDictionary
1001
ACAD
1000
TREAT_AS_HARD
1070
     0
  0
XRECORD
  5
5673
102
{ACAD_REACTORS
330
5633
102
}
330
5633
100
AcDbXrecord
340
1E
  0
XRECORD
  5
5672
102
{ACAD_REACTORS
330
5635
102
}
330
5635
100
AcDbXrecord
340
1A
  0
MLINESTYLE
  5
17
102
{ACAD_REACTORS
330
16
102
}
330
16
100
AcDbMlineStyle
  2
STANDARD
 70
     0
  3

 62
   256
 51
90.0
 52
90.0
 71
     2
 49
0.5
 62
   256
  6
BYLAYER
 49
-0.5
 62
   256
  6
BYLAYER
  0
ENDSEC
  0
EOF
